  0
SECTION
  2
HEADER
  9
$ACADVER
  1
AC1015
  9
$ACADMAINTVER
 70
    20
  9
$DWGCODEPAGE
  3
ANSI_932
  9
$INSBASE
 10
268.4340021441085
 20
176.78614296069
 30
0.0
  9
$EXTMIN
 10
210.3045104778686
 20
-667.096983475046
 30
0.0
  9
$EXTMAX
 10
482.4574914991307
 20
-588.5969834750315
 30
0.0
  9
$LIMMIN
 10
0.0
 20
0.0
  9
$LIMMAX
 10
554.0
 20
395.0
  9
$ORTHOMODE
 70
     0
  9
$REGENMODE
 70
     1
  9
$FILLMODE
 70
     1
  9
$QTEXTMODE
 70
     0
  9
$MIRRTEXT
 70
     1
  9
$LTSCALE
 40
2.0
  9
$ATTMODE
 70
     1
  9
$TEXTSIZE
 40
10.0
  9
$TRACEWID
 40
0.2
  9
$TEXTSTYLE
  7
KANJI
  9
$CLAYER
  8
1外形線
  9
$CELTYPE
  6
BYLAYER
  9
$CECOLOR
 62
   256
  9
$CELTSCALE
 40
3.0
  9
$DISPSILH
 70
     0
  9
$DIMSCALE
 40
1.0
  9
$DIMASZ
 40
1.0
  9
$DIMEXO
 40
1.0
  9
$DIMDLI
 40
6.0
  9
$DIMRND
 40
0.0
  9
$DIMDLE
 40
0.0
  9
$DIMEXE
 40
1.0
  9
$DIMTP
 40
0.0
  9
$DIMTM
 40
0.0
  9
$DIMTXT
 40
2.5
  9
$DIMCEN
 40
0.0
  9
$DIMTSZ
 40
0.0
  9
$DIMTOL
 70
     0
  9
$DIMLIM
 70
     0
  9
$DIMTIH
 70
     0
  9
$DIMTOH
 70
     0
  9
$DIMSE1
 70
     0
  9
$DIMSE2
 70
     0
  9
$DIMTAD
 70
     1
  9
$DIMZIN
 70
     8
  9
$DIMBLK
  1

  9
$DIMASO
 70
     1
  9
$DIMSHO
 70
     1
  9
$DIMPOST
  1

  9
$DIMAPOST
  1

  9
$DIMALT
 70
     0
  9
$DIMALTD
 70
     2
  9
$DIMALTF
 40
25.4
  9
$DIMLFAC
 40
1.0
  9
$DIMTOFL
 70
     1
  9
$DIMTVP
 40
0.0
  9
$DIMTIX
 70
     0
  9
$DIMSOXD
 70
     0
  9
$DIMSAH
 70
     1
  9
$DIMBLK1
  1
1
  9
$DIMBLK2
  1
1
  9
$DIMSTYLE
  2
STANDARD
  9
$DIMCLRD
 70
     0
  9
$DIMCLRE
 70
     0
  9
$DIMCLRT
 70
     0
  9
$DIMTFAC
 40
1.0
  9
$DIMGAP
 40
0.5
  9
$DIMJUST
 70
     0
  9
$DIMSD1
 70
     0
  9
$DIMSD2
 70
     0
  9
$DIMTOLJ
 70
     1
  9
$DIMTZIN
 70
     8
  9
$DIMALTZ
 70
     8
  9
$DIMALTTZ
 70
     8
  9
$DIMUPT
 70
     0
  9
$DIMDEC
 70
     4
  9
$DIMTDEC
 70
     4
  9
$DIMALTU
 70
     2
  9
$DIMALTTD
 70
     2
  9
$DIMTXSTY
  7
KANJI
  9
$DIMAUNIT
 70
     0
  9
$DIMADEC
 70
     0
  9
$DIMALTRND
 40
0.0
  9
$DIMAZIN
 70
     0
  9
$DIMDSEP
 70
    46
  9
$DIMATFIT
 70
     3
  9
$DIMFRAC
 70
     0
  9
$DIMLDRBLK
  1

  9
$DIMLUNIT
 70
     2
  9
$DIMLWD
 70
    -2
  9
$DIMLWE
 70
    -2
  9
$DIMTMOVE
 70
     0
  9
$LUNITS
 70
     2
  9
$LUPREC
 70
     4
  9
$SKETCHINC
 40
0.1
  9
$FILLETRAD
 40
0.0
  9
$AUNITS
 70
     0
  9
$AUPREC
 70
     0
  9
$MENU
  1
tcad-s
  9
$ELEVATION
 40
0.0
  9
$PELEVATION
 40
0.0
  9
$THICKNESS
 40
0.0
  9
$LIMCHECK
 70
     0
  9
$CHAMFERA
 40
0.0
  9
$CHAMFERB
 40
0.0
  9
$CHAMFERC
 40
0.0
  9
$CHAMFERD
 40
0.0
  9
$SKPOLY
 70
     0
  9
$TDCREATE
 40
2452040.737838669
  9
$TDUCREATE
 40
2452040.362838669
  9
$TDUPDATE
 40
2457213.634403125
  9
$TDUUPDATE
 40
2457213.259403125
  9
$TDINDWG
 40
0.0587517708
  9
$TDUSRTIMER
 40
0.0587517708
  9
$USRTIMER
 70
     1
  9
$ANGBASE
 50
0.0
  9
$ANGDIR
 70
     0
  9
$PDMODE
 70
     0
  9
$PDSIZE
 40
2.399999999999999
  9
$PLINEWID
 40
0.0
  9
$SPLFRAME
 70
     0
  9
$SPLINETYPE
 70
     6
  9
$SPLINESEGS
 70
     8
  9
$HANDSEED
  5
EB37
  9
$SURFTAB1
 70
     6
  9
$SURFTAB2
 70
     6
  9
$SURFTYPE
 70
     6
  9
$SURFU
 70
     6
  9
$SURFV
 70
     6
  9
$UCSBASE
  2

  9
$UCSNAME
  2

  9
$UCSORG
 10
0.0
 20
0.0
 30
0.0
  9
$UCSXDIR
 10
1.0
 20
0.0
 30
0.0
  9
$UCSYDIR
 10
0.0
 20
1.0
 30
0.0
  9
$UCSORTHOREF
  2

  9
$UCSORTHOVIEW
 70
     0
  9
$UCSORGTOP
 10
0.0
 20
0.0
 30
0.0
  9
$UCSORGBOTTOM
 10
0.0
 20
0.0
 30
0.0
  9
$UCSORGLEFT
 10
0.0
 20
0.0
 30
0.0
  9
$UCSORGRIGHT
 10
0.0
 20
0.0
 30
0.0
  9
$UCSORGFRONT
 10
0.0
 20
0.0
 30
0.0
  9
$UCSORGBACK
 10
0.0
 20
0.0
 30
0.0
  9
$PUCSBASE
  2

  9
$PUCSNAME
  2

  9
$PUCSORG
 10
0.0
 20
0.0
 30
0.0
  9
$PUCSXDIR
 10
1.0
 20
0.0
 30
0.0
  9
$PUCSYDIR
 10
0.0
 20
1.0
 30
0.0
  9
$PUCSORTHOREF
  2

  9
$PUCSORTHOVIEW
 70
     0
  9
$PUCSORGTOP
 10
0.0
 20
0.0
 30
0.0
  9
$PUCSORGBOTTOM
 10
0.0
 20
0.0
 30
0.0
  9
$PUCSORGLEFT
 10
0.0
 20
0.0
 30
0.0
  9
$PUCSORGRIGHT
 10
0.0
 20
0.0
 30
0.0
  9
$PUCSORGFRONT
 10
0.0
 20
0.0
 30
0.0
  9
$PUCSORGBACK
 10
0.0
 20
0.0
 30
0.0
  9
$USERI1
 70
     0
  9
$USERI2
 70
     0
  9
$USERI3
 70
     0
  9
$USERI4
 70
     0
  9
$USERI5
 70
     0
  9
$USERR1
 40
0.0
  9
$USERR2
 40
0.0
  9
$USERR3
 40
0.0
  9
$USERR4
 40
0.0
  9
$USERR5
 40
0.0
  9
$WORLDVIEW
 70
     1
  9
$SHADEDGE
 70
     3
  9
$SHADEDIF
 70
    70
  9
$TILEMODE
 70
     1
  9
$MAXACTVP
 70
    16
  9
$PINSBASE
 10
0.0
 20
0.0
 30
0.0
  9
$PLIMCHECK
 70
     0
  9
$PEXTMIN
 10
1.000000000000000E+20
 20
1.000000000000000E+20
 30
1.000000000000000E+20
  9
$PEXTMAX
 10
-1.000000000000000E+20
 20
-1.000000000000000E+20
 30
-1.000000000000000E+20
  9
$PLIMMIN
 10
0.0
 20
0.0
  9
$PLIMMAX
 10
12.0
 20
9.0
  9
$UNITMODE
 70
     0
  9
$VISRETAIN
 70
     0
  9
$PLINEGEN
 70
     0
  9
$PSLTSCALE
 70
     0
  9
$TREEDEPTH
 70
  3020
  9
$CMLSTYLE
  2
STANDARD
  9
$CMLJUST
 70
     0
  9
$CMLSCALE
 40
1.0
  9
$PROXYGRAPHICS
 70
     1
  9
$MEASUREMENT
 70
     1
  9
$CELWEIGHT
370
    -1
  9
$ENDCAPS
280
     0
  9
$JOINSTYLE
280
     0
  9
$LWDISPLAY
290
     0
  9
$INSUNITS
 70
     0
  9
$HYPERLINKBASE
  1

  9
$STYLESHEET
  1

  9
$XEDIT
290
     1
  9
$CEPSNTYPE
380
     0
  9
$PSTYLEMODE
290
     1
  9
$FINGERPRINTGUID
  2
{A754A4B6-515F-41C7-9C4F-B90427B5682F}
  9
$VERSIONGUID
  2
{492D1EFF-A9E4-431C-BF50-17C8E24D789B}
  9
$EXTNAMES
290
     1
  9
$PSVPSCALE
 40
0.0
  9
$OLESTARTUP
290
     0
  0
ENDSEC
  0
SECTION
  2
CLASSES
  0
CLASS
  1
DICTIONARYVAR
  2
AcDbDictionaryVar
  3
ObjectDBX Classes
 90
        0
280
     0
281
     0
  0
CLASS
  1
ACDBDICTIONARYWDFLT
  2
AcDbDictionaryWithDefault
  3
ObjectDBX Classes
 90
        0
280
     0
281
     0
  0
CLASS
  1
MATERIAL
  2
AcDbMaterial
  3
ObjectDBX Classes
 90
     1153
280
     0
281
     0
  0
CLASS
  1
VISUALSTYLE
  2
AcDbVisualStyle
  3
ObjectDBX Classes
 90
     4095
280
     0
281
     0
  0
CLASS
  1
TABLESTYLE
  2
AcDbTableStyle
  3
ObjectDBX Classes
 90
     4095
280
     0
281
     0
  0
CLASS
  1
SCALE
  2
AcDbScale
  3
ObjectDBX Classes
 90
     1153
280
     0
281
     0
  0
CLASS
  1
MLEADERSTYLE
  2
AcDbMLeaderStyle
  3
ACDB_MLEADERSTYLE_CLASS
 90
     4095
280
     0
281
     0
  0
CLASS
  1
SORTENTSTABLE
  2
AcDbSortentsTable
  3
ObjectDBX Classes
 90
    32768
280
     0
281
     0
  0
CLASS
  1
CELLSTYLEMAP
  2
AcDbCellStyleMap
  3
ObjectDBX Classes
 90
     1152
280
     0
281
     0
  0
CLASS
  1
ACDBPLACEHOLDER
  2
AcDbPlaceHolder
  3
ObjectDBX Classes
 90
        0
280
     0
281
     0
  0
CLASS
  1
LAYOUT
  2
AcDbLayout
  3
ObjectDBX Classes
 90
        0
280
     0
281
     0
  0
ENDSEC
  0
SECTION
  2
TABLES
  0
TABLE
  2
VPORT
  5
8
102
{ACAD_XDICTIONARY
360
EA37
102
}
330
0
100
AcDbSymbolTable
 70
     1
  0
VPORT
  5
DE77
330
8
100
AcDbSymbolTableRecord
100
AcDbViewportTableRecord
  2
*ACTIVE
 70
     0
 10
0.0
 20
0.0
 11
1.0
 21
1.0
 12
468.9072530755481
 22
-619.5621469053414
 13
0.0
 23
0.0
 14
1.0
 24
1.0
 15
0.0
 25
0.0
 16
0.0
 26
0.0
 36
1.0
 17
0.0
 27
0.0
 37
0.0
 40
81.88558601564446
 41
3.035971223021582
 42
50.0
 43
0.0
 44
0.0
 50
0.0
 51
0.0
 71
     0
 72
  1000
 73
     1
 74
     1
 75
     0
 76
     0
 77
     0
 78
     1
281
     0
 65
     1
110
0.0
120
0.0
130
0.0
111
1.0
121
0.0
131
0.0
112
0.0
122
1.0
132
0.0
 79
     0
146
0.0
1001
ACAD_NAV_VCDISPLAY
1070
     3
  0
ENDTAB
  0
TABLE
  2
LTYPE
  5
5
330
0
100
AcDbSymbolTable
 70
     4
  0
LTYPE
  5
11
330
5
100
AcDbSymbolTableRecord
100
AcDbLinetypeTableRecord
  2
BYBLOCK
 70
     0
  3

 72
    65
 73
     0
 40
0.0
  0
LTYPE
  5
12
330
5
100
AcDbSymbolTableRecord
100
AcDbLinetypeTableRecord
  2
BYLAYER
 70
     0
  3

 72
    65
 73
     0
 40
0.0
  0
LTYPE
  5
13
330
5
100
AcDbSymbolTableRecord
100
AcDbLinetypeTableRecord
  2
CONTINUOUS
 70
     0
  3
Solid line
 72
    65
 73
     0
 40
0.0
  0
LTYPE
  5
3C
330
5
100
AcDbSymbolTableRecord
100
AcDbLinetypeTableRecord
  2
CENTER
 70
     0
  3
____ _ ____ _ ____ _ ____ _ ____ _ ____ _ ____ 
 72
    65
 73
     4
 40
2.0
 49
1.25
 74
     0
 49
-0.25
 74
     0
 49
0.25
 74
     0
 49
-0.25
 74
     0
  0
LTYPE
  5
D76F
330
5
100
AcDbSymbolTableRecord
100
AcDbLinetypeTableRecord
  2
HIDDEN2
 70
     0
  3
Hidden (.5x) _ _ _ _ _ _ _ _ _ _ _ _ _ _ _ _ _
 72
    65
 73
     2
 40
4.762499999999999
 49
3.174999999999999
 74
     0
 49
-1.587499999999999
 74
     0
  0
LTYPE
  5
E881
330
5
100
AcDbSymbolTableRecord
100
AcDbLinetypeTableRecord
  2
PHANTOM2
 70
     0
  3
Phantom (.5x) ___ _ _ ___ _ _ ___ _ _ ___ _ _
 72
    65
 73
     6
 40
31.75
 49
15.875
 74
     0
 49
-3.174999999999999
 74
     0
 49
3.174999999999999
 74
     0
 49
-3.174999999999999
 74
     0
 49
3.174999999999999
 74
     0
 49
-3.174999999999999
 74
     0
  0
ENDTAB
  0
TABLE
  2
LAYER
  5
2
102
{ACAD_XDICTIONARY
360
DFCB
102
}
330
0
100
AcDbSymbolTable
 70
    11
  0
LAYER
  5
E
102
{ACAD_XDICTIONARY
360
DECD
102
}
330
2
100
AcDbSymbolTableRecord
100
AcDbLayerTableRecord
  2
0
 70
     0
 62
     7
  6
CONTINUOUS
370
    -3
390
DE7A
  0
LAYER
  5
40
102
{ACAD_XDICTIONARY
360
DECF
102
}
330
2
100
AcDbSymbolTableRecord
100
AcDbLayerTableRecord
  2
1外形線
 70
     0
 62
     3
  6
CONTINUOUS
370
    -3
390
DE7A
  0
LAYER
  5
41
102
{ACAD_XDICTIONARY
360
DED1
102
}
330
2
100
AcDbSymbolTableRecord
100
AcDbLayerTableRecord
  2
2寸法線
 70
     0
 62
     2
  6
CONTINUOUS
370
    -3
390
DE7A
  0
LAYER
  5
4C
102
{ACAD_XDICTIONARY
360
DED3
102
}
330
2
100
AcDbSymbolTableRecord
100
AcDbLayerTableRecord
  2
6図枠
 70
     0
 62
     7
  6
CONTINUOUS
370
    -3
390
DE7A
  0
LAYER
  5
D6D6
102
{ACAD_XDICTIONARY
360
DED5
102
}
330
2
100
AcDbSymbolTableRecord
100
AcDbLayerTableRecord
  2
C4
 70
     0
 62
     3
  6
CONTINUOUS
370
    -3
390
DE7A
  0
LAYER
  5
DB77
102
{ACAD_XDICTIONARY
360
DED7
102
}
330
2
100
AcDbSymbolTableRecord
100
AcDbLayerTableRecord
  2
5図枠
 70
     0
 62
     7
  6
CONTINUOUS
370
    -3
390
DE7A
  0
LAYER
  5
DB78
102
{ACAD_XDICTIONARY
360
DED9
102
}
330
2
100
AcDbSymbolTableRecord
100
AcDbLayerTableRecord
  2
2ｶﾊﾞｰ
 70
     0
 62
     3
  6
CONTINUOUS
370
    -3
390
DE7A
  0
LAYER
  5
DB79
102
{ACAD_XDICTIONARY
360
DEDB
102
}
330
2
100
AcDbSymbolTableRecord
100
AcDbLayerTableRecord
  2
2ﾍﾞｰｽ
 70
     0
 62
     7
  6
CONTINUOUS
370
    -3
390
DE7A
  0
LAYER
  5
DFC7
330
2
100
AcDbSymbolTableRecord
100
AcDbLayerTableRecord
  2
DEFPOINTS
 70
     0
 62
     7
  6
CONTINUOUS
290
     0
370
    -3
390
DE7A
  0
LAYER
  5
DFC8
102
{ACAD_XDICTIONARY
360
DFC9
102
}
330
2
100
AcDbSymbolTableRecord
100
AcDbLayerTableRecord
  2
3補助線
 70
     0
 62
     4
  6
CONTINUOUS
370
     9
390
DE7A
  0
LAYER
  5
E216
102
{ACAD_XDICTIONARY
360
E217
102
}
330
2
100
AcDbSymbolTableRecord
100
AcDbLayerTableRecord
  2
SUNPOU
 70
     0
 62
     2
  6
CONTINUOUS
370
    -3
390
DE7A
  0
ENDTAB
  0
TABLE
  2
STYLE
  5
3
330
0
100
AcDbSymbolTable
 70
     3
  0
STYLE
  5
F
330
3
100
AcDbSymbolTableRecord
100
AcDbTextStyleTableRecord
  2
STANDARD
 70
     0
 40
0.0
 41
1.0
 50
0.0
 71
     0
 42
0.2
  3
txt
  4

  0
STYLE
  5
3B
330
3
100
AcDbSymbolTableRecord
100
AcDbTextStyleTableRecord
  2
KANJI
 70
     0
 40
0.0
 41
1.0
 50
0.0
 71
     0
 42
10.0
  3
simplex
  4
bigfont
  0
STYLE
  5
3E02
330
3
100
AcDbSymbolTableRecord
100
AcDbTextStyleTableRecord
  2
ｺﾞｼｯｸ
 70
     0
 40
0.0
 41
1.0
 50
0.0
 71
     0
 42
2.5
  3

  4

1001
ACAD
1000
MS PGothic
1071
    32818
  0
ENDTAB
  0
TABLE
  2
VIEW
  5
6
330
0
100
AcDbSymbolTable
 70
     0
  0
ENDTAB
  0
TABLE
  2
UCS
  5
7
330
0
100
AcDbSymbolTable
 70
     0
  0
ENDTAB
  0
TABLE
  2
APPID
  5
9
330
0
100
AcDbSymbolTable
 70
     7
  0
APPID
  5
10
330
9
100
AcDbSymbolTableRecord
100
AcDbRegAppTableRecord
  2
ACAD
 70
     0
  0
APPID
  5
DEDD
330
9
100
AcDbSymbolTableRecord
100
AcDbRegAppTableRecord
  2
ACAD_NAV_VCDISPLAY
 70
     0
  0
APPID
  5
DFCA
330
9
100
AcDbSymbolTableRecord
100
AcDbRegAppTableRecord
  2
ACAD_PSEXT
 70
     0
  0
APPID
  5
E20C
330
9
100
AcDbSymbolTableRecord
100
AcDbRegAppTableRecord
  2
ACAD_EXEMPT_FROM_CAD_STANDARDS
 70
     0
  0
APPID
  5
E882
330
9
100
AcDbSymbolTableRecord
100
AcDbRegAppTableRecord
  2
GradientColor1ACI
 70
     0
  0
APPID
  5
E883
330
9
100
AcDbSymbolTableRecord
100
AcDbRegAppTableRecord
  2
GradientColor2ACI
 70
     0
  0
APPID
  5
EA6D
330
9
100
AcDbSymbolTableRecord
100
AcDbRegAppTableRecord
  2
ACAD_MLEADERVER
 70
     0
  0
ENDTAB
  0
TABLE
  2
DIMSTYLE
  5
A
330
0
100
AcDbSymbolTable
 70
     2
100
AcDbDimStyleTable
 71
     1
340
E11
  0
DIMSTYLE
105
E11
330
A
100
AcDbSymbolTableRecord
100
AcDbDimStyleTableRecord
  2
STANDARD
 70
     0
 41
1.0
 42
1.0
 43
6.0
 44
1.0
 73
     0
 74
     0
 77
     1
 78
     8
140
2.5
141
0.0
147
0.5
172
     1
173
     1
284
     8
285
     8
286
     8
340
3B
341
C7B3
343
C7B3
344
C7B3
  0
DIMSTYLE
105
E218
330
A
100
AcDbSymbolTableRecord
100
AcDbDimStyleTableRecord
  2
M
 70
     0
 40
0.0
 41
2.0
 42
1.0
 43
0.0
 44
1.0
 73
     0
 74
     0
 77
     1
 78
     8
140
2.5
141
0.0
147
0.5
172
     1
173
     1
284
     8
340
3B
341
E212
343
E212
344
E212
  0
ENDTAB
  0
TABLE
  2
BLOCK_RECORD
  5
1
330
0
100
AcDbSymbolTable
 70
     2
  0
BLOCK_RECORD
  5
17
330
1
100
AcDbSymbolTableRecord
100
AcDbBlockTableRecord
  2
*MODEL_SPACE
340
DEC6
  0
BLOCK_RECORD
  5
14
330
1
100
AcDbSymbolTableRecord
100
AcDbBlockTableRecord
  2
*PAPER_SPACE
340
DEC7
  0
BLOCK_RECORD
  5
C7B3
330
1
100
AcDbSymbolTableRecord
100
AcDbBlockTableRecord
  2
1
340
0
  0
BLOCK_RECORD
  5
E212
330
1
100
AcDbSymbolTableRecord
100
AcDbBlockTableRecord
  2
2
340
0
  0
ENDTAB
  0
ENDSEC
  0
SECTION
  2
BLOCKS
  0
BLOCK
  5
4F
330
17
100
AcDbEntity
  8
0
100
AcDbBlockBegin
  2
*MODEL_SPACE
 70
     0
 10
0.0
 20
0.0
 30
0.0
  3
*MODEL_SPACE
  1

  0
ENDBLK
  5
50
330
17
100
AcDbEntity
  8
0
100
AcDbBlockEnd
  0
BLOCK
  5
4D
330
14
100
AcDbEntity
 67
     1
  8
0
100
AcDbBlockBegin
  2
*PAPER_SPACE
 70
     0
 10
0.0
 20
0.0
 30
0.0
  3
*PAPER_SPACE
  1

  0
ENDBLK
  5
4E
330
14
100
AcDbEntity
 67
     1
  8
0
100
AcDbBlockEnd
  0
BLOCK
  5
C7B4
330
C7B3
100
AcDbEntity
  8
0
 48
2.0
100
AcDbBlockBegin
  2
1
 70
     0
 10
0.0
 20
0.0
 30
0.0
  3
1
  1

  0
SOLID
  5
C7B5
330
C7B3
100
AcDbEntity
  8
0
  6
ByBlock
 62
     0
100
AcDbTrace
 10
-1.811110924292052
 20
0.4852857095671653
 30
0.0
 11
-1.811110924292052
 21
-0.4852857095673642
 31
0.0
 12
0.0
 22
0.0
 32
0.0
 13
0.0
 23
0.0
 33
0.0
  0
ENDBLK
  5
C7B6
330
C7B3
100
AcDbEntity
  8
0
 48
2.0
100
AcDbBlockEnd
  0
BLOCK
  5
E213
330
E212
100
AcDbEntity
  8
0
 48
3.0
100
AcDbBlockBegin
  2
2
 70
     0
 10
0.0
 20
0.0
 30
0.0
  3
2
  1

  0
HATCH
  5
E214
330
E212
100
AcDbEntity
  8
0
  6
ByBlock
 62
     0
 48
3.0
100
AcDbHatch
 10
0.0
 20
0.0
 30
0.0
210
0.0
220
0.0
230
1.0
  2
SOLID
 70
     1
 71
     0
 91
        1
 92
        1
 93
        3
 72
     1
 10
-0.9999999999983517
 20
0.2679491924306774
 11
0.0
 21
0.0
 72
     1
 10
0.0
 20
0.0
 11
-0.9999999999983517
 21
-0.2679491924306765
 72
     1
 10
-0.9999999999983524
 20
-0.267949192430676
 11
-0.9999999999983524
 21
0.2679491924306774
 97
        0
 75
     0
 76
     1
 98
        1
 10
2.995745117231336
 20
-4.124946096263201
  0
ENDBLK
  5
E215
330
E212
100
AcDbEntity
  8
0
 48
3.0
100
AcDbBlockEnd
  0
ENDSEC
  0
SECTION
  2
ENTITIES
  0
LINE
  5
E522
330
17
100
AcDbEntity
  8
C4
 48
2.0
100
AcDbLine
 10
387.0161852331987
 20
-627.096983475038
 30
0.0
 11
348.0161852331896
 21
-627.0969834750363
 31
0.0
  0
LINE
  5
E523
330
17
100
AcDbEntity
  8
C4
 48
2.0
100
AcDbLine
 10
385.5161852332
 20
-588.5969834750372
 30
0.0
 11
328.51618523319
 21
-588.5969834750353
 31
0.0
  0
ARC
  5
E524
330
17
100
AcDbEntity
  8
C4
 48
2.0
100
AcDbCircle
 10
328.5161852331891
 20
-608.5969834750353
 30
0.0
 40
20.0
100
AcDbArc
 50
90.0
 51
134.9999999999723
  0
LINE
  5
E526
330
17
100
AcDbEntity
  8
C4
100
AcDbLine
 10
310.4303987955638
 20
-667.0969834750458
 30
0.0
 11
347.0161852331905
 21
-667.0969834750449
 31
0.0
  0
LINE
  5
E527
330
17
100
AcDbEntity
  8
C4
 48
2.0
100
AcDbLine
 10
308.5161852331905
 20
-665.5969834750457
 30
0.0
 11
308.5161852331895
 21
-608.5969834750358
 31
0.0
  0
LINE
  5
E528
330
17
100
AcDbEntity
  8
C4
100
AcDbLine
 10
308.5161852331905
 20
-665.5969834750457
 30
0.0
 11
309.7232920143771
 21
-666.804090256232
 31
0.0
  0
ARC
  5
E529
330
17
100
AcDbEntity
  8
C4
100
AcDbCircle
 10
310.4303987955638
 20
-666.0969834750458
 30
0.0
 40
1.0
100
AcDbArc
 50
225.0000000000275
 51
270.0
  0
ARC
  5
E52A
330
17
100
AcDbEntity
  8
C4
 48
2.0
100
AcDbCircle
 10
328.5161852331896
 20
-608.5969834750353
 30
0.0
 40
20.0
100
AcDbArc
 50
134.9999999999723
 51
180.0
  0
ARC
  5
E52B
330
17
100
AcDbEntity
  8
C4
 48
2.0
100
AcDbCircle
 10
348.01618523319
 20
-628.0969834750358
 30
0.0
 40
1.0
100
AcDbArc
 50
135.0000000000091
 51
180.0
  0
ARC
  5
E52C
330
17
100
AcDbEntity
  8
C4
 48
2.0
100
AcDbCircle
 10
348.0161852331896
 20
-628.0969834750362
 30
0.0
 40
1.0
100
AcDbArc
 50
90.0
 51
134.9999999999723
  0
LINE
  5
E52D
330
17
100
AcDbEntity
  8
C4
 48
2.0
100
AcDbLine
 10
347.0161852331914
 20
-667.0969834750449
 30
0.0
 11
347.01618523319
 21
-628.0969834750358
 31
0.0
  0
LINE
  5
E52E
330
17
100
AcDbEntity
  8
C4
100
AcDbLine
 10
387.0161852332
 20
-590.5111970374105
 30
0.0
 11
387.0161852331987
 21
-627.0969834750371
 31
0.0
  0
ARC
  5
E530
330
17
100
AcDbEntity
  8
C4
100
AcDbCircle
 10
386.0161852332
 20
-590.5111970374105
 30
0.0
 40
1.0
100
AcDbArc
 50
0.0
 51
44.99999999999084
  0
LINE
  5
E531
330
17
100
AcDbEntity
  8
C4
100
AcDbLine
 10
385.5161852332
 20
-588.5969834750372
 30
0.0
 11
386.7232920143862
 21
-589.8040902562238
 31
0.0
  0
LINE
  5
E532
330
17
100
AcDbEntity
  8
C4
 48
2.0
100
AcDbLine
 10
461.4574914991307
 20
-667.0969834750455
 30
0.0
 11
442.3717050615036
 21
-667.0969834750451
 31
0.0
  0
ARC
  5
E533
330
17
100
AcDbEntity
  8
C4
 48
2.0
100
AcDbCircle
 10
461.4574914991307
 20
-609.5969834750315
 30
0.0
 40
21.0
100
AcDbArc
 50
90.0
 51
180.0
  0
ARC
  5
E534
330
17
100
AcDbEntity
  8
1外形線
 48
3.0
100
AcDbCircle
 10
461.4574914991307
 20
-609.5969834750315
 30
0.0
 40
19.0
100
AcDbArc
 50
0.0
 51
180.0
  0
LINE
  5
E535
330
17
100
AcDbEntity
  8
C4
100
AcDbLine
 10
440.4574914991307
 20
-627.096983475031
 30
0.0
 11
440.4574914991307
 21
-609.5969834750315
 31
0.0
  0
LINE
  5
E536
330
17
100
AcDbEntity
  8
1外形線
100
AcDbLine
 10
442.4574914991307
 20
-627.0969834750315
 30
0.0
 11
442.4574914991307
 21
-609.5969834750315
 31
0.0
  0
LINE
  5
E537
330
17
100
AcDbEntity
  8
C4
  6
Continuous
 48
2.0
100
AcDbLine
 10
440.4574914991307
 20
-627.096983475031
 30
0.0
 11
442.4574914991307
 21
-627.0969834750315
 31
0.0
  0
LINE
  5
E538
330
17
100
AcDbEntity
  8
1外形線
 48
3.0
100
AcDbLine
 10
440.4574914991307
 20
-665.5969834750451
 30
0.0
 11
441.6645982803173
 21
-666.8040902562317
 31
0.0
  0
ARC
  5
E539
330
17
100
AcDbEntity
  8
1外形線
 48
2.0
100
AcDbCircle
 10
442.3717050615036
 20
-666.0969834750451
 30
0.0
 40
1.0
100
AcDbArc
 50
225.0000000000275
 51
270.0
  0
LINE
  5
E53A
330
17
100
AcDbEntity
  8
C4
 48
2.0
100
AcDbLine
 10
440.4574914991307
 20
-665.5969834750456
 30
0.0
 11
440.4574914991307
 21
-627.096983475031
 31
0.0
  0
LINE
  5
E53B
330
17
100
AcDbEntity
  8
C4
100
AcDbLine
 10
442.4574914991307
 20
-667.0969834750455
 30
0.0
 11
442.4574914991307
 21
-627.0969834750315
 31
0.0
  0
LINE
  5
E53C
330
17
100
AcDbEntity
  8
C4
100
AcDbLine
 10
482.4574914991307
 20
-627.096983475031
 30
0.0
 11
482.4574914991307
 21
-609.5969834750315
 31
0.0
  0
LINE
  5
E53D
330
17
100
AcDbEntity
  8
C4
100
AcDbLine
 10
480.4574914991317
 20
-627.0969834750315
 30
0.0
 11
480.4574914991307
 21
-609.5969834750315
 31
0.0
  0
LINE
  5
E53E
330
17
100
AcDbEntity
  8
C4
 48
2.0
100
AcDbLine
 10
461.4574914991307
 20
-667.0969834750455
 30
0.0
 11
480.5432779367579
 21
-667.096983475046
 31
0.0
  0
LINE
  5
E53F
330
17
100
AcDbEntity
  8
C4
  6
Continuous
 48
2.0
100
AcDbLine
 10
482.4574914991307
 20
-627.096983475031
 30
0.0
 11
480.4574914991307
 21
-627.0969834750315
 31
0.0
  0
LINE
  5
E540
330
17
100
AcDbEntity
  8
1外形線
 48
3.0
100
AcDbLine
 10
482.4574914991307
 20
-665.5969834750451
 30
0.0
 11
481.250384717944
 21
-666.8040902562317
 31
0.0
  0
ARC
  5
E541
330
17
100
AcDbEntity
  8
1外形線
 48
2.0
100
AcDbCircle
 10
480.5432779367579
 20
-666.0969834750451
 30
0.0
 40
1.0
100
AcDbArc
 50
270.0
 51
314.9999999999723
  0
LINE
  5
E542
330
17
100
AcDbEntity
  8
C4
 48
2.0
100
AcDbLine
 10
482.4574914991307
 20
-665.5969834750456
 30
0.0
 11
482.4574914991307
 21
-627.096983475031
 31
0.0
  0
LINE
  5
E543
330
17
100
AcDbEntity
  8
C4
100
AcDbLine
 10
480.4574914991307
 20
-667.0969834750455
 30
0.0
 11
480.4574914991307
 21
-627.0969834750315
 31
0.0
  0
ARC
  5
E544
330
17
100
AcDbEntity
  8
C4
 48
2.0
100
AcDbCircle
 10
461.4574914991307
 20
-609.5969834750315
 30
0.0
 40
21.0
100
AcDbArc
 50
0.0
 51
90.0
  0
LINE
  5
E545
330
17
100
AcDbEntity
  8
1外形線
100
AcDbLine
 10
442.4574914991305
 20
-625.5969834750317
 30
0.0
 11
442.4574914991305
 21
-627.1577524629829
 31
0.0
  0
LINE
  5
E546
330
17
100
AcDbEntity
  8
1外形線
100
AcDbLine
 10
480.4574914991305
 20
-625.5969834750317
 30
0.0
 11
480.4574914991305
 21
-627.1577524629829
 31
0.0
  0
LINE
  5
E547
330
17
100
AcDbEntity
  8
1外形線
100
AcDbLine
 10
467.9574914991307
 20
-660.8040902562181
 30
0.0
 11
454.9574914991307
 21
-660.8040902562181
 31
0.0
  0
LINE
  5
E549
330
17
100
AcDbEntity
  8
1外形線
100
AcDbLine
 10
470.9574914991303
 20
-621.5969834750315
 30
0.0
 11
470.9574914991303
 21
-624.5969834750314
 31
0.0
  0
LINE
  5
E54A
330
17
100
AcDbEntity
  8
1外形線
100
AcDbLine
 10
469.9574914991303
 20
-621.5969834750315
 30
0.0
 11
470.9574914991303
 21
-621.5969834750315
 31
0.0
  0
LINE
  5
E54B
330
17
100
AcDbEntity
  8
1外形線
100
AcDbLine
 10
470.9574914991303
 20
-624.5969834750314
 30
0.0
 11
469.9574914991303
 21
-624.5969834750314
 31
0.0
  0
LINE
  5
E54D
330
17
100
AcDbEntity
  8
1外形線
100
AcDbLine
 10
452.9574914991303
 20
-621.5969834750315
 30
0.0
 11
453.4574914991303
 21
-621.5969834750315
 31
0.0
  0
LINE
  5
E54E
330
17
100
AcDbEntity
  8
1外形線
100
AcDbLine
 10
453.4574914991303
 20
-622.5969834750315
 30
0.0
 11
453.4574914991303
 21
-621.5969834750315
 31
0.0
  0
LINE
  5
E54F
330
17
100
AcDbEntity
  8
1外形線
100
AcDbLine
 10
453.4574914991303
 20
-622.5969834750315
 30
0.0
 11
461.4574914991303
 21
-622.5969834750315
 31
0.0
  0
LINE
  5
E550
330
17
100
AcDbEntity
  8
1外形線
100
AcDbLine
 10
461.4574914991303
 20
-622.5969834750315
 30
0.0
 11
469.4574914991303
 21
-622.5969834750315
 31
0.0
  0
LINE
  5
E551
330
17
100
AcDbEntity
  8
1外形線
100
AcDbLine
 10
469.4574914991303
 20
-622.5969834750315
 30
0.0
 11
469.4574914991303
 21
-621.5969834750315
 31
0.0
  0
LINE
  5
E552
330
17
100
AcDbEntity
  8
1外形線
100
AcDbLine
 10
469.9574914991303
 20
-621.5969834750315
 30
0.0
 11
469.4574914991303
 21
-621.5969834750315
 31
0.0
  0
LINE
  5
E553
330
17
100
AcDbEntity
  8
1外形線
100
AcDbLine
 10
452.9574914991303
 20
-624.5969834750314
 30
0.0
 11
469.9574914991303
 21
-624.5969834750314
 31
0.0
  0
LINE
  5
E555
330
17
100
AcDbEntity
  8
1外形線
100
AcDbLine
 10
451.9574914991302
 20
-624.5969834750314
 30
0.0
 11
451.9574914991302
 21
-621.5969834750315
 31
0.0
  0
LINE
  5
E556
330
17
100
AcDbEntity
  8
1外形線
100
AcDbLine
 10
451.9574914991302
 20
-621.5969834750315
 30
0.0
 11
452.9574914991303
 21
-621.5969834750315
 31
0.0
  0
LINE
  5
E557
330
17
100
AcDbEntity
  8
1外形線
100
AcDbLine
 10
452.9574914991303
 20
-624.5969834750314
 30
0.0
 11
451.9574914991302
 21
-624.5969834750314
 31
0.0
  0
LINE
  5
E558
330
17
100
AcDbEntity
  8
1外形線
100
AcDbLine
 10
443.8574914991304
 20
-627.0969834750315
 30
0.0
 11
479.0574914991304
 21
-627.0969834750315
 31
0.0
  0
LINE
  5
E559
330
17
100
AcDbEntity
  8
1外形線
100
AcDbLine
 10
442.4574914991302
 20
-627.0969834750315
 30
0.0
 11
443.8574914991304
 21
-627.0969834750315
 31
0.0
  0
LINE
  5
E55A
330
17
100
AcDbEntity
  8
1外形線
100
AcDbLine
 10
442.4574914991302
 20
-627.0969834750315
 30
0.0
 11
442.4574914991302
 21
-624.5969834750314
 31
0.0
  0
LINE
  5
E55B
330
17
100
AcDbEntity
  8
1外形線
100
AcDbLine
 10
442.5767793553738
 20
-624.5969834750314
 30
0.0
 11
451.7767198433527
 21
-624.5969834750314
 31
0.0
  0
LINE
  5
E55C
330
17
100
AcDbEntity
  8
1外形線
100
AcDbLine
 10
479.0574914991304
 20
-627.0969834750315
 30
0.0
 11
480.4574914991302
 21
-627.0969834750315
 31
0.0
  0
LINE
  5
E55D
330
17
100
AcDbEntity
  8
1外形線
100
AcDbLine
 10
480.4574914991302
 20
-627.0969834750315
 30
0.0
 11
480.4574914991302
 21
-624.5969834750314
 31
0.0
  0
ARC
  5
E55E
330
17
100
AcDbEntity
  8
1外形線
100
AcDbCircle
 10
479.9574914991302
 20
-618.8800786645161
 30
0.0
 40
0.4999999999999695
100
AcDbArc
 50
0.0
 51
39.58767220054383
  0
LINE
  5
E55F
330
17
100
AcDbEntity
  8
1外形線
100
AcDbLine
 10
442.4574914991302
 20
-624.5969834750314
 30
0.0
 11
442.4574914991302
 21
-618.8800786645161
 31
0.0
  0
ARC
  5
E560
330
17
100
AcDbEntity
  8
1外形線
100
AcDbCircle
 10
442.9574914991302
 20
-618.8800786645161
 30
0.0
 40
0.5000000000000134
100
AcDbArc
 50
140.4123277994561
 51
180.0
  0
LINE
  5
E561
330
17
100
AcDbEntity
  8
1外形線
100
AcDbLine
 10
480.4574914991302
 20
-624.5969834750314
 30
0.0
 11
480.4574914991302
 21
-618.8800786645161
 31
0.0
  0
LINE
  5
E562
330
17
100
AcDbEntity
  8
1外形線
100
AcDbLine
 10
478.1950032896097
 20
-617.2394905493188
 30
0.0
 11
480.214739376844
 21
-618.4513322016596
 31
0.0
  0
LINE
  5
E563
330
17
100
AcDbEntity
  8
1外形線
100
AcDbLine
 10
475.7403483562165
 20
-617.0969834750315
 30
0.0
 11
477.6805075341821
 21
-617.0969834750315
 31
0.0
  0
LINE
  5
E564
330
17
100
AcDbEntity
  8
1外形線
100
AcDbLine
 10
442.7002436214165
 20
-618.4513322016596
 30
0.0
 11
444.7199797086513
 21
-617.2394905493188
 31
0.0
  0
LINE
  5
E565
330
17
100
AcDbEntity
  8
1外形線
100
AcDbLine
 10
445.2344754640789
 20
-617.0969834750315
 30
0.0
 11
447.174634642045
 21
-617.0969834750315
 31
0.0
  0
LINE
  5
E566
330
17
100
AcDbEntity
  8
1外形線
100
AcDbLine
 10
480.4574914991307
 20
-627.0969834750315
 30
0.0
 11
480.4574914991307
 21
-628.0969834750314
 31
0.0
  0
LINE
  5
E567
330
17
100
AcDbEntity
  8
1外形線
100
AcDbLine
 10
446.1574914991305
 20
-628.0969834750314
 30
0.0
 11
446.1574914991305
 21
-627.0969834750315
 31
0.0
  0
LINE
  5
E568
330
17
100
AcDbEntity
  8
1外形線
100
AcDbLine
 10
476.7574914991307
 20
-628.0969834750314
 30
0.0
 11
476.7574914991307
 21
-627.0969834750315
 31
0.0
  0
LINE
  5
E569
330
17
100
AcDbEntity
  8
1外形線
100
AcDbLine
 10
442.4574914991307
 20
-627.0969834750315
 30
0.0
 11
442.4574914991307
 21
-628.0969834750314
 31
0.0
  0
LINE
  5
E56A
330
17
100
AcDbEntity
  8
1外形線
100
AcDbLine
 10
479.0574914991307
 20
-647.5969834750315
 30
0.0
 11
480.4574914991307
 21
-647.5969834750315
 31
0.0
  0
LINE
  5
E56B
330
17
100
AcDbEntity
  8
1外形線
100
AcDbLine
 10
479.0574914991307
 20
-655.0969834750315
 30
0.0
 11
480.4574914991307
 21
-655.0969834750315
 31
0.0
  0
LINE
  5
E56C
330
17
100
AcDbEntity
  8
1外形線
100
AcDbLine
 10
480.4574914991307
 20
-647.5969834750315
 30
0.0
 11
480.4574914991307
 21
-655.0969834750315
 31
0.0
  0
CIRCLE
  5
E56D
330
17
100
AcDbEntity
  8
1外形線
100
AcDbCircle
 10
461.4574914991307
 20
-643.4969834750313
 30
0.0
 40
2.099999999999993
  0
LINE
  5
E56E
330
17
100
AcDbEntity
  8
1外形線
100
AcDbLine
 10
443.8574914991308
 20
-647.0969834750315
 30
0.0
 11
443.8574914991308
 21
-655.0969834750315
 31
0.0
  0
LINE
  5
E56F
330
17
100
AcDbEntity
  8
1外形線
100
AcDbLine
 10
443.8574914991308
 20
-647.0969834750315
 30
0.0
 11
446.1574914991305
 21
-647.0969834750315
 31
0.0
  0
LINE
  5
E570
330
17
100
AcDbEntity
  8
1外形線
100
AcDbLine
 10
479.0574914991307
 20
-647.0969834750315
 30
0.0
 11
476.7574914991307
 21
-647.0969834750315
 31
0.0
  0
LINE
  5
E571
330
17
100
AcDbEntity
  8
1外形線
100
AcDbLine
 10
479.0574914991307
 20
-647.0969834750315
 30
0.0
 11
479.0574914991307
 21
-655.0969834750315
 31
0.0
  0
LINE
  5
E572
330
17
100
AcDbEntity
  8
1外形線
100
AcDbLine
 10
443.8574914991308
 20
-655.0969834750315
 30
0.0
 11
479.0574914991307
 21
-655.0969834750315
 31
0.0
  0
LINE
  5
E573
330
17
100
AcDbEntity
  8
1外形線
100
AcDbLine
 10
446.1574914991305
 20
-647.0969834750315
 30
0.0
 11
446.1574914991305
 21
-628.0969834750314
 31
0.0
  0
LINE
  5
E574
330
17
100
AcDbEntity
  8
1外形線
100
AcDbLine
 10
476.7574914991307
 20
-647.0969834750315
 30
0.0
 11
476.7574914991307
 21
-628.0969834750314
 31
0.0
  0
LINE
  5
E575
330
17
100
AcDbEntity
  8
1外形線
100
AcDbLine
 10
479.0574914991307
 20
-639.5969834750315
 30
0.0
 11
476.7574914991307
 21
-639.5969834750315
 31
0.0
  0
LINE
  5
E576
330
17
100
AcDbEntity
  8
1外形線
100
AcDbLine
 10
479.0574914991307
 20
-639.5969834750315
 30
0.0
 11
479.0574914991307
 21
-647.0969834750315
 31
0.0
  0
LINE
  5
E577
330
17
100
AcDbEntity
  8
1外形線
100
AcDbLine
 10
443.8574914991308
 20
-647.5969834750315
 30
0.0
 11
442.4574914991307
 21
-647.5969834750315
 31
0.0
  0
LINE
  5
E578
330
17
100
AcDbEntity
  8
1外形線
100
AcDbLine
 10
442.4574914991307
 20
-655.0969834750315
 30
0.0
 11
443.8574914991308
 21
-655.0969834750315
 31
0.0
  0
LINE
  5
E579
330
17
100
AcDbEntity
  8
1外形線
100
AcDbLine
 10
442.4574914991307
 20
-647.5969834750315
 30
0.0
 11
442.4574914991307
 21
-655.0969834750315
 31
0.0
  0
LINE
  5
E57A
330
17
100
AcDbEntity
  8
1外形線
100
AcDbLine
 10
443.8574914991308
 20
-639.5969834750315
 30
0.0
 11
446.1574914991305
 21
-639.5969834750315
 31
0.0
  0
LINE
  5
E57B
330
17
100
AcDbEntity
  8
1外形線
100
AcDbLine
 10
443.8574914991308
 20
-639.5969834750315
 30
0.0
 11
443.8574914991308
 21
-647.0969834750315
 31
0.0
  0
ARC
  5
E57C
330
17
100
AcDbEntity
  8
1外形線
100
AcDbCircle
 10
452.9574914991307
 20
-664.0969834750315
 30
0.0
 40
1.0
100
AcDbArc
 50
180.0
 51
270.0
  0
LINE
  5
E57D
330
17
100
AcDbEntity
  8
1外形線
100
AcDbLine
 10
451.9574914991308
 20
-664.0969834750315
 30
0.0
 11
451.9574914991308
 21
-655.5969834750315
 31
0.0
  0
LINE
  5
E57F
330
17
100
AcDbEntity
  8
1外形線
100
AcDbLine
 10
454.9574914991307
 20
-662.0969834750314
 30
0.0
 11
454.9574914991307
 21
-655.5969834750315
 31
0.0
  0
LINE
  5
E580
330
17
100
AcDbEntity
  8
1外形線
100
AcDbLine
 10
467.9574914991307
 20
-662.0969834750314
 30
0.0
 11
454.9574914991307
 21
-662.0969834750314
 31
0.0
  0
LINE
  5
E581
330
17
100
AcDbEntity
  8
1外形線
100
AcDbLine
 10
467.9574914991307
 20
-655.5969834750315
 30
0.0
 11
467.9574914991307
 21
-662.0969834750314
 31
0.0
  0
LINE
  5
E583
330
17
100
AcDbEntity
  8
1外形線
100
AcDbLine
 10
470.9574914991307
 20
-664.0969834750315
 30
0.0
 11
470.9574914991307
 21
-655.5969834750315
 31
0.0
  0
ARC
  5
E584
330
17
100
AcDbEntity
  8
1外形線
100
AcDbCircle
 10
469.9574914991307
 20
-664.0969834750315
 30
0.0
 40
1.0
100
AcDbArc
 50
270.0
 51
0.0
  0
LINE
  5
E585
330
17
100
AcDbEntity
  8
1外形線
100
AcDbLine
 10
452.9574914991307
 20
-665.0969834750315
 30
0.0
 11
469.9574914991307
 21
-665.0969834750315
 31
0.0
  0
LINE
  5
E586
330
17
100
AcDbEntity
  8
1外形線
100
AcDbLine
 10
467.9574914991307
 20
-655.0969834750315
 30
0.0
 11
467.9574914991307
 21
-655.5969834750315
 31
0.0
  0
LINE
  5
E587
330
17
100
AcDbEntity
  8
1外形線
100
AcDbLine
 10
470.9574914991307
 20
-655.0969834750315
 30
0.0
 11
470.9574914991307
 21
-655.5969834750315
 31
0.0
  0
LINE
  5
E588
330
17
100
AcDbEntity
  8
1外形線
100
AcDbLine
 10
451.9574914991308
 20
-655.5969834750315
 30
0.0
 11
451.9574914991308
 21
-655.0969834750315
 31
0.0
  0
LINE
  5
E589
330
17
100
AcDbEntity
  8
1外形線
100
AcDbLine
 10
454.9574914991307
 20
-655.5969834750315
 30
0.0
 11
454.9574914991307
 21
-655.0969834750315
 31
0.0
  0
LINE
  5
E58A
330
17
100
AcDbEntity
  8
1外形線
100
AcDbLine
 10
480.4574914991307
 20
-628.0969834750314
 30
0.0
 11
480.4574914991307
 21
-647.5969834750315
 31
0.0
  0
LINE
  5
E58B
330
17
100
AcDbEntity
  8
1外形線
100
AcDbLine
 10
442.4574914991307
 20
-628.0969834750314
 30
0.0
 11
442.4574914991307
 21
-647.5969834750315
 31
0.0
  0
POLYLINE
  5
E58C
330
17
100
AcDbEntity
  8
1外形線
100
AcDb3dPolyline
 66
     1
 10
0.0
 20
0.0
 30
0.0
 70
     8
  0
VERTEX
  5
E58D
330
E58C
100
AcDbEntity
  8
1外形線
100
AcDbVertex
100
AcDb3dPolylineVertex
 10
478.1945466477957
 20
-617.2394547608941
 30
0.0
 70
    32
  0
VERTEX
  5
E58E
330
E58C
100
AcDbEntity
  8
1外形線
100
AcDbVertex
100
AcDb3dPolylineVertex
 10
478.1925466477956
 20
-617.2379547608943
 30
0.0
 70
    32
  0
VERTEX
  5
E58F
330
E58C
100
AcDbEntity
  8
1外形線
100
AcDbVertex
100
AcDb3dPolylineVertex
 10
478.1895466477958
 20
-617.2364547608943
 30
0.0
 70
    32
  0
VERTEX
  5
E590
330
E58C
100
AcDbEntity
  8
1外形線
100
AcDbVertex
100
AcDb3dPolylineVertex
 10
478.1875466477958
 20
-617.2349547608941
 30
0.0
 70
    32
  0
VERTEX
  5
E591
330
E58C
100
AcDbEntity
  8
1外形線
100
AcDbVertex
100
AcDb3dPolylineVertex
 10
478.1845466477957
 20
-617.2335547608943
 30
0.0
 70
    32
  0
VERTEX
  5
E592
330
E58C
100
AcDbEntity
  8
1外形線
100
AcDbVertex
100
AcDb3dPolylineVertex
 10
478.1825466477957
 20
-617.2320547608942
 30
0.0
 70
    32
  0
VERTEX
  5
E593
330
E58C
100
AcDbEntity
  8
1外形線
100
AcDbVertex
100
AcDb3dPolylineVertex
 10
478.1795466477955
 20
-617.2305547608943
 30
0.0
 70
    32
  0
VERTEX
  5
E594
330
E58C
100
AcDbEntity
  8
1外形線
100
AcDbVertex
100
AcDb3dPolylineVertex
 10
478.1775466477956
 20
-617.2291547608942
 30
0.0
 70
    32
  0
VERTEX
  5
E595
330
E58C
100
AcDbEntity
  8
1外形線
100
AcDbVertex
100
AcDb3dPolylineVertex
 10
478.1745466477956
 20
-617.2276547608942
 30
0.0
 70
    32
  0
VERTEX
  5
E596
330
E58C
100
AcDbEntity
  8
1外形線
100
AcDbVertex
100
AcDb3dPolylineVertex
 10
478.1725466477957
 20
-617.2262547608943
 30
0.0
 70
    32
  0
VERTEX
  5
E597
330
E58C
100
AcDbEntity
  8
1外形線
100
AcDbVertex
100
AcDb3dPolylineVertex
 10
478.1695466477958
 20
-617.2247547608942
 30
0.0
 70
    32
  0
VERTEX
  5
E598
330
E58C
100
AcDbEntity
  8
1外形線
100
AcDbVertex
100
AcDb3dPolylineVertex
 10
478.1675466477958
 20
-617.2233547608944
 30
0.0
 70
    32
  0
VERTEX
  5
E599
330
E58C
100
AcDbEntity
  8
1外形線
100
AcDbVertex
100
AcDb3dPolylineVertex
 10
478.1645466477956
 20
-617.2219547608943
 30
0.0
 70
    32
  0
VERTEX
  5
E59A
330
E58C
100
AcDbEntity
  8
1外形線
100
AcDbVertex
100
AcDb3dPolylineVertex
 10
478.1625466477957
 20
-617.2205547608942
 30
0.0
 70
    32
  0
VERTEX
  5
E59B
330
E58C
100
AcDbEntity
  8
1外形線
100
AcDbVertex
100
AcDb3dPolylineVertex
 10
478.1595466477956
 20
-617.2191547608942
 30
0.0
 70
    32
  0
VERTEX
  5
E59C
330
E58C
100
AcDbEntity
  8
1外形線
100
AcDbVertex
100
AcDb3dPolylineVertex
 10
478.1565466477956
 20
-617.2177547608944
 30
0.0
 70
    32
  0
VERTEX
  5
E59D
330
E58C
100
AcDbEntity
  8
1外形線
100
AcDbVertex
100
AcDb3dPolylineVertex
 10
478.1545466477957
 20
-617.2163547608943
 30
0.0
 70
    32
  0
VERTEX
  5
E59E
330
E58C
100
AcDbEntity
  8
1外形線
100
AcDbVertex
100
AcDb3dPolylineVertex
 10
478.1515466477958
 20
-617.2150547608944
 30
0.0
 70
    32
  0
VERTEX
  5
E59F
330
E58C
100
AcDbEntity
  8
1外形線
100
AcDbVertex
100
AcDb3dPolylineVertex
 10
478.1495466477958
 20
-617.2136547608943
 30
0.0
 70
    32
  0
VERTEX
  5
E5A0
330
E58C
100
AcDbEntity
  8
1外形線
100
AcDbVertex
100
AcDb3dPolylineVertex
 10
478.1465466477956
 20
-617.2122547608942
 30
0.0
 70
    32
  0
VERTEX
  5
E5A1
330
E58C
100
AcDbEntity
  8
1外形線
100
AcDbVertex
100
AcDb3dPolylineVertex
 10
478.1445466477957
 20
-617.2109547608942
 30
0.0
 70
    32
  0
VERTEX
  5
E5A2
330
E58C
100
AcDbEntity
  8
1外形線
100
AcDbVertex
100
AcDb3dPolylineVertex
 10
478.1415466477955
 20
-617.2095547608941
 30
0.0
 70
    32
  0
VERTEX
  5
E5A3
330
E58C
100
AcDbEntity
  8
1外形線
100
AcDbVertex
100
AcDb3dPolylineVertex
 10
478.1385466477958
 20
-617.2082547608943
 30
0.0
 70
    32
  0
VERTEX
  5
E5A4
330
E58C
100
AcDbEntity
  8
1外形線
100
AcDbVertex
100
AcDb3dPolylineVertex
 10
478.1365466477956
 20
-617.2069547608944
 30
0.0
 70
    32
  0
VERTEX
  5
E5A5
330
E58C
100
AcDbEntity
  8
1外形線
100
AcDbVertex
100
AcDb3dPolylineVertex
 10
478.1335466477957
 20
-617.2056547608942
 30
0.0
 70
    32
  0
VERTEX
  5
E5A6
330
E58C
100
AcDbEntity
  8
1外形線
100
AcDbVertex
100
AcDb3dPolylineVertex
 10
478.1315466477957
 20
-617.2043547608941
 30
0.0
 70
    32
  0
VERTEX
  5
E5A7
330
E58C
100
AcDbEntity
  8
1外形線
100
AcDbVertex
100
AcDb3dPolylineVertex
 10
478.1285466477956
 20
-617.2030547608942
 30
0.0
 70
    32
  0
VERTEX
  5
E5A8
330
E58C
100
AcDbEntity
  8
1外形線
100
AcDbVertex
100
AcDb3dPolylineVertex
 10
478.1265466477957
 20
-617.2017547608943
 30
0.0
 70
    32
  0
VERTEX
  5
E5A9
330
E58C
100
AcDbEntity
  8
1外形線
100
AcDbVertex
100
AcDb3dPolylineVertex
 10
478.1235466477958
 20
-617.2004547608942
 30
0.0
 70
    32
  0
VERTEX
  5
E5AA
330
E58C
100
AcDbEntity
  8
1外形線
100
AcDbVertex
100
AcDb3dPolylineVertex
 10
478.1205466477958
 20
-617.1991547608943
 30
0.0
 70
    32
  0
VERTEX
  5
E5AB
330
E58C
100
AcDbEntity
  8
1外形線
100
AcDbVertex
100
AcDb3dPolylineVertex
 10
478.1185466477959
 20
-617.1979547608944
 30
0.0
 70
    32
  0
VERTEX
  5
E5AC
330
E58C
100
AcDbEntity
  8
1外形線
100
AcDbVertex
100
AcDb3dPolylineVertex
 10
478.1155466477957
 20
-617.1966547608942
 30
0.0
 70
    32
  0
VERTEX
  5
E5AD
330
E58C
100
AcDbEntity
  8
1外形線
100
AcDbVertex
100
AcDb3dPolylineVertex
 10
478.1135466477957
 20
-617.1953547608941
 30
0.0
 70
    32
  0
VERTEX
  5
E5AE
330
E58C
100
AcDbEntity
  8
1外形線
100
AcDbVertex
100
AcDb3dPolylineVertex
 10
478.1105466477955
 20
-617.1941547608942
 30
0.0
 70
    32
  0
VERTEX
  5
E5AF
330
E58C
100
AcDbEntity
  8
1外形線
100
AcDbVertex
100
AcDb3dPolylineVertex
 10
478.1075466477957
 20
-617.1929547608942
 30
0.0
 70
    32
  0
VERTEX
  5
E5B0
330
E58C
100
AcDbEntity
  8
1外形線
100
AcDbVertex
100
AcDb3dPolylineVertex
 10
478.1055466477957
 20
-617.1916547608944
 30
0.0
 70
    32
  0
VERTEX
  5
E5B1
330
E58C
100
AcDbEntity
  8
1外形線
100
AcDbVertex
100
AcDb3dPolylineVertex
 10
478.1025466477958
 20
-617.1904547608942
 30
0.0
 70
    32
  0
VERTEX
  5
E5B2
330
E58C
100
AcDbEntity
  8
1外形線
100
AcDbVertex
100
AcDb3dPolylineVertex
 10
478.1005466477958
 20
-617.1892547608942
 30
0.0
 70
    32
  0
VERTEX
  5
E5B3
330
E58C
100
AcDbEntity
  8
1外形線
100
AcDbVertex
100
AcDb3dPolylineVertex
 10
478.0975466477957
 20
-617.1880547608943
 30
0.0
 70
    32
  0
VERTEX
  5
E5B4
330
E58C
100
AcDbEntity
  8
1外形線
100
AcDbVertex
100
AcDb3dPolylineVertex
 10
478.0945466477955
 20
-617.1868547608942
 30
0.0
 70
    32
  0
VERTEX
  5
E5B5
330
E58C
100
AcDbEntity
  8
1外形線
100
AcDbVertex
100
AcDb3dPolylineVertex
 10
478.0925466477955
 20
-617.1856547608943
 30
0.0
 70
    32
  0
VERTEX
  5
E5B6
330
E58C
100
AcDbEntity
  8
1外形線
100
AcDbVertex
100
AcDb3dPolylineVertex
 10
478.0895466477956
 20
-617.1845547608943
 30
0.0
 70
    32
  0
VERTEX
  5
E5B7
330
E58C
100
AcDbEntity
  8
1外形線
100
AcDbVertex
100
AcDb3dPolylineVertex
 10
478.0875466477957
 20
-617.1833547608944
 30
0.0
 70
    32
  0
VERTEX
  5
E5B8
330
E58C
100
AcDbEntity
  8
1外形線
100
AcDbVertex
100
AcDb3dPolylineVertex
 10
478.0845466477957
 20
-617.1821547608942
 30
0.0
 70
    32
  0
VERTEX
  5
E5B9
330
E58C
100
AcDbEntity
  8
1外形線
100
AcDbVertex
100
AcDb3dPolylineVertex
 10
478.0815466477956
 20
-617.1810547608942
 30
0.0
 70
    32
  0
VERTEX
  5
E5BA
330
E58C
100
AcDbEntity
  8
1外形線
100
AcDbVertex
100
AcDb3dPolylineVertex
 10
478.0795466477957
 20
-617.1798547608942
 30
0.0
 70
    32
  0
VERTEX
  5
E5BB
330
E58C
100
AcDbEntity
  8
1外形線
100
AcDbVertex
100
AcDb3dPolylineVertex
 10
478.0765466477955
 20
-617.1787547608942
 30
0.0
 70
    32
  0
VERTEX
  5
E5BC
330
E58C
100
AcDbEntity
  8
1外形線
100
AcDbVertex
100
AcDb3dPolylineVertex
 10
478.0735466477958
 20
-617.1776547608942
 30
0.0
 70
    32
  0
VERTEX
  5
E5BD
330
E58C
100
AcDbEntity
  8
1外形線
100
AcDbVertex
100
AcDb3dPolylineVertex
 10
478.0715466477956
 20
-617.1764547608943
 30
0.0
 70
    32
  0
VERTEX
  5
E5BE
330
E58C
100
AcDbEntity
  8
1外形線
100
AcDbVertex
100
AcDb3dPolylineVertex
 10
478.0685466477956
 20
-617.1753547608942
 30
0.0
 70
    32
  0
VERTEX
  5
E5BF
330
E58C
100
AcDbEntity
  8
1外形線
100
AcDbVertex
100
AcDb3dPolylineVertex
 10
478.0665466477957
 20
-617.1742547608942
 30
0.0
 70
    32
  0
VERTEX
  5
E5C0
330
E58C
100
AcDbEntity
  8
1外形線
100
AcDbVertex
100
AcDb3dPolylineVertex
 10
478.0635466477956
 20
-617.1731547608942
 30
0.0
 70
    32
  0
VERTEX
  5
E5C1
330
E58C
100
AcDbEntity
  8
1外形線
100
AcDbVertex
100
AcDb3dPolylineVertex
 10
478.0605466477957
 20
-617.1720547608942
 30
0.0
 70
    32
  0
VERTEX
  5
E5C2
330
E58C
100
AcDbEntity
  8
1外形線
100
AcDbVertex
100
AcDb3dPolylineVertex
 10
478.0585466477957
 20
-617.1710547608943
 30
0.0
 70
    32
  0
VERTEX
  5
E5C3
330
E58C
100
AcDbEntity
  8
1外形線
100
AcDbVertex
100
AcDb3dPolylineVertex
 10
478.0555466477958
 20
-617.1699547608941
 30
0.0
 70
    32
  0
VERTEX
  5
E5C4
330
E58C
100
AcDbEntity
  8
1外形線
100
AcDbVertex
100
AcDb3dPolylineVertex
 10
478.0525466477956
 20
-617.1688547608941
 30
0.0
 70
    32
  0
VERTEX
  5
E5C5
330
E58C
100
AcDbEntity
  8
1外形線
100
AcDbVertex
100
AcDb3dPolylineVertex
 10
478.0505466477956
 20
-617.1678547608942
 30
0.0
 70
    32
  0
VERTEX
  5
E5C6
330
E58C
100
AcDbEntity
  8
1外形線
100
AcDbVertex
100
AcDb3dPolylineVertex
 10
478.0475466477957
 20
-617.1667547608942
 30
0.0
 70
    32
  0
VERTEX
  5
E5C7
330
E58C
100
AcDbEntity
  8
1外形線
100
AcDbVertex
100
AcDb3dPolylineVertex
 10
478.0445466477957
 20
-617.1657547608942
 30
0.0
 70
    32
  0
VERTEX
  5
E5C8
330
E58C
100
AcDbEntity
  8
1外形線
100
AcDbVertex
100
AcDb3dPolylineVertex
 10
478.0425466477958
 20
-617.1646547608943
 30
0.0
 70
    32
  0
VERTEX
  5
E5C9
330
E58C
100
AcDbEntity
  8
1外形線
100
AcDbVertex
100
AcDb3dPolylineVertex
 10
478.0395466477957
 20
-617.1636547608941
 30
0.0
 70
    32
  0
VERTEX
  5
E5CA
330
E58C
100
AcDbEntity
  8
1外形線
100
AcDbVertex
100
AcDb3dPolylineVertex
 10
478.0365466477955
 20
-617.1626547608943
 30
0.0
 70
    32
  0
VERTEX
  5
E5CB
330
E58C
100
AcDbEntity
  8
1外形線
100
AcDbVertex
100
AcDb3dPolylineVertex
 10
478.0345466477956
 20
-617.1616547608941
 30
0.0
 70
    32
  0
VERTEX
  5
E5CC
330
E58C
100
AcDbEntity
  8
1外形線
100
AcDbVertex
100
AcDb3dPolylineVertex
 10
478.0315466477956
 20
-617.1606547608941
 30
0.0
 70
    32
  0
VERTEX
  5
E5CD
330
E58C
100
AcDbEntity
  8
1外形線
100
AcDbVertex
100
AcDb3dPolylineVertex
 10
478.0285466477957
 20
-617.1596547608942
 30
0.0
 70
    32
  0
VERTEX
  5
E5CE
330
E58C
100
AcDbEntity
  8
1外形線
100
AcDbVertex
100
AcDb3dPolylineVertex
 10
478.0265466477957
 20
-617.1586547608942
 30
0.0
 70
    32
  0
VERTEX
  5
E5CF
330
E58C
100
AcDbEntity
  8
1外形線
100
AcDbVertex
100
AcDb3dPolylineVertex
 10
478.0235466477956
 20
-617.1576547608943
 30
0.0
 70
    32
  0
VERTEX
  5
E5D0
330
E58C
100
AcDbEntity
  8
1外形線
100
AcDbVertex
100
AcDb3dPolylineVertex
 10
478.0205466477957
 20
-617.1567547608942
 30
0.0
 70
    32
  0
VERTEX
  5
E5D1
330
E58C
100
AcDbEntity
  8
1外形線
100
AcDbVertex
100
AcDb3dPolylineVertex
 10
478.0185466477957
 20
-617.1557547608943
 30
0.0
 70
    32
  0
VERTEX
  5
E5D2
330
E58C
100
AcDbEntity
  8
1外形線
100
AcDbVertex
100
AcDb3dPolylineVertex
 10
478.0155466477958
 20
-617.1547547608943
 30
0.0
 70
    32
  0
VERTEX
  5
E5D3
330
E58C
100
AcDbEntity
  8
1外形線
100
AcDbVertex
100
AcDb3dPolylineVertex
 10
478.0125466477956
 20
-617.1538547608943
 30
0.0
 70
    32
  0
VERTEX
  5
E5D4
330
E58C
100
AcDbEntity
  8
1外形線
100
AcDbVertex
100
AcDb3dPolylineVertex
 10
478.0105466477957
 20
-617.1529547608943
 30
0.0
 70
    32
  0
VERTEX
  5
E5D5
330
E58C
100
AcDbEntity
  8
1外形線
100
AcDbVertex
100
AcDb3dPolylineVertex
 10
478.0075466477957
 20
-617.1519547608943
 30
0.0
 70
    32
  0
VERTEX
  5
E5D6
330
E58C
100
AcDbEntity
  8
1外形線
100
AcDbVertex
100
AcDb3dPolylineVertex
 10
478.0045466477958
 20
-617.1510547608943
 30
0.0
 70
    32
  0
VERTEX
  5
E5D7
330
E58C
100
AcDbEntity
  8
1外形線
100
AcDbVertex
100
AcDb3dPolylineVertex
 10
478.0025466477958
 20
-617.1501547608943
 30
0.0
 70
    32
  0
VERTEX
  5
E5D8
330
E58C
100
AcDbEntity
  8
1外形線
100
AcDbVertex
100
AcDb3dPolylineVertex
 10
477.9995466477957
 20
-617.1492547608943
 30
0.0
 70
    32
  0
VERTEX
  5
E5D9
330
E58C
100
AcDbEntity
  8
1外形線
100
AcDbVertex
100
AcDb3dPolylineVertex
 10
477.9965466477955
 20
-617.1483547608943
 30
0.0
 70
    32
  0
VERTEX
  5
E5DA
330
E58C
100
AcDbEntity
  8
1外形線
100
AcDbVertex
100
AcDb3dPolylineVertex
 10
477.9945466477956
 20
-617.1474547608943
 30
0.0
 70
    32
  0
VERTEX
  5
E5DB
330
E58C
100
AcDbEntity
  8
1外形線
100
AcDbVertex
100
AcDb3dPolylineVertex
 10
477.9915466477957
 20
-617.1465547608943
 30
0.0
 70
    32
  0
VERTEX
  5
E5DC
330
E58C
100
AcDbEntity
  8
1外形線
100
AcDbVertex
100
AcDb3dPolylineVertex
 10
477.9885466477957
 20
-617.1456547608943
 30
0.0
 70
    32
  0
VERTEX
  5
E5DD
330
E58C
100
AcDbEntity
  8
1外形線
100
AcDbVertex
100
AcDb3dPolylineVertex
 10
477.9865466477958
 20
-617.1448547608942
 30
0.0
 70
    32
  0
VERTEX
  5
E5DE
330
E58C
100
AcDbEntity
  8
1外形線
100
AcDbVertex
100
AcDb3dPolylineVertex
 10
477.9835466477956
 20
-617.1439547608943
 30
0.0
 70
    32
  0
VERTEX
  5
E5DF
330
E58C
100
AcDbEntity
  8
1外形線
100
AcDbVertex
100
AcDb3dPolylineVertex
 10
477.9805466477957
 20
-617.1431547608943
 30
0.0
 70
    32
  0
VERTEX
  5
E5E0
330
E58C
100
AcDbEntity
  8
1外形線
100
AcDbVertex
100
AcDb3dPolylineVertex
 10
477.9785466477955
 20
-617.1422547608942
 30
0.0
 70
    32
  0
VERTEX
  5
E5E1
330
E58C
100
AcDbEntity
  8
1外形線
100
AcDbVertex
100
AcDb3dPolylineVertex
 10
477.9755466477958
 20
-617.1414547608942
 30
0.0
 70
    32
  0
VERTEX
  5
E5E2
330
E58C
100
AcDbEntity
  8
1外形線
100
AcDbVertex
100
AcDb3dPolylineVertex
 10
477.9725466477956
 20
-617.1406547608942
 30
0.0
 70
    32
  0
VERTEX
  5
E5E3
330
E58C
100
AcDbEntity
  8
1外形線
100
AcDbVertex
100
AcDb3dPolylineVertex
 10
477.9695466477955
 20
-617.1397547608941
 30
0.0
 70
    32
  0
VERTEX
  5
E5E4
330
E58C
100
AcDbEntity
  8
1外形線
100
AcDbVertex
100
AcDb3dPolylineVertex
 10
477.9675466477955
 20
-617.1389547608941
 30
0.0
 70
    32
  0
VERTEX
  5
E5E5
330
E58C
100
AcDbEntity
  8
1外形線
100
AcDbVertex
100
AcDb3dPolylineVertex
 10
477.9645466477957
 20
-617.1381547608944
 30
0.0
 70
    32
  0
VERTEX
  5
E5E6
330
E58C
100
AcDbEntity
  8
1外形線
100
AcDbVertex
100
AcDb3dPolylineVertex
 10
477.9615466477957
 20
-617.1373547608941
 30
0.0
 70
    32
  0
VERTEX
  5
E5E7
330
E58C
100
AcDbEntity
  8
1外形線
100
AcDbVertex
100
AcDb3dPolylineVertex
 10
477.9595466477958
 20
-617.1365547608943
 30
0.0
 70
    32
  0
VERTEX
  5
E5E8
330
E58C
100
AcDbEntity
  8
1外形線
100
AcDbVertex
100
AcDb3dPolylineVertex
 10
477.9565466477956
 20
-617.1358547608942
 30
0.0
 70
    32
  0
VERTEX
  5
E5E9
330
E58C
100
AcDbEntity
  8
1外形線
100
AcDbVertex
100
AcDb3dPolylineVertex
 10
477.9535466477956
 20
-617.1350547608942
 30
0.0
 70
    32
  0
VERTEX
  5
E5EA
330
E58C
100
AcDbEntity
  8
1外形線
100
AcDbVertex
100
AcDb3dPolylineVertex
 10
477.9515466477954
 20
-617.1342547608942
 30
0.0
 70
    32
  0
VERTEX
  5
E5EB
330
E58C
100
AcDbEntity
  8
1外形線
100
AcDbVertex
100
AcDb3dPolylineVertex
 10
477.9485466477957
 20
-617.1335547608942
 30
0.0
 70
    32
  0
VERTEX
  5
E5EC
330
E58C
100
AcDbEntity
  8
1外形線
100
AcDbVertex
100
AcDb3dPolylineVertex
 10
477.9455466477956
 20
-617.1327547608943
 30
0.0
 70
    32
  0
VERTEX
  5
E5ED
330
E58C
100
AcDbEntity
  8
1外形線
100
AcDbVertex
100
AcDb3dPolylineVertex
 10
477.9425466477957
 20
-617.1320547608943
 30
0.0
 70
    32
  0
VERTEX
  5
E5EE
330
E58C
100
AcDbEntity
  8
1外形線
100
AcDbVertex
100
AcDb3dPolylineVertex
 10
477.9405466477955
 20
-617.1312547608943
 30
0.0
 70
    32
  0
VERTEX
  5
E5EF
330
E58C
100
AcDbEntity
  8
1外形線
100
AcDbVertex
100
AcDb3dPolylineVertex
 10
477.9375466477958
 20
-617.1305547608942
 30
0.0
 70
    32
  0
VERTEX
  5
E5F0
330
E58C
100
AcDbEntity
  8
1外形線
100
AcDbVertex
100
AcDb3dPolylineVertex
 10
477.9345466477956
 20
-617.1298547608942
 30
0.0
 70
    32
  0
VERTEX
  5
E5F1
330
E58C
100
AcDbEntity
  8
1外形線
100
AcDbVertex
100
AcDb3dPolylineVertex
 10
477.9325466477957
 20
-617.1291547608944
 30
0.0
 70
    32
  0
VERTEX
  5
E5F2
330
E58C
100
AcDbEntity
  8
1外形線
100
AcDbVertex
100
AcDb3dPolylineVertex
 10
477.9295466477956
 20
-617.1284547608943
 30
0.0
 70
    32
  0
VERTEX
  5
E5F3
330
E58C
100
AcDbEntity
  8
1外形線
100
AcDbVertex
100
AcDb3dPolylineVertex
 10
477.9265466477956
 20
-617.1277547608942
 30
0.0
 70
    32
  0
VERTEX
  5
E5F4
330
E58C
100
AcDbEntity
  8
1外形線
100
AcDbVertex
100
AcDb3dPolylineVertex
 10
477.9235466477957
 20
-617.1270547608942
 30
0.0
 70
    32
  0
VERTEX
  5
E5F5
330
E58C
100
AcDbEntity
  8
1外形線
100
AcDbVertex
100
AcDb3dPolylineVertex
 10
477.9215466477957
 20
-617.1263547608941
 30
0.0
 70
    32
  0
VERTEX
  5
E5F6
330
E58C
100
AcDbEntity
  8
1外形線
100
AcDbVertex
100
AcDb3dPolylineVertex
 10
477.9185466477955
 20
-617.1257547608943
 30
0.0
 70
    32
  0
VERTEX
  5
E5F7
330
E58C
100
AcDbEntity
  8
1外形線
100
AcDbVertex
100
AcDb3dPolylineVertex
 10
477.9155466477956
 20
-617.1250547608942
 30
0.0
 70
    32
  0
VERTEX
  5
E5F8
330
E58C
100
AcDbEntity
  8
1外形線
100
AcDbVertex
100
AcDb3dPolylineVertex
 10
477.9125466477957
 20
-617.1243547608942
 30
0.0
 70
    32
  0
VERTEX
  5
E5F9
330
E58C
100
AcDbEntity
  8
1外形線
100
AcDbVertex
100
AcDb3dPolylineVertex
 10
477.9105466477957
 20
-617.1237547608943
 30
0.0
 70
    32
  0
VERTEX
  5
E5FA
330
E58C
100
AcDbEntity
  8
1外形線
100
AcDbVertex
100
AcDb3dPolylineVertex
 10
477.9075466477956
 20
-617.1230547608943
 30
0.0
 70
    32
  0
VERTEX
  5
E5FB
330
E58C
100
AcDbEntity
  8
1外形線
100
AcDbVertex
100
AcDb3dPolylineVertex
 10
477.9045466477957
 20
-617.1224547608942
 30
0.0
 70
    32
  0
VERTEX
  5
E5FC
330
E58C
100
AcDbEntity
  8
1外形線
100
AcDbVertex
100
AcDb3dPolylineVertex
 10
477.9025466477957
 20
-617.1218547608941
 30
0.0
 70
    32
  0
VERTEX
  5
E5FD
330
E58C
100
AcDbEntity
  8
1外形線
100
AcDbVertex
100
AcDb3dPolylineVertex
 10
477.8995466477958
 20
-617.1212547608943
 30
0.0
 70
    32
  0
VERTEX
  5
E5FE
330
E58C
100
AcDbEntity
  8
1外形線
100
AcDbVertex
100
AcDb3dPolylineVertex
 10
477.8965466477957
 20
-617.1206547608942
 30
0.0
 70
    32
  0
VERTEX
  5
E5FF
330
E58C
100
AcDbEntity
  8
1外形線
100
AcDbVertex
100
AcDb3dPolylineVertex
 10
477.8935466477957
 20
-617.1200547608941
 30
0.0
 70
    32
  0
VERTEX
  5
E600
330
E58C
100
AcDbEntity
  8
1外形線
100
AcDbVertex
100
AcDb3dPolylineVertex
 10
477.8915466477955
 20
-617.1194547608942
 30
0.0
 70
    32
  0
VERTEX
  5
E601
330
E58C
100
AcDbEntity
  8
1外形線
100
AcDbVertex
100
AcDb3dPolylineVertex
 10
477.8885466477958
 20
-617.1188547608942
 30
0.0
 70
    32
  0
VERTEX
  5
E602
330
E58C
100
AcDbEntity
  8
1外形線
100
AcDbVertex
100
AcDb3dPolylineVertex
 10
477.8855466477956
 20
-617.1182547608942
 30
0.0
 70
    32
  0
VERTEX
  5
E603
330
E58C
100
AcDbEntity
  8
1外形線
100
AcDbVertex
100
AcDb3dPolylineVertex
 10
477.8825466477957
 20
-617.1176547608943
 30
0.0
 70
    32
  0
VERTEX
  5
E604
330
E58C
100
AcDbEntity
  8
1外形線
100
AcDbVertex
100
AcDb3dPolylineVertex
 10
477.8805466477956
 20
-617.1171547608942
 30
0.0
 70
    32
  0
VERTEX
  5
E605
330
E58C
100
AcDbEntity
  8
1外形線
100
AcDbVertex
100
AcDb3dPolylineVertex
 10
477.8775466477958
 20
-617.1165547608943
 30
0.0
 70
    32
  0
VERTEX
  5
E606
330
E58C
100
AcDbEntity
  8
1外形線
100
AcDbVertex
100
AcDb3dPolylineVertex
 10
477.8745466477957
 20
-617.1160547608942
 30
0.0
 70
    32
  0
VERTEX
  5
E607
330
E58C
100
AcDbEntity
  8
1外形線
100
AcDbVertex
100
AcDb3dPolylineVertex
 10
477.8715466477955
 20
-617.1154547608944
 30
0.0
 70
    32
  0
VERTEX
  5
E608
330
E58C
100
AcDbEntity
  8
1外形線
100
AcDbVertex
100
AcDb3dPolylineVertex
 10
477.8695466477956
 20
-617.1149547608942
 30
0.0
 70
    32
  0
VERTEX
  5
E609
330
E58C
100
AcDbEntity
  8
1外形線
100
AcDbVertex
100
AcDb3dPolylineVertex
 10
477.8665466477956
 20
-617.1144547608942
 30
0.0
 70
    32
  0
VERTEX
  5
E60A
330
E58C
100
AcDbEntity
  8
1外形線
100
AcDbVertex
100
AcDb3dPolylineVertex
 10
477.8635466477958
 20
-617.1138547608943
 30
0.0
 70
    32
  0
VERTEX
  5
E60B
330
E58C
100
AcDbEntity
  8
1外形線
100
AcDbVertex
100
AcDb3dPolylineVertex
 10
477.8605466477956
 20
-617.1133547608942
 30
0.0
 70
    32
  0
VERTEX
  5
E60C
330
E58C
100
AcDbEntity
  8
1外形線
100
AcDbVertex
100
AcDb3dPolylineVertex
 10
477.8585466477956
 20
-617.1128547608941
 30
0.0
 70
    32
  0
VERTEX
  5
E60D
330
E58C
100
AcDbEntity
  8
1外形線
100
AcDbVertex
100
AcDb3dPolylineVertex
 10
477.8555466477957
 20
-617.1123547608942
 30
0.0
 70
    32
  0
VERTEX
  5
E60E
330
E58C
100
AcDbEntity
  8
1外形線
100
AcDbVertex
100
AcDb3dPolylineVertex
 10
477.8525466477957
 20
-617.1119547608941
 30
0.0
 70
    32
  0
VERTEX
  5
E60F
330
E58C
100
AcDbEntity
  8
1外形線
100
AcDbVertex
100
AcDb3dPolylineVertex
 10
477.8495466477956
 20
-617.1114547608943
 30
0.0
 70
    32
  0
VERTEX
  5
E610
330
E58C
100
AcDbEntity
  8
1外形線
100
AcDbVertex
100
AcDb3dPolylineVertex
 10
477.8475466477956
 20
-617.1109547608944
 30
0.0
 70
    32
  0
VERTEX
  5
E611
330
E58C
100
AcDbEntity
  8
1外形線
100
AcDbVertex
100
AcDb3dPolylineVertex
 10
477.8445466477955
 20
-617.1104547608942
 30
0.0
 70
    32
  0
VERTEX
  5
E612
330
E58C
100
AcDbEntity
  8
1外形線
100
AcDbVertex
100
AcDb3dPolylineVertex
 10
477.8415466477958
 20
-617.1100547608943
 30
0.0
 70
    32
  0
VERTEX
  5
E613
330
E58C
100
AcDbEntity
  8
1外形線
100
AcDbVertex
100
AcDb3dPolylineVertex
 10
477.8385466477956
 20
-617.1095547608943
 30
0.0
 70
    32
  0
VERTEX
  5
E614
330
E58C
100
AcDbEntity
  8
1外形線
100
AcDbVertex
100
AcDb3dPolylineVertex
 10
477.8355466477955
 20
-617.1091547608944
 30
0.0
 70
    32
  0
VERTEX
  5
E615
330
E58C
100
AcDbEntity
  8
1外形線
100
AcDbVertex
100
AcDb3dPolylineVertex
 10
477.8335466477956
 20
-617.1087547608943
 30
0.0
 70
    32
  0
VERTEX
  5
E616
330
E58C
100
AcDbEntity
  8
1外形線
100
AcDbVertex
100
AcDb3dPolylineVertex
 10
477.8305466477956
 20
-617.1083547608941
 30
0.0
 70
    32
  0
VERTEX
  5
E617
330
E58C
100
AcDbEntity
  8
1外形線
100
AcDbVertex
100
AcDb3dPolylineVertex
 10
477.8275466477957
 20
-617.1078547608942
 30
0.0
 70
    32
  0
VERTEX
  5
E618
330
E58C
100
AcDbEntity
  8
1外形線
100
AcDbVertex
100
AcDb3dPolylineVertex
 10
477.8245466477955
 20
-617.1074547608941
 30
0.0
 70
    32
  0
VERTEX
  5
E619
330
E58C
100
AcDbEntity
  8
1外形線
100
AcDbVertex
100
AcDb3dPolylineVertex
 10
477.8225466477955
 20
-617.1070547608942
 30
0.0
 70
    32
  0
VERTEX
  5
E61A
330
E58C
100
AcDbEntity
  8
1外形線
100
AcDbVertex
100
AcDb3dPolylineVertex
 10
477.8195466477956
 20
-617.1066547608943
 30
0.0
 70
    32
  0
VERTEX
  5
E61B
330
E58C
100
AcDbEntity
  8
1外形線
100
AcDbVertex
100
AcDb3dPolylineVertex
 10
477.8165466477957
 20
-617.1063547608942
 30
0.0
 70
    32
  0
VERTEX
  5
E61C
330
E58C
100
AcDbEntity
  8
1外形線
100
AcDbVertex
100
AcDb3dPolylineVertex
 10
477.8135466477955
 20
-617.1059547608942
 30
0.0
 70
    32
  0
VERTEX
  5
E61D
330
E58C
100
AcDbEntity
  8
1外形線
100
AcDbVertex
100
AcDb3dPolylineVertex
 10
477.8115466477956
 20
-617.1055547608943
 30
0.0
 70
    32
  0
VERTEX
  5
E61E
330
E58C
100
AcDbEntity
  8
1外形線
100
AcDbVertex
100
AcDb3dPolylineVertex
 10
477.8085466477957
 20
-617.1051547608942
 30
0.0
 70
    32
  0
VERTEX
  5
E61F
330
E58C
100
AcDbEntity
  8
1外形線
100
AcDbVertex
100
AcDb3dPolylineVertex
 10
477.8055466477957
 20
-617.1048547608943
 30
0.0
 70
    32
  0
VERTEX
  5
E620
330
E58C
100
AcDbEntity
  8
1外形線
100
AcDbVertex
100
AcDb3dPolylineVertex
 10
477.8025466477956
 20
-617.1044547608942
 30
0.0
 70
    32
  0
VERTEX
  5
E621
330
E58C
100
AcDbEntity
  8
1外形線
100
AcDbVertex
100
AcDb3dPolylineVertex
 10
477.7995466477957
 20
-617.1041547608942
 30
0.0
 70
    32
  0
VERTEX
  5
E622
330
E58C
100
AcDbEntity
  8
1外形線
100
AcDbVertex
100
AcDb3dPolylineVertex
 10
477.7975466477957
 20
-617.1038547608941
 30
0.0
 70
    32
  0
VERTEX
  5
E623
330
E58C
100
AcDbEntity
  8
1外形線
100
AcDbVertex
100
AcDb3dPolylineVertex
 10
477.7945466477958
 20
-617.1035547608942
 30
0.0
 70
    32
  0
VERTEX
  5
E624
330
E58C
100
AcDbEntity
  8
1外形線
100
AcDbVertex
100
AcDb3dPolylineVertex
 10
477.7915466477956
 20
-617.1031547608943
 30
0.0
 70
    32
  0
VERTEX
  5
E625
330
E58C
100
AcDbEntity
  8
1外形線
100
AcDbVertex
100
AcDb3dPolylineVertex
 10
477.7885466477957
 20
-617.1028547608943
 30
0.0
 70
    32
  0
VERTEX
  5
E626
330
E58C
100
AcDbEntity
  8
1外形線
100
AcDbVertex
100
AcDb3dPolylineVertex
 10
477.7865466477955
 20
-617.1025547608942
 30
0.0
 70
    32
  0
VERTEX
  5
E627
330
E58C
100
AcDbEntity
  8
1外形線
100
AcDbVertex
100
AcDb3dPolylineVertex
 10
477.7835466477958
 20
-617.1022547608942
 30
0.0
 70
    32
  0
VERTEX
  5
E628
330
E58C
100
AcDbEntity
  8
1外形線
100
AcDbVertex
100
AcDb3dPolylineVertex
 10
477.7805466477956
 20
-617.1020547608941
 30
0.0
 70
    32
  0
VERTEX
  5
E629
330
E58C
100
AcDbEntity
  8
1外形線
100
AcDbVertex
100
AcDb3dPolylineVertex
 10
477.7775466477957
 20
-617.1017547608942
 30
0.0
 70
    32
  0
VERTEX
  5
E62A
330
E58C
100
AcDbEntity
  8
1外形線
100
AcDbVertex
100
AcDb3dPolylineVertex
 10
477.7745466477958
 20
-617.1014547608942
 30
0.0
 70
    32
  0
VERTEX
  5
E62B
330
E58C
100
AcDbEntity
  8
1外形線
100
AcDbVertex
100
AcDb3dPolylineVertex
 10
477.7725466477958
 20
-617.1012547608943
 30
0.0
 70
    32
  0
VERTEX
  5
E62C
330
E58C
100
AcDbEntity
  8
1外形線
100
AcDbVertex
100
AcDb3dPolylineVertex
 10
477.7695466477957
 20
-617.1009547608941
 30
0.0
 70
    32
  0
VERTEX
  5
E62D
330
E58C
100
AcDbEntity
  8
1外形線
100
AcDbVertex
100
AcDb3dPolylineVertex
 10
477.7665466477955
 20
-617.1007547608942
 30
0.0
 70
    32
  0
VERTEX
  5
E62E
330
E58C
100
AcDbEntity
  8
1外形線
100
AcDbVertex
100
AcDb3dPolylineVertex
 10
477.7635466477958
 20
-617.1004547608943
 30
0.0
 70
    32
  0
VERTEX
  5
E62F
330
E58C
100
AcDbEntity
  8
1外形線
100
AcDbVertex
100
AcDb3dPolylineVertex
 10
477.7615466477956
 20
-617.1002547608941
 30
0.0
 70
    32
  0
VERTEX
  5
E630
330
E58C
100
AcDbEntity
  8
1外形線
100
AcDbVertex
100
AcDb3dPolylineVertex
 10
477.7585466477957
 20
-617.1000547608941
 30
0.0
 70
    32
  0
VERTEX
  5
E631
330
E58C
100
AcDbEntity
  8
1外形線
100
AcDbVertex
100
AcDb3dPolylineVertex
 10
477.7555466477956
 20
-617.0998547608942
 30
0.0
 70
    32
  0
VERTEX
  5
E632
330
E58C
100
AcDbEntity
  8
1外形線
100
AcDbVertex
100
AcDb3dPolylineVertex
 10
477.7525466477959
 20
-617.0996547608942
 30
0.0
 70
    32
  0
VERTEX
  5
E633
330
E58C
100
AcDbEntity
  8
1外形線
100
AcDbVertex
100
AcDb3dPolylineVertex
 10
477.7495466477957
 20
-617.0994547608943
 30
0.0
 70
    32
  0
VERTEX
  5
E634
330
E58C
100
AcDbEntity
  8
1外形線
100
AcDbVertex
100
AcDb3dPolylineVertex
 10
477.7475466477958
 20
-617.0992547608944
 30
0.0
 70
    32
  0
VERTEX
  5
E635
330
E58C
100
AcDbEntity
  8
1外形線
100
AcDbVertex
100
AcDb3dPolylineVertex
 10
477.7445466477955
 20
-617.0990547608941
 30
0.0
 70
    32
  0
VERTEX
  5
E636
330
E58C
100
AcDbEntity
  8
1外形線
100
AcDbVertex
100
AcDb3dPolylineVertex
 10
477.7415466477957
 20
-617.0988547608942
 30
0.0
 70
    32
  0
VERTEX
  5
E637
330
E58C
100
AcDbEntity
  8
1外形線
100
AcDbVertex
100
AcDb3dPolylineVertex
 10
477.7385466477958
 20
-617.0986547608943
 30
0.0
 70
    32
  0
VERTEX
  5
E638
330
E58C
100
AcDbEntity
  8
1外形線
100
AcDbVertex
100
AcDb3dPolylineVertex
 10
477.7365466477958
 20
-617.0985547608943
 30
0.0
 70
    32
  0
VERTEX
  5
E639
330
E58C
100
AcDbEntity
  8
1外形線
100
AcDbVertex
100
AcDb3dPolylineVertex
 10
477.7335466477956
 20
-617.0983547608943
 30
0.0
 70
    32
  0
VERTEX
  5
E63A
330
E58C
100
AcDbEntity
  8
1外形線
100
AcDbVertex
100
AcDb3dPolylineVertex
 10
477.7305466477957
 20
-617.0982547608941
 30
0.0
 70
    32
  0
VERTEX
  5
E63B
330
E58C
100
AcDbEntity
  8
1外形線
100
AcDbVertex
100
AcDb3dPolylineVertex
 10
477.7275466477957
 20
-617.0981547608942
 30
0.0
 70
    32
  0
VERTEX
  5
E63C
330
E58C
100
AcDbEntity
  8
1外形線
100
AcDbVertex
100
AcDb3dPolylineVertex
 10
477.7245466477956
 20
-617.0979547608943
 30
0.0
 70
    32
  0
VERTEX
  5
E63D
330
E58C
100
AcDbEntity
  8
1外形線
100
AcDbVertex
100
AcDb3dPolylineVertex
 10
477.7225466477957
 20
-617.0978547608942
 30
0.0
 70
    32
  0
VERTEX
  5
E63E
330
E58C
100
AcDbEntity
  8
1外形線
100
AcDbVertex
100
AcDb3dPolylineVertex
 10
477.7195466477955
 20
-617.0977547608942
 30
0.0
 70
    32
  0
VERTEX
  5
E63F
330
E58C
100
AcDbEntity
  8
1外形線
100
AcDbVertex
100
AcDb3dPolylineVertex
 10
477.7165466477958
 20
-617.0976547608943
 30
0.0
 70
    32
  0
VERTEX
  5
E640
330
E58C
100
AcDbEntity
  8
1外形線
100
AcDbVertex
100
AcDb3dPolylineVertex
 10
477.7135466477957
 20
-617.0975547608943
 30
0.0
 70
    32
  0
VERTEX
  5
E641
330
E58C
100
AcDbEntity
  8
1外形線
100
AcDbVertex
100
AcDb3dPolylineVertex
 10
477.7115466477957
 20
-617.0974547608944
 30
0.0
 70
    32
  0
VERTEX
  5
E642
330
E58C
100
AcDbEntity
  8
1外形線
100
AcDbVertex
100
AcDb3dPolylineVertex
 10
477.7085466477955
 20
-617.0973547608942
 30
0.0
 70
    32
  0
VERTEX
  5
E643
330
E58C
100
AcDbEntity
  8
1外形線
100
AcDbVertex
100
AcDb3dPolylineVertex
 10
477.7055466477956
 20
-617.0972547608942
 30
0.0
 70
    32
  0
VERTEX
  5
E644
330
E58C
100
AcDbEntity
  8
1外形線
100
AcDbVertex
100
AcDb3dPolylineVertex
 10
477.7025466477957
 20
-617.0972547608942
 30
0.0
 70
    32
  0
VERTEX
  5
E645
330
E58C
100
AcDbEntity
  8
1外形線
100
AcDbVertex
100
AcDb3dPolylineVertex
 10
477.6995466477955
 20
-617.0971547608942
 30
0.0
 70
    32
  0
VERTEX
  5
E646
330
E58C
100
AcDbEntity
  8
1外形線
100
AcDbVertex
100
AcDb3dPolylineVertex
 10
477.6975466477956
 20
-617.0971547608942
 30
0.0
 70
    32
  0
VERTEX
  5
E647
330
E58C
100
AcDbEntity
  8
1外形線
100
AcDbVertex
100
AcDb3dPolylineVertex
 10
477.6945466477957
 20
-617.0970547608942
 30
0.0
 70
    32
  0
VERTEX
  5
E648
330
E58C
100
AcDbEntity
  8
1外形線
100
AcDbVertex
100
AcDb3dPolylineVertex
 10
477.6915466477957
 20
-617.0970547608942
 30
0.0
 70
    32
  0
VERTEX
  5
E649
330
E58C
100
AcDbEntity
  8
1外形線
100
AcDbVertex
100
AcDb3dPolylineVertex
 10
477.6885466477955
 20
-617.0970547608942
 30
0.0
 70
    32
  0
VERTEX
  5
E64A
330
E58C
100
AcDbEntity
  8
1外形線
100
AcDbVertex
100
AcDb3dPolylineVertex
 10
477.6865466477956
 20
-617.0969547608942
 30
0.0
 70
    32
  0
VERTEX
  5
E64B
330
E58C
100
AcDbEntity
  8
1外形線
100
AcDbVertex
100
AcDb3dPolylineVertex
 10
477.6835466477956
 20
-617.0969547608942
 30
0.0
 70
    32
  0
VERTEX
  5
E64C
330
E58C
100
AcDbEntity
  8
1外形線
100
AcDbVertex
100
AcDb3dPolylineVertex
 10
477.6805466477958
 20
-617.0969547608942
 30
0.0
 70
    32
  0
SEQEND
  5
E64D
330
E58C
100
AcDbEntity
  8
1外形線
  0
POLYLINE
  5
E64E
330
17
100
AcDbEntity
  8
1外形線
100
AcDb3dPolyline
 66
     1
 10
0.0
 20
0.0
 30
0.0
 70
     8
  0
VERTEX
  5
E64F
330
E64E
100
AcDbEntity
  8
1外形線
100
AcDbVertex
100
AcDb3dPolylineVertex
 10
480.3425466477955
 20
-618.5614547608943
 30
0.0
 70
    32
  0
VERTEX
  5
E650
330
E64E
100
AcDbEntity
  8
1外形線
100
AcDbVertex
100
AcDb3dPolylineVertex
 10
480.3415466477958
 20
-618.5604547608943
 30
0.0
 70
    32
  0
VERTEX
  5
E651
330
E64E
100
AcDbEntity
  8
1外形線
100
AcDbVertex
100
AcDb3dPolylineVertex
 10
480.3415466477958
 20
-618.5594547608944
 30
0.0
 70
    32
  0
VERTEX
  5
E652
330
E64E
100
AcDbEntity
  8
1外形線
100
AcDbVertex
100
AcDb3dPolylineVertex
 10
480.3405466477956
 20
-618.5584547608941
 30
0.0
 70
    32
  0
VERTEX
  5
E653
330
E64E
100
AcDbEntity
  8
1外形線
100
AcDbVertex
100
AcDb3dPolylineVertex
 10
480.3395466477956
 20
-618.5574547608943
 30
0.0
 70
    32
  0
VERTEX
  5
E654
330
E64E
100
AcDbEntity
  8
1外形線
100
AcDbVertex
100
AcDb3dPolylineVertex
 10
480.3385466477957
 20
-618.5565547608944
 30
0.0
 70
    32
  0
VERTEX
  5
E655
330
E64E
100
AcDbEntity
  8
1外形線
100
AcDbVertex
100
AcDb3dPolylineVertex
 10
480.3375466477957
 20
-618.5555547608942
 30
0.0
 70
    32
  0
VERTEX
  5
E656
330
E64E
100
AcDbEntity
  8
1外形線
100
AcDbVertex
100
AcDb3dPolylineVertex
 10
480.3365466477957
 20
-618.5545547608942
 30
0.0
 70
    32
  0
VERTEX
  5
E657
330
E64E
100
AcDbEntity
  8
1外形線
100
AcDbVertex
100
AcDb3dPolylineVertex
 10
480.3365466477957
 20
-618.5535547608942
 30
0.0
 70
    32
  0
VERTEX
  5
E658
330
E64E
100
AcDbEntity
  8
1外形線
100
AcDbVertex
100
AcDb3dPolylineVertex
 10
480.3355466477955
 20
-618.5526547608942
 30
0.0
 70
    32
  0
VERTEX
  5
E659
330
E64E
100
AcDbEntity
  8
1外形線
100
AcDbVertex
100
AcDb3dPolylineVertex
 10
480.3345466477957
 20
-618.5516547608942
 30
0.0
 70
    32
  0
VERTEX
  5
E65A
330
E64E
100
AcDbEntity
  8
1外形線
100
AcDbVertex
100
AcDb3dPolylineVertex
 10
480.3335466477955
 20
-618.5506547608943
 30
0.0
 70
    32
  0
VERTEX
  5
E65B
330
E64E
100
AcDbEntity
  8
1外形線
100
AcDbVertex
100
AcDb3dPolylineVertex
 10
480.3325466477958
 20
-618.5496547608943
 30
0.0
 70
    32
  0
VERTEX
  5
E65C
330
E64E
100
AcDbEntity
  8
1外形線
100
AcDbVertex
100
AcDb3dPolylineVertex
 10
480.3315466477956
 20
-618.5487547608943
 30
0.0
 70
    32
  0
VERTEX
  5
E65D
330
E64E
100
AcDbEntity
  8
1外形線
100
AcDbVertex
100
AcDb3dPolylineVertex
 10
480.3315466477956
 20
-618.5477547608943
 30
0.0
 70
    32
  0
VERTEX
  5
E65E
330
E64E
100
AcDbEntity
  8
1外形線
100
AcDbVertex
100
AcDb3dPolylineVertex
 10
480.3305466477956
 20
-618.5467547608941
 30
0.0
 70
    32
  0
VERTEX
  5
E65F
330
E64E
100
AcDbEntity
  8
1外形線
100
AcDbVertex
100
AcDb3dPolylineVertex
 10
480.3295466477957
 20
-618.5458547608941
 30
0.0
 70
    32
  0
VERTEX
  5
E660
330
E64E
100
AcDbEntity
  8
1外形線
100
AcDbVertex
100
AcDb3dPolylineVertex
 10
480.3285466477957
 20
-618.5448547608944
 30
0.0
 70
    32
  0
VERTEX
  5
E661
330
E64E
100
AcDbEntity
  8
1外形線
100
AcDbVertex
100
AcDb3dPolylineVertex
 10
480.3275466477956
 20
-618.5439547608943
 30
0.0
 70
    32
  0
VERTEX
  5
E662
330
E64E
100
AcDbEntity
  8
1外形線
100
AcDbVertex
100
AcDb3dPolylineVertex
 10
480.3265466477955
 20
-618.5429547608942
 30
0.0
 70
    32
  0
VERTEX
  5
E663
330
E64E
100
AcDbEntity
  8
1外形線
100
AcDbVertex
100
AcDb3dPolylineVertex
 10
480.3255466477957
 20
-618.5420547608941
 30
0.0
 70
    32
  0
VERTEX
  5
E664
330
E64E
100
AcDbEntity
  8
1外形線
100
AcDbVertex
100
AcDb3dPolylineVertex
 10
480.3245466477955
 20
-618.5410547608942
 30
0.0
 70
    32
  0
VERTEX
  5
E665
330
E64E
100
AcDbEntity
  8
1外形線
100
AcDbVertex
100
AcDb3dPolylineVertex
 10
480.3245466477955
 20
-618.5401547608941
 30
0.0
 70
    32
  0
VERTEX
  5
E666
330
E64E
100
AcDbEntity
  8
1外形線
100
AcDbVertex
100
AcDb3dPolylineVertex
 10
480.3235466477958
 20
-618.5391547608942
 30
0.0
 70
    32
  0
VERTEX
  5
E667
330
E64E
100
AcDbEntity
  8
1外形線
100
AcDbVertex
100
AcDb3dPolylineVertex
 10
480.3225466477956
 20
-618.5382547608942
 30
0.0
 70
    32
  0
VERTEX
  5
E668
330
E64E
100
AcDbEntity
  8
1外形線
100
AcDbVertex
100
AcDb3dPolylineVertex
 10
480.3215466477956
 20
-618.5372547608942
 30
0.0
 70
    32
  0
VERTEX
  5
E669
330
E64E
100
AcDbEntity
  8
1外形線
100
AcDbVertex
100
AcDb3dPolylineVertex
 10
480.3205466477956
 20
-618.5363547608942
 30
0.0
 70
    32
  0
VERTEX
  5
E66A
330
E64E
100
AcDbEntity
  8
1外形線
100
AcDbVertex
100
AcDb3dPolylineVertex
 10
480.3195466477957
 20
-618.5353547608943
 30
0.0
 70
    32
  0
VERTEX
  5
E66B
330
E64E
100
AcDbEntity
  8
1外形線
100
AcDbVertex
100
AcDb3dPolylineVertex
 10
480.3185466477956
 20
-618.5344547608942
 30
0.0
 70
    32
  0
VERTEX
  5
E66C
330
E64E
100
AcDbEntity
  8
1外形線
100
AcDbVertex
100
AcDb3dPolylineVertex
 10
480.3175466477957
 20
-618.5334547608943
 30
0.0
 70
    32
  0
VERTEX
  5
E66D
330
E64E
100
AcDbEntity
  8
1外形線
100
AcDbVertex
100
AcDb3dPolylineVertex
 10
480.3175466477957
 20
-618.5325547608942
 30
0.0
 70
    32
  0
VERTEX
  5
E66E
330
E64E
100
AcDbEntity
  8
1外形線
100
AcDbVertex
100
AcDb3dPolylineVertex
 10
480.3165466477957
 20
-618.5316547608943
 30
0.0
 70
    32
  0
VERTEX
  5
E66F
330
E64E
100
AcDbEntity
  8
1外形線
100
AcDbVertex
100
AcDb3dPolylineVertex
 10
480.3155466477955
 20
-618.5306547608943
 30
0.0
 70
    32
  0
VERTEX
  5
E670
330
E64E
100
AcDbEntity
  8
1外形線
100
AcDbVertex
100
AcDb3dPolylineVertex
 10
480.3145466477958
 20
-618.5297547608943
 30
0.0
 70
    32
  0
VERTEX
  5
E671
330
E64E
100
AcDbEntity
  8
1外形線
100
AcDbVertex
100
AcDb3dPolylineVertex
 10
480.3135466477955
 20
-618.5288547608942
 30
0.0
 70
    32
  0
VERTEX
  5
E672
330
E64E
100
AcDbEntity
  8
1外形線
100
AcDbVertex
100
AcDb3dPolylineVertex
 10
480.3125466477958
 20
-618.5279547608943
 30
0.0
 70
    32
  0
VERTEX
  5
E673
330
E64E
100
AcDbEntity
  8
1外形線
100
AcDbVertex
100
AcDb3dPolylineVertex
 10
480.3115466477956
 20
-618.5269547608943
 30
0.0
 70
    32
  0
VERTEX
  5
E674
330
E64E
100
AcDbEntity
  8
1外形線
100
AcDbVertex
100
AcDb3dPolylineVertex
 10
480.3105466477957
 20
-618.5260547608943
 30
0.0
 70
    32
  0
VERTEX
  5
E675
330
E64E
100
AcDbEntity
  8
1外形線
100
AcDbVertex
100
AcDb3dPolylineVertex
 10
480.3095466477956
 20
-618.5251547608943
 30
0.0
 70
    32
  0
VERTEX
  5
E676
330
E64E
100
AcDbEntity
  8
1外形線
100
AcDbVertex
100
AcDb3dPolylineVertex
 10
480.3085466477956
 20
-618.5242547608943
 30
0.0
 70
    32
  0
VERTEX
  5
E677
330
E64E
100
AcDbEntity
  8
1外形線
100
AcDbVertex
100
AcDb3dPolylineVertex
 10
480.3075466477957
 20
-618.5233547608943
 30
0.0
 70
    32
  0
VERTEX
  5
E678
330
E64E
100
AcDbEntity
  8
1外形線
100
AcDbVertex
100
AcDb3dPolylineVertex
 10
480.3065466477955
 20
-618.5223547608943
 30
0.0
 70
    32
  0
VERTEX
  5
E679
330
E64E
100
AcDbEntity
  8
1外形線
100
AcDbVertex
100
AcDb3dPolylineVertex
 10
480.3055466477958
 20
-618.5214547608943
 30
0.0
 70
    32
  0
VERTEX
  5
E67A
330
E64E
100
AcDbEntity
  8
1外形線
100
AcDbVertex
100
AcDb3dPolylineVertex
 10
480.3055466477958
 20
-618.5205547608943
 30
0.0
 70
    32
  0
VERTEX
  5
E67B
330
E64E
100
AcDbEntity
  8
1外形線
100
AcDbVertex
100
AcDb3dPolylineVertex
 10
480.3045466477955
 20
-618.5196547608943
 30
0.0
 70
    32
  0
VERTEX
  5
E67C
330
E64E
100
AcDbEntity
  8
1外形線
100
AcDbVertex
100
AcDb3dPolylineVertex
 10
480.3035466477957
 20
-618.5187547608943
 30
0.0
 70
    32
  0
VERTEX
  5
E67D
330
E64E
100
AcDbEntity
  8
1外形線
100
AcDbVertex
100
AcDb3dPolylineVertex
 10
480.3025466477956
 20
-618.5178547608943
 30
0.0
 70
    32
  0
VERTEX
  5
E67E
330
E64E
100
AcDbEntity
  8
1外形線
100
AcDbVertex
100
AcDb3dPolylineVertex
 10
480.3015466477956
 20
-618.5169547608943
 30
0.0
 70
    32
  0
VERTEX
  5
E67F
330
E64E
100
AcDbEntity
  8
1外形線
100
AcDbVertex
100
AcDb3dPolylineVertex
 10
480.3005466477956
 20
-618.5160547608943
 30
0.0
 70
    32
  0
VERTEX
  5
E680
330
E64E
100
AcDbEntity
  8
1外形線
100
AcDbVertex
100
AcDb3dPolylineVertex
 10
480.2995466477956
 20
-618.5151547608943
 30
0.0
 70
    32
  0
VERTEX
  5
E681
330
E64E
100
AcDbEntity
  8
1外形線
100
AcDbVertex
100
AcDb3dPolylineVertex
 10
480.2985466477957
 20
-618.5142547608943
 30
0.0
 70
    32
  0
VERTEX
  5
E682
330
E64E
100
AcDbEntity
  8
1外形線
100
AcDbVertex
100
AcDb3dPolylineVertex
 10
480.2975466477957
 20
-618.5133547608943
 30
0.0
 70
    32
  0
VERTEX
  5
E683
330
E64E
100
AcDbEntity
  8
1外形線
100
AcDbVertex
100
AcDb3dPolylineVertex
 10
480.2965466477957
 20
-618.5124547608943
 30
0.0
 70
    32
  0
VERTEX
  5
E684
330
E64E
100
AcDbEntity
  8
1外形線
100
AcDbVertex
100
AcDb3dPolylineVertex
 10
480.2955466477955
 20
-618.5115547608943
 30
0.0
 70
    32
  0
VERTEX
  5
E685
330
E64E
100
AcDbEntity
  8
1外形線
100
AcDbVertex
100
AcDb3dPolylineVertex
 10
480.2945466477957
 20
-618.5106547608943
 30
0.0
 70
    32
  0
VERTEX
  5
E686
330
E64E
100
AcDbEntity
  8
1外形線
100
AcDbVertex
100
AcDb3dPolylineVertex
 10
480.2935466477956
 20
-618.5097547608943
 30
0.0
 70
    32
  0
VERTEX
  5
E687
330
E64E
100
AcDbEntity
  8
1外形線
100
AcDbVertex
100
AcDb3dPolylineVertex
 10
480.2925466477958
 20
-618.5089547608943
 30
0.0
 70
    32
  0
VERTEX
  5
E688
330
E64E
100
AcDbEntity
  8
1外形線
100
AcDbVertex
100
AcDb3dPolylineVertex
 10
480.2915466477956
 20
-618.5080547608943
 30
0.0
 70
    32
  0
VERTEX
  5
E689
330
E64E
100
AcDbEntity
  8
1外形線
100
AcDbVertex
100
AcDb3dPolylineVertex
 10
480.2905466477956
 20
-618.5071547608942
 30
0.0
 70
    32
  0
VERTEX
  5
E68A
330
E64E
100
AcDbEntity
  8
1外形線
100
AcDbVertex
100
AcDb3dPolylineVertex
 10
480.2895466477957
 20
-618.5062547608943
 30
0.0
 70
    32
  0
VERTEX
  5
E68B
330
E64E
100
AcDbEntity
  8
1外形線
100
AcDbVertex
100
AcDb3dPolylineVertex
 10
480.2885466477957
 20
-618.5053547608942
 30
0.0
 70
    32
  0
VERTEX
  5
E68C
330
E64E
100
AcDbEntity
  8
1外形線
100
AcDbVertex
100
AcDb3dPolylineVertex
 10
480.2875466477957
 20
-618.5045547608942
 30
0.0
 70
    32
  0
VERTEX
  5
E68D
330
E64E
100
AcDbEntity
  8
1外形線
100
AcDbVertex
100
AcDb3dPolylineVertex
 10
480.2865466477955
 20
-618.5036547608943
 30
0.0
 70
    32
  0
VERTEX
  5
E68E
330
E64E
100
AcDbEntity
  8
1外形線
100
AcDbVertex
100
AcDb3dPolylineVertex
 10
480.2855466477957
 20
-618.5027547608942
 30
0.0
 70
    32
  0
VERTEX
  5
E68F
330
E64E
100
AcDbEntity
  8
1外形線
100
AcDbVertex
100
AcDb3dPolylineVertex
 10
480.2845466477956
 20
-618.5018547608942
 30
0.0
 70
    32
  0
VERTEX
  5
E690
330
E64E
100
AcDbEntity
  8
1外形線
100
AcDbVertex
100
AcDb3dPolylineVertex
 10
480.2835466477958
 20
-618.5010547608942
 30
0.0
 70
    32
  0
VERTEX
  5
E691
330
E64E
100
AcDbEntity
  8
1外形線
100
AcDbVertex
100
AcDb3dPolylineVertex
 10
480.2825466477956
 20
-618.5001547608942
 30
0.0
 70
    32
  0
VERTEX
  5
E692
330
E64E
100
AcDbEntity
  8
1外形線
100
AcDbVertex
100
AcDb3dPolylineVertex
 10
480.2815466477956
 20
-618.4992547608942
 30
0.0
 70
    32
  0
VERTEX
  5
E693
330
E64E
100
AcDbEntity
  8
1外形線
100
AcDbVertex
100
AcDb3dPolylineVertex
 10
480.2805466477956
 20
-618.4984547608942
 30
0.0
 70
    32
  0
VERTEX
  5
E694
330
E64E
100
AcDbEntity
  8
1外形線
100
AcDbVertex
100
AcDb3dPolylineVertex
 10
480.2795466477957
 20
-618.4975547608942
 30
0.0
 70
    32
  0
VERTEX
  5
E695
330
E64E
100
AcDbEntity
  8
1外形線
100
AcDbVertex
100
AcDb3dPolylineVertex
 10
480.2785466477957
 20
-618.4967547608944
 30
0.0
 70
    32
  0
VERTEX
  5
E696
330
E64E
100
AcDbEntity
  8
1外形線
100
AcDbVertex
100
AcDb3dPolylineVertex
 10
480.2775466477958
 20
-618.4958547608943
 30
0.0
 70
    32
  0
VERTEX
  5
E697
330
E64E
100
AcDbEntity
  8
1外形線
100
AcDbVertex
100
AcDb3dPolylineVertex
 10
480.2765466477957
 20
-618.4950547608941
 30
0.0
 70
    32
  0
VERTEX
  5
E698
330
E64E
100
AcDbEntity
  8
1外形線
100
AcDbVertex
100
AcDb3dPolylineVertex
 10
480.2755466477956
 20
-618.4941547608941
 30
0.0
 70
    32
  0
VERTEX
  5
E699
330
E64E
100
AcDbEntity
  8
1外形線
100
AcDbVertex
100
AcDb3dPolylineVertex
 10
480.2745466477958
 20
-618.4933547608943
 30
0.0
 70
    32
  0
VERTEX
  5
E69A
330
E64E
100
AcDbEntity
  8
1外形線
100
AcDbVertex
100
AcDb3dPolylineVertex
 10
480.2735466477956
 20
-618.4924547608943
 30
0.0
 70
    32
  0
VERTEX
  5
E69B
330
E64E
100
AcDbEntity
  8
1外形線
100
AcDbVertex
100
AcDb3dPolylineVertex
 10
480.2725466477959
 20
-618.4916547608943
 30
0.0
 70
    32
  0
VERTEX
  5
E69C
330
E64E
100
AcDbEntity
  8
1外形線
100
AcDbVertex
100
AcDb3dPolylineVertex
 10
480.2715466477956
 20
-618.4907547608943
 30
0.0
 70
    32
  0
VERTEX
  5
E69D
330
E64E
100
AcDbEntity
  8
1外形線
100
AcDbVertex
100
AcDb3dPolylineVertex
 10
480.2705466477957
 20
-618.4899547608942
 30
0.0
 70
    32
  0
VERTEX
  5
E69E
330
E64E
100
AcDbEntity
  8
1外形線
100
AcDbVertex
100
AcDb3dPolylineVertex
 10
480.2695466477957
 20
-618.4890547608943
 30
0.0
 70
    32
  0
VERTEX
  5
E69F
330
E64E
100
AcDbEntity
  8
1外形線
100
AcDbVertex
100
AcDb3dPolylineVertex
 10
480.2685466477957
 20
-618.4882547608943
 30
0.0
 70
    32
  0
VERTEX
  5
E6A0
330
E64E
100
AcDbEntity
  8
1外形線
100
AcDbVertex
100
AcDb3dPolylineVertex
 10
480.2675466477957
 20
-618.4874547608942
 30
0.0
 70
    32
  0
VERTEX
  5
E6A1
330
E64E
100
AcDbEntity
  8
1外形線
100
AcDbVertex
100
AcDb3dPolylineVertex
 10
480.2665466477956
 20
-618.4865547608942
 30
0.0
 70
    32
  0
VERTEX
  5
E6A2
330
E64E
100
AcDbEntity
  8
1外形線
100
AcDbVertex
100
AcDb3dPolylineVertex
 10
480.2645466477955
 20
-618.4857547608942
 30
0.0
 70
    32
  0
VERTEX
  5
E6A3
330
E64E
100
AcDbEntity
  8
1外形線
100
AcDbVertex
100
AcDb3dPolylineVertex
 10
480.2635466477958
 20
-618.4849547608942
 30
0.0
 70
    32
  0
VERTEX
  5
E6A4
330
E64E
100
AcDbEntity
  8
1外形線
100
AcDbVertex
100
AcDb3dPolylineVertex
 10
480.2625466477956
 20
-618.4840547608942
 30
0.0
 70
    32
  0
VERTEX
  5
E6A5
330
E64E
100
AcDbEntity
  8
1外形線
100
AcDbVertex
100
AcDb3dPolylineVertex
 10
480.2615466477957
 20
-618.4832547608944
 30
0.0
 70
    32
  0
VERTEX
  5
E6A6
330
E64E
100
AcDbEntity
  8
1外形線
100
AcDbVertex
100
AcDb3dPolylineVertex
 10
480.2605466477957
 20
-618.4824547608941
 30
0.0
 70
    32
  0
VERTEX
  5
E6A7
330
E64E
100
AcDbEntity
  8
1外形線
100
AcDbVertex
100
AcDb3dPolylineVertex
 10
480.2595466477957
 20
-618.4816547608943
 30
0.0
 70
    32
  0
VERTEX
  5
E6A8
330
E64E
100
AcDbEntity
  8
1外形線
100
AcDbVertex
100
AcDb3dPolylineVertex
 10
480.2585466477957
 20
-618.4808547608943
 30
0.0
 70
    32
  0
VERTEX
  5
E6A9
330
E64E
100
AcDbEntity
  8
1外形線
100
AcDbVertex
100
AcDb3dPolylineVertex
 10
480.2575466477957
 20
-618.4799547608943
 30
0.0
 70
    32
  0
VERTEX
  5
E6AA
330
E64E
100
AcDbEntity
  8
1外形線
100
AcDbVertex
100
AcDb3dPolylineVertex
 10
480.2565466477958
 20
-618.4791547608942
 30
0.0
 70
    32
  0
VERTEX
  5
E6AB
330
E64E
100
AcDbEntity
  8
1外形線
100
AcDbVertex
100
AcDb3dPolylineVertex
 10
480.2555466477955
 20
-618.4783547608942
 30
0.0
 70
    32
  0
VERTEX
  5
E6AC
330
E64E
100
AcDbEntity
  8
1外形線
100
AcDbVertex
100
AcDb3dPolylineVertex
 10
480.2545466477958
 20
-618.4775547608942
 30
0.0
 70
    32
  0
VERTEX
  5
E6AD
330
E64E
100
AcDbEntity
  8
1外形線
100
AcDbVertex
100
AcDb3dPolylineVertex
 10
480.2535466477956
 20
-618.4767547608942
 30
0.0
 70
    32
  0
VERTEX
  5
E6AE
330
E64E
100
AcDbEntity
  8
1外形線
100
AcDbVertex
100
AcDb3dPolylineVertex
 10
480.2515466477957
 20
-618.4759547608941
 30
0.0
 70
    32
  0
VERTEX
  5
E6AF
330
E64E
100
AcDbEntity
  8
1外形線
100
AcDbVertex
100
AcDb3dPolylineVertex
 10
480.2505466477957
 20
-618.4751547608944
 30
0.0
 70
    32
  0
VERTEX
  5
E6B0
330
E64E
100
AcDbEntity
  8
1外形線
100
AcDbVertex
100
AcDb3dPolylineVertex
 10
480.2495466477957
 20
-618.4743547608944
 30
0.0
 70
    32
  0
VERTEX
  5
E6B1
330
E64E
100
AcDbEntity
  8
1外形線
100
AcDbVertex
100
AcDb3dPolylineVertex
 10
480.2485466477957
 20
-618.4735547608943
 30
0.0
 70
    32
  0
VERTEX
  5
E6B2
330
E64E
100
AcDbEntity
  8
1外形線
100
AcDbVertex
100
AcDb3dPolylineVertex
 10
480.2475466477957
 20
-618.4727547608943
 30
0.0
 70
    32
  0
VERTEX
  5
E6B3
330
E64E
100
AcDbEntity
  8
1外形線
100
AcDbVertex
100
AcDb3dPolylineVertex
 10
480.2465466477955
 20
-618.4719547608942
 30
0.0
 70
    32
  0
VERTEX
  5
E6B4
330
E64E
100
AcDbEntity
  8
1外形線
100
AcDbVertex
100
AcDb3dPolylineVertex
 10
480.2455466477958
 20
-618.4711547608942
 30
0.0
 70
    32
  0
VERTEX
  5
E6B5
330
E64E
100
AcDbEntity
  8
1外形線
100
AcDbVertex
100
AcDb3dPolylineVertex
 10
480.2445466477956
 20
-618.4703547608942
 30
0.0
 70
    32
  0
VERTEX
  5
E6B6
330
E64E
100
AcDbEntity
  8
1外形線
100
AcDbVertex
100
AcDb3dPolylineVertex
 10
480.2425466477957
 20
-618.4695547608941
 30
0.0
 70
    32
  0
VERTEX
  5
E6B7
330
E64E
100
AcDbEntity
  8
1外形線
100
AcDbVertex
100
AcDb3dPolylineVertex
 10
480.2415466477957
 20
-618.4687547608941
 30
0.0
 70
    32
  0
VERTEX
  5
E6B8
330
E64E
100
AcDbEntity
  8
1外形線
100
AcDbVertex
100
AcDb3dPolylineVertex
 10
480.2405466477956
 20
-618.4680547608943
 30
0.0
 70
    32
  0
VERTEX
  5
E6B9
330
E64E
100
AcDbEntity
  8
1外形線
100
AcDbVertex
100
AcDb3dPolylineVertex
 10
480.2395466477957
 20
-618.4672547608943
 30
0.0
 70
    32
  0
VERTEX
  5
E6BA
330
E64E
100
AcDbEntity
  8
1外形線
100
AcDbVertex
100
AcDb3dPolylineVertex
 10
480.2385466477957
 20
-618.4664547608942
 30
0.0
 70
    32
  0
VERTEX
  5
E6BB
330
E64E
100
AcDbEntity
  8
1外形線
100
AcDbVertex
100
AcDb3dPolylineVertex
 10
480.2375466477955
 20
-618.4656547608942
 30
0.0
 70
    32
  0
VERTEX
  5
E6BC
330
E64E
100
AcDbEntity
  8
1外形線
100
AcDbVertex
100
AcDb3dPolylineVertex
 10
480.2365466477958
 20
-618.4649547608942
 30
0.0
 70
    32
  0
VERTEX
  5
E6BD
330
E64E
100
AcDbEntity
  8
1外形線
100
AcDbVertex
100
AcDb3dPolylineVertex
 10
480.2345466477958
 20
-618.4641547608944
 30
0.0
 70
    32
  0
VERTEX
  5
E6BE
330
E64E
100
AcDbEntity
  8
1外形線
100
AcDbVertex
100
AcDb3dPolylineVertex
 10
480.2335466477956
 20
-618.4633547608942
 30
0.0
 70
    32
  0
VERTEX
  5
E6BF
330
E64E
100
AcDbEntity
  8
1外形線
100
AcDbVertex
100
AcDb3dPolylineVertex
 10
480.2325466477957
 20
-618.4625547608943
 30
0.0
 70
    32
  0
VERTEX
  5
E6C0
330
E64E
100
AcDbEntity
  8
1外形線
100
AcDbVertex
100
AcDb3dPolylineVertex
 10
480.2315466477956
 20
-618.4618547608943
 30
0.0
 70
    32
  0
VERTEX
  5
E6C1
330
E64E
100
AcDbEntity
  8
1外形線
100
AcDbVertex
100
AcDb3dPolylineVertex
 10
480.2305466477957
 20
-618.4610547608943
 30
0.0
 70
    32
  0
VERTEX
  5
E6C2
330
E64E
100
AcDbEntity
  8
1外形線
100
AcDbVertex
100
AcDb3dPolylineVertex
 10
480.2295466477957
 20
-618.4602547608943
 30
0.0
 70
    32
  0
VERTEX
  5
E6C3
330
E64E
100
AcDbEntity
  8
1外形線
100
AcDbVertex
100
AcDb3dPolylineVertex
 10
480.2275466477958
 20
-618.4595547608942
 30
0.0
 70
    32
  0
VERTEX
  5
E6C4
330
E64E
100
AcDbEntity
  8
1外形線
100
AcDbVertex
100
AcDb3dPolylineVertex
 10
480.2265466477956
 20
-618.4587547608944
 30
0.0
 70
    32
  0
VERTEX
  5
E6C5
330
E64E
100
AcDbEntity
  8
1外形線
100
AcDbVertex
100
AcDb3dPolylineVertex
 10
480.2255466477958
 20
-618.4580547608943
 30
0.0
 70
    32
  0
VERTEX
  5
E6C6
330
E64E
100
AcDbEntity
  8
1外形線
100
AcDbVertex
100
AcDb3dPolylineVertex
 10
480.2245466477956
 20
-618.4572547608943
 30
0.0
 70
    32
  0
VERTEX
  5
E6C7
330
E64E
100
AcDbEntity
  8
1外形線
100
AcDbVertex
100
AcDb3dPolylineVertex
 10
480.2235466477957
 20
-618.4565547608943
 30
0.0
 70
    32
  0
VERTEX
  5
E6C8
330
E64E
100
AcDbEntity
  8
1外形線
100
AcDbVertex
100
AcDb3dPolylineVertex
 10
480.2215466477957
 20
-618.4557547608942
 30
0.0
 70
    32
  0
VERTEX
  5
E6C9
330
E64E
100
AcDbEntity
  8
1外形線
100
AcDbVertex
100
AcDb3dPolylineVertex
 10
480.2205466477957
 20
-618.4550547608941
 30
0.0
 70
    32
  0
VERTEX
  5
E6CA
330
E64E
100
AcDbEntity
  8
1外形線
100
AcDbVertex
100
AcDb3dPolylineVertex
 10
480.2195466477955
 20
-618.4542547608944
 30
0.0
 70
    32
  0
VERTEX
  5
E6CB
330
E64E
100
AcDbEntity
  8
1外形線
100
AcDbVertex
100
AcDb3dPolylineVertex
 10
480.2185466477958
 20
-618.4535547608943
 30
0.0
 70
    32
  0
VERTEX
  5
E6CC
330
E64E
100
AcDbEntity
  8
1外形線
100
AcDbVertex
100
AcDb3dPolylineVertex
 10
480.2175466477955
 20
-618.4527547608943
 30
0.0
 70
    32
  0
VERTEX
  5
E6CD
330
E64E
100
AcDbEntity
  8
1外形線
100
AcDbVertex
100
AcDb3dPolylineVertex
 10
480.2155466477956
 20
-618.4520547608943
 30
0.0
 70
    32
  0
VERTEX
  5
E6CE
330
E64E
100
AcDbEntity
  8
1外形線
100
AcDbVertex
100
AcDb3dPolylineVertex
 10
480.2145466477957
 20
-618.4513547608942
 30
0.0
 70
    32
  0
SEQEND
  5
E6CF
330
E64E
100
AcDbEntity
  8
1外形線
  0
POLYLINE
  5
E6D0
330
17
100
AcDbEntity
  8
1外形線
100
AcDb3dPolyline
 66
     1
 10
0.0
 20
0.0
 30
0.0
 70
     8
  0
VERTEX
  5
E6D1
330
E6D0
100
AcDbEntity
  8
1外形線
100
AcDbVertex
100
AcDb3dPolylineVertex
 10
444.7195466477955
 20
-617.2394547608941
 30
0.0
 70
    32
  0
VERTEX
  5
E6D2
330
E6D0
100
AcDbEntity
  8
1外形線
100
AcDbVertex
100
AcDb3dPolylineVertex
 10
444.7225466477957
 20
-617.2379547608943
 30
0.0
 70
    32
  0
VERTEX
  5
E6D3
330
E6D0
100
AcDbEntity
  8
1外形線
100
AcDbVertex
100
AcDb3dPolylineVertex
 10
444.7245466477956
 20
-617.2364547608943
 30
0.0
 70
    32
  0
VERTEX
  5
E6D4
330
E6D0
100
AcDbEntity
  8
1外形線
100
AcDbVertex
100
AcDb3dPolylineVertex
 10
444.7275466477957
 20
-617.2349547608941
 30
0.0
 70
    32
  0
VERTEX
  5
E6D5
330
E6D0
100
AcDbEntity
  8
1外形線
100
AcDbVertex
100
AcDb3dPolylineVertex
 10
444.7305466477957
 20
-617.2335547608943
 30
0.0
 70
    32
  0
VERTEX
  5
E6D6
330
E6D0
100
AcDbEntity
  8
1外形線
100
AcDbVertex
100
AcDb3dPolylineVertex
 10
444.7325466477956
 20
-617.2320547608942
 30
0.0
 70
    32
  0
VERTEX
  5
E6D7
330
E6D0
100
AcDbEntity
  8
1外形線
100
AcDbVertex
100
AcDb3dPolylineVertex
 10
444.7355466477956
 20
-617.2305547608943
 30
0.0
 70
    32
  0
VERTEX
  5
E6D8
330
E6D0
100
AcDbEntity
  8
1外形線
100
AcDbVertex
100
AcDb3dPolylineVertex
 10
444.7375466477955
 20
-617.2291547608942
 30
0.0
 70
    32
  0
VERTEX
  5
E6D9
330
E6D0
100
AcDbEntity
  8
1外形線
100
AcDbVertex
100
AcDb3dPolylineVertex
 10
444.7405466477957
 20
-617.2276547608942
 30
0.0
 70
    32
  0
VERTEX
  5
E6DA
330
E6D0
100
AcDbEntity
  8
1外形線
100
AcDbVertex
100
AcDb3dPolylineVertex
 10
444.7425466477956
 20
-617.2262547608943
 30
0.0
 70
    32
  0
VERTEX
  5
E6DB
330
E6D0
100
AcDbEntity
  8
1外形線
100
AcDbVertex
100
AcDb3dPolylineVertex
 10
444.7455466477958
 20
-617.2247547608942
 30
0.0
 70
    32
  0
VERTEX
  5
E6DC
330
E6D0
100
AcDbEntity
  8
1外形線
100
AcDbVertex
100
AcDb3dPolylineVertex
 10
444.7475466477958
 20
-617.2233547608944
 30
0.0
 70
    32
  0
VERTEX
  5
E6DD
330
E6D0
100
AcDbEntity
  8
1外形線
100
AcDbVertex
100
AcDb3dPolylineVertex
 10
444.7505466477957
 20
-617.2219547608943
 30
0.0
 70
    32
  0
VERTEX
  5
E6DE
330
E6D0
100
AcDbEntity
  8
1外形線
100
AcDbVertex
100
AcDb3dPolylineVertex
 10
444.7525466477959
 20
-617.2205547608942
 30
0.0
 70
    32
  0
VERTEX
  5
E6DF
330
E6D0
100
AcDbEntity
  8
1外形線
100
AcDbVertex
100
AcDb3dPolylineVertex
 10
444.7555466477956
 20
-617.2191547608942
 30
0.0
 70
    32
  0
VERTEX
  5
E6E0
330
E6D0
100
AcDbEntity
  8
1外形線
100
AcDbVertex
100
AcDb3dPolylineVertex
 10
444.7575466477958
 20
-617.2177547608944
 30
0.0
 70
    32
  0
VERTEX
  5
E6E1
330
E6D0
100
AcDbEntity
  8
1外形線
100
AcDbVertex
100
AcDb3dPolylineVertex
 10
444.7605466477956
 20
-617.2163547608943
 30
0.0
 70
    32
  0
VERTEX
  5
E6E2
330
E6D0
100
AcDbEntity
  8
1外形線
100
AcDbVertex
100
AcDb3dPolylineVertex
 10
444.7635466477958
 20
-617.2150547608944
 30
0.0
 70
    32
  0
VERTEX
  5
E6E3
330
E6D0
100
AcDbEntity
  8
1外形線
100
AcDbVertex
100
AcDb3dPolylineVertex
 10
444.7655466477958
 20
-617.2136547608943
 30
0.0
 70
    32
  0
VERTEX
  5
E6E4
330
E6D0
100
AcDbEntity
  8
1外形線
100
AcDbVertex
100
AcDb3dPolylineVertex
 10
444.7685466477957
 20
-617.2122547608942
 30
0.0
 70
    32
  0
VERTEX
  5
E6E5
330
E6D0
100
AcDbEntity
  8
1外形線
100
AcDbVertex
100
AcDb3dPolylineVertex
 10
444.7705466477956
 20
-617.2109547608942
 30
0.0
 70
    32
  0
VERTEX
  5
E6E6
330
E6D0
100
AcDbEntity
  8
1外形線
100
AcDbVertex
100
AcDb3dPolylineVertex
 10
444.7735466477956
 20
-617.2095547608941
 30
0.0
 70
    32
  0
VERTEX
  5
E6E7
330
E6D0
100
AcDbEntity
  8
1外形線
100
AcDbVertex
100
AcDb3dPolylineVertex
 10
444.7755466477955
 20
-617.2082547608943
 30
0.0
 70
    32
  0
VERTEX
  5
E6E8
330
E6D0
100
AcDbEntity
  8
1外形線
100
AcDbVertex
100
AcDb3dPolylineVertex
 10
444.7785466477957
 20
-617.2069547608944
 30
0.0
 70
    32
  0
VERTEX
  5
E6E9
330
E6D0
100
AcDbEntity
  8
1外形線
100
AcDbVertex
100
AcDb3dPolylineVertex
 10
444.7815466477957
 20
-617.2056547608942
 30
0.0
 70
    32
  0
VERTEX
  5
E6EA
330
E6D0
100
AcDbEntity
  8
1外形線
100
AcDbVertex
100
AcDb3dPolylineVertex
 10
444.7835466477958
 20
-617.2043547608941
 30
0.0
 70
    32
  0
VERTEX
  5
E6EB
330
E6D0
100
AcDbEntity
  8
1外形線
100
AcDbVertex
100
AcDb3dPolylineVertex
 10
444.7865466477955
 20
-617.2030547608942
 30
0.0
 70
    32
  0
VERTEX
  5
E6EC
330
E6D0
100
AcDbEntity
  8
1外形線
100
AcDbVertex
100
AcDb3dPolylineVertex
 10
444.7885466477957
 20
-617.2017547608943
 30
0.0
 70
    32
  0
VERTEX
  5
E6ED
330
E6D0
100
AcDbEntity
  8
1外形線
100
AcDbVertex
100
AcDb3dPolylineVertex
 10
444.7915466477956
 20
-617.2004547608942
 30
0.0
 70
    32
  0
VERTEX
  5
E6EE
330
E6D0
100
AcDbEntity
  8
1外形線
100
AcDbVertex
100
AcDb3dPolylineVertex
 10
444.7945466477958
 20
-617.1991547608943
 30
0.0
 70
    32
  0
VERTEX
  5
E6EF
330
E6D0
100
AcDbEntity
  8
1外形線
100
AcDbVertex
100
AcDb3dPolylineVertex
 10
444.7965466477957
 20
-617.1979547608944
 30
0.0
 70
    32
  0
VERTEX
  5
E6F0
330
E6D0
100
AcDbEntity
  8
1外形線
100
AcDbVertex
100
AcDb3dPolylineVertex
 10
444.7995466477957
 20
-617.1966547608942
 30
0.0
 70
    32
  0
VERTEX
  5
E6F1
330
E6D0
100
AcDbEntity
  8
1外形線
100
AcDbVertex
100
AcDb3dPolylineVertex
 10
444.8015466477956
 20
-617.1953547608941
 30
0.0
 70
    32
  0
VERTEX
  5
E6F2
330
E6D0
100
AcDbEntity
  8
1外形線
100
AcDbVertex
100
AcDb3dPolylineVertex
 10
444.8045466477956
 20
-617.1941547608942
 30
0.0
 70
    32
  0
VERTEX
  5
E6F3
330
E6D0
100
AcDbEntity
  8
1外形線
100
AcDbVertex
100
AcDb3dPolylineVertex
 10
444.8065466477955
 20
-617.1929547608942
 30
0.0
 70
    32
  0
VERTEX
  5
E6F4
330
E6D0
100
AcDbEntity
  8
1外形線
100
AcDbVertex
100
AcDb3dPolylineVertex
 10
444.8095466477957
 20
-617.1916547608944
 30
0.0
 70
    32
  0
VERTEX
  5
E6F5
330
E6D0
100
AcDbEntity
  8
1外形線
100
AcDbVertex
100
AcDb3dPolylineVertex
 10
444.8125466477958
 20
-617.1904547608942
 30
0.0
 70
    32
  0
VERTEX
  5
E6F6
330
E6D0
100
AcDbEntity
  8
1外形線
100
AcDbVertex
100
AcDb3dPolylineVertex
 10
444.8145466477957
 20
-617.1892547608942
 30
0.0
 70
    32
  0
VERTEX
  5
E6F7
330
E6D0
100
AcDbEntity
  8
1外形線
100
AcDbVertex
100
AcDb3dPolylineVertex
 10
444.8175466477957
 20
-617.1880547608943
 30
0.0
 70
    32
  0
VERTEX
  5
E6F8
330
E6D0
100
AcDbEntity
  8
1外形線
100
AcDbVertex
100
AcDb3dPolylineVertex
 10
444.8205466477956
 20
-617.1868547608942
 30
0.0
 70
    32
  0
VERTEX
  5
E6F9
330
E6D0
100
AcDbEntity
  8
1外形線
100
AcDbVertex
100
AcDb3dPolylineVertex
 10
444.8225466477956
 20
-617.1856547608943
 30
0.0
 70
    32
  0
VERTEX
  5
E6FA
330
E6D0
100
AcDbEntity
  8
1外形線
100
AcDbVertex
100
AcDb3dPolylineVertex
 10
444.8255466477958
 20
-617.1845547608943
 30
0.0
 70
    32
  0
VERTEX
  5
E6FB
330
E6D0
100
AcDbEntity
  8
1外形線
100
AcDbVertex
100
AcDb3dPolylineVertex
 10
444.8275466477957
 20
-617.1833547608944
 30
0.0
 70
    32
  0
VERTEX
  5
E6FC
330
E6D0
100
AcDbEntity
  8
1外形線
100
AcDbVertex
100
AcDb3dPolylineVertex
 10
444.8305466477956
 20
-617.1821547608942
 30
0.0
 70
    32
  0
VERTEX
  5
E6FD
330
E6D0
100
AcDbEntity
  8
1外形線
100
AcDbVertex
100
AcDb3dPolylineVertex
 10
444.8335466477955
 20
-617.1810547608942
 30
0.0
 70
    32
  0
VERTEX
  5
E6FE
330
E6D0
100
AcDbEntity
  8
1外形線
100
AcDbVertex
100
AcDb3dPolylineVertex
 10
444.8355466477955
 20
-617.1798547608942
 30
0.0
 70
    32
  0
VERTEX
  5
E6FF
330
E6D0
100
AcDbEntity
  8
1外形線
100
AcDbVertex
100
AcDb3dPolylineVertex
 10
444.8385466477956
 20
-617.1787547608942
 30
0.0
 70
    32
  0
VERTEX
  5
E700
330
E6D0
100
AcDbEntity
  8
1外形線
100
AcDbVertex
100
AcDb3dPolylineVertex
 10
444.8405466477956
 20
-617.1776547608942
 30
0.0
 70
    32
  0
VERTEX
  5
E701
330
E6D0
100
AcDbEntity
  8
1外形線
100
AcDbVertex
100
AcDb3dPolylineVertex
 10
444.8435466477958
 20
-617.1764547608943
 30
0.0
 70
    32
  0
VERTEX
  5
E702
330
E6D0
100
AcDbEntity
  8
1外形線
100
AcDbVertex
100
AcDb3dPolylineVertex
 10
444.8465466477957
 20
-617.1753547608942
 30
0.0
 70
    32
  0
VERTEX
  5
E703
330
E6D0
100
AcDbEntity
  8
1外形線
100
AcDbVertex
100
AcDb3dPolylineVertex
 10
444.8485466477956
 20
-617.1742547608942
 30
0.0
 70
    32
  0
VERTEX
  5
E704
330
E6D0
100
AcDbEntity
  8
1外形線
100
AcDbVertex
100
AcDb3dPolylineVertex
 10
444.8515466477956
 20
-617.1731547608942
 30
0.0
 70
    32
  0
VERTEX
  5
E705
330
E6D0
100
AcDbEntity
  8
1外形線
100
AcDbVertex
100
AcDb3dPolylineVertex
 10
444.8545466477957
 20
-617.1720547608942
 30
0.0
 70
    32
  0
VERTEX
  5
E706
330
E6D0
100
AcDbEntity
  8
1外形線
100
AcDbVertex
100
AcDb3dPolylineVertex
 10
444.8565466477957
 20
-617.1710547608943
 30
0.0
 70
    32
  0
VERTEX
  5
E707
330
E6D0
100
AcDbEntity
  8
1外形線
100
AcDbVertex
100
AcDb3dPolylineVertex
 10
444.8595466477958
 20
-617.1699547608941
 30
0.0
 70
    32
  0
VERTEX
  5
E708
330
E6D0
100
AcDbEntity
  8
1外形線
100
AcDbVertex
100
AcDb3dPolylineVertex
 10
444.8625466477955
 20
-617.1688547608941
 30
0.0
 70
    32
  0
VERTEX
  5
E709
330
E6D0
100
AcDbEntity
  8
1外形線
100
AcDbVertex
100
AcDb3dPolylineVertex
 10
444.8645466477957
 20
-617.1678547608942
 30
0.0
 70
    32
  0
VERTEX
  5
E70A
330
E6D0
100
AcDbEntity
  8
1外形線
100
AcDbVertex
100
AcDb3dPolylineVertex
 10
444.8675466477957
 20
-617.1667547608942
 30
0.0
 70
    32
  0
VERTEX
  5
E70B
330
E6D0
100
AcDbEntity
  8
1外形線
100
AcDbVertex
100
AcDb3dPolylineVertex
 10
444.8705466477958
 20
-617.1657547608942
 30
0.0
 70
    32
  0
VERTEX
  5
E70C
330
E6D0
100
AcDbEntity
  8
1外形線
100
AcDbVertex
100
AcDb3dPolylineVertex
 10
444.8725466477958
 20
-617.1646547608943
 30
0.0
 70
    32
  0
VERTEX
  5
E70D
330
E6D0
100
AcDbEntity
  8
1外形線
100
AcDbVertex
100
AcDb3dPolylineVertex
 10
444.8755466477956
 20
-617.1636547608941
 30
0.0
 70
    32
  0
VERTEX
  5
E70E
330
E6D0
100
AcDbEntity
  8
1外形線
100
AcDbVertex
100
AcDb3dPolylineVertex
 10
444.8775466477958
 20
-617.1626547608943
 30
0.0
 70
    32
  0
VERTEX
  5
E70F
330
E6D0
100
AcDbEntity
  8
1外形線
100
AcDbVertex
100
AcDb3dPolylineVertex
 10
444.8805466477955
 20
-617.1616547608941
 30
0.0
 70
    32
  0
VERTEX
  5
E710
330
E6D0
100
AcDbEntity
  8
1外形線
100
AcDbVertex
100
AcDb3dPolylineVertex
 10
444.8835466477957
 20
-617.1606547608941
 30
0.0
 70
    32
  0
VERTEX
  5
E711
330
E6D0
100
AcDbEntity
  8
1外形線
100
AcDbVertex
100
AcDb3dPolylineVertex
 10
444.8855466477957
 20
-617.1596547608942
 30
0.0
 70
    32
  0
VERTEX
  5
E712
330
E6D0
100
AcDbEntity
  8
1外形線
100
AcDbVertex
100
AcDb3dPolylineVertex
 10
444.8885466477959
 20
-617.1586547608942
 30
0.0
 70
    32
  0
VERTEX
  5
E713
330
E6D0
100
AcDbEntity
  8
1外形線
100
AcDbVertex
100
AcDb3dPolylineVertex
 10
444.8915466477955
 20
-617.1576547608943
 30
0.0
 70
    32
  0
VERTEX
  5
E714
330
E6D0
100
AcDbEntity
  8
1外形線
100
AcDbVertex
100
AcDb3dPolylineVertex
 10
444.8935466477957
 20
-617.1567547608942
 30
0.0
 70
    32
  0
VERTEX
  5
E715
330
E6D0
100
AcDbEntity
  8
1外形線
100
AcDbVertex
100
AcDb3dPolylineVertex
 10
444.8965466477956
 20
-617.1557547608943
 30
0.0
 70
    32
  0
VERTEX
  5
E716
330
E6D0
100
AcDbEntity
  8
1外形線
100
AcDbVertex
100
AcDb3dPolylineVertex
 10
444.8995466477958
 20
-617.1547547608943
 30
0.0
 70
    32
  0
VERTEX
  5
E717
330
E6D0
100
AcDbEntity
  8
1外形線
100
AcDbVertex
100
AcDb3dPolylineVertex
 10
444.9015466477957
 20
-617.1538547608943
 30
0.0
 70
    32
  0
VERTEX
  5
E718
330
E6D0
100
AcDbEntity
  8
1外形線
100
AcDbVertex
100
AcDb3dPolylineVertex
 10
444.9045466477957
 20
-617.1529547608943
 30
0.0
 70
    32
  0
VERTEX
  5
E719
330
E6D0
100
AcDbEntity
  8
1外形線
100
AcDbVertex
100
AcDb3dPolylineVertex
 10
444.9075466477956
 20
-617.1519547608943
 30
0.0
 70
    32
  0
VERTEX
  5
E71A
330
E6D0
100
AcDbEntity
  8
1外形線
100
AcDbVertex
100
AcDb3dPolylineVertex
 10
444.9095466477955
 20
-617.1510547608943
 30
0.0
 70
    32
  0
VERTEX
  5
E71B
330
E6D0
100
AcDbEntity
  8
1外形線
100
AcDbVertex
100
AcDb3dPolylineVertex
 10
444.9125466477958
 20
-617.1501547608943
 30
0.0
 70
    32
  0
VERTEX
  5
E71C
330
E6D0
100
AcDbEntity
  8
1外形線
100
AcDbVertex
100
AcDb3dPolylineVertex
 10
444.9155466477956
 20
-617.1492547608943
 30
0.0
 70
    32
  0
VERTEX
  5
E71D
330
E6D0
100
AcDbEntity
  8
1外形線
100
AcDbVertex
100
AcDb3dPolylineVertex
 10
444.9185466477955
 20
-617.1483547608943
 30
0.0
 70
    32
  0
VERTEX
  5
E71E
330
E6D0
100
AcDbEntity
  8
1外形線
100
AcDbVertex
100
AcDb3dPolylineVertex
 10
444.9205466477955
 20
-617.1474547608943
 30
0.0
 70
    32
  0
VERTEX
  5
E71F
330
E6D0
100
AcDbEntity
  8
1外形線
100
AcDbVertex
100
AcDb3dPolylineVertex
 10
444.9235466477957
 20
-617.1465547608943
 30
0.0
 70
    32
  0
VERTEX
  5
E720
330
E6D0
100
AcDbEntity
  8
1外形線
100
AcDbVertex
100
AcDb3dPolylineVertex
 10
444.9265466477956
 20
-617.1456547608943
 30
0.0
 70
    32
  0
VERTEX
  5
E721
330
E6D0
100
AcDbEntity
  8
1外形線
100
AcDbVertex
100
AcDb3dPolylineVertex
 10
444.9285466477958
 20
-617.1448547608942
 30
0.0
 70
    32
  0
VERTEX
  5
E722
330
E6D0
100
AcDbEntity
  8
1外形線
100
AcDbVertex
100
AcDb3dPolylineVertex
 10
444.9315466477955
 20
-617.1439547608943
 30
0.0
 70
    32
  0
VERTEX
  5
E723
330
E6D0
100
AcDbEntity
  8
1外形線
100
AcDbVertex
100
AcDb3dPolylineVertex
 10
444.9345466477956
 20
-617.1431547608943
 30
0.0
 70
    32
  0
VERTEX
  5
E724
330
E6D0
100
AcDbEntity
  8
1外形線
100
AcDbVertex
100
AcDb3dPolylineVertex
 10
444.9365466477956
 20
-617.1422547608942
 30
0.0
 70
    32
  0
VERTEX
  5
E725
330
E6D0
100
AcDbEntity
  8
1外形線
100
AcDbVertex
100
AcDb3dPolylineVertex
 10
444.9395466477958
 20
-617.1414547608942
 30
0.0
 70
    32
  0
VERTEX
  5
E726
330
E6D0
100
AcDbEntity
  8
1外形線
100
AcDbVertex
100
AcDb3dPolylineVertex
 10
444.9425466477957
 20
-617.1406547608942
 30
0.0
 70
    32
  0
VERTEX
  5
E727
330
E6D0
100
AcDbEntity
  8
1外形線
100
AcDbVertex
100
AcDb3dPolylineVertex
 10
444.9445466477956
 20
-617.1397547608941
 30
0.0
 70
    32
  0
VERTEX
  5
E728
330
E6D0
100
AcDbEntity
  8
1外形線
100
AcDbVertex
100
AcDb3dPolylineVertex
 10
444.9475466477956
 20
-617.1389547608941
 30
0.0
 70
    32
  0
VERTEX
  5
E729
330
E6D0
100
AcDbEntity
  8
1外形線
100
AcDbVertex
100
AcDb3dPolylineVertex
 10
444.9505466477957
 20
-617.1381547608944
 30
0.0
 70
    32
  0
VERTEX
  5
E72A
330
E6D0
100
AcDbEntity
  8
1外形線
100
AcDbVertex
100
AcDb3dPolylineVertex
 10
444.9535466477956
 20
-617.1373547608941
 30
0.0
 70
    32
  0
VERTEX
  5
E72B
330
E6D0
100
AcDbEntity
  8
1外形線
100
AcDbVertex
100
AcDb3dPolylineVertex
 10
444.9555466477956
 20
-617.1365547608943
 30
0.0
 70
    32
  0
VERTEX
  5
E72C
330
E6D0
100
AcDbEntity
  8
1外形線
100
AcDbVertex
100
AcDb3dPolylineVertex
 10
444.9585466477955
 20
-617.1358547608942
 30
0.0
 70
    32
  0
VERTEX
  5
E72D
330
E6D0
100
AcDbEntity
  8
1外形線
100
AcDbVertex
100
AcDb3dPolylineVertex
 10
444.9615466477957
 20
-617.1350547608942
 30
0.0
 70
    32
  0
VERTEX
  5
E72E
330
E6D0
100
AcDbEntity
  8
1外形線
100
AcDbVertex
100
AcDb3dPolylineVertex
 10
444.9635466477956
 20
-617.1342547608942
 30
0.0
 70
    32
  0
VERTEX
  5
E72F
330
E6D0
100
AcDbEntity
  8
1外形線
100
AcDbVertex
100
AcDb3dPolylineVertex
 10
444.9665466477958
 20
-617.1335547608942
 30
0.0
 70
    32
  0
VERTEX
  5
E730
330
E6D0
100
AcDbEntity
  8
1外形線
100
AcDbVertex
100
AcDb3dPolylineVertex
 10
444.9695466477955
 20
-617.1327547608943
 30
0.0
 70
    32
  0
VERTEX
  5
E731
330
E6D0
100
AcDbEntity
  8
1外形線
100
AcDbVertex
100
AcDb3dPolylineVertex
 10
444.9715466477957
 20
-617.1320547608943
 30
0.0
 70
    32
  0
VERTEX
  5
E732
330
E6D0
100
AcDbEntity
  8
1外形線
100
AcDbVertex
100
AcDb3dPolylineVertex
 10
444.9745466477956
 20
-617.1312547608943
 30
0.0
 70
    32
  0
VERTEX
  5
E733
330
E6D0
100
AcDbEntity
  8
1外形線
100
AcDbVertex
100
AcDb3dPolylineVertex
 10
444.9775466477958
 20
-617.1305547608942
 30
0.0
 70
    32
  0
VERTEX
  5
E734
330
E6D0
100
AcDbEntity
  8
1外形線
100
AcDbVertex
100
AcDb3dPolylineVertex
 10
444.9805466477957
 20
-617.1298547608942
 30
0.0
 70
    32
  0
VERTEX
  5
E735
330
E6D0
100
AcDbEntity
  8
1外形線
100
AcDbVertex
100
AcDb3dPolylineVertex
 10
444.9825466477957
 20
-617.1291547608944
 30
0.0
 70
    32
  0
VERTEX
  5
E736
330
E6D0
100
AcDbEntity
  8
1外形線
100
AcDbVertex
100
AcDb3dPolylineVertex
 10
444.9855466477956
 20
-617.1284547608943
 30
0.0
 70
    32
  0
VERTEX
  5
E737
330
E6D0
100
AcDbEntity
  8
1外形線
100
AcDbVertex
100
AcDb3dPolylineVertex
 10
444.9885466477957
 20
-617.1277547608942
 30
0.0
 70
    32
  0
VERTEX
  5
E738
330
E6D0
100
AcDbEntity
  8
1外形線
100
AcDbVertex
100
AcDb3dPolylineVertex
 10
444.9915466477957
 20
-617.1270547608942
 30
0.0
 70
    32
  0
VERTEX
  5
E739
330
E6D0
100
AcDbEntity
  8
1外形線
100
AcDbVertex
100
AcDb3dPolylineVertex
 10
444.9935466477959
 20
-617.1263547608941
 30
0.0
 70
    32
  0
VERTEX
  5
E73A
330
E6D0
100
AcDbEntity
  8
1外形線
100
AcDbVertex
100
AcDb3dPolylineVertex
 10
444.9965466477955
 20
-617.1257547608943
 30
0.0
 70
    32
  0
VERTEX
  5
E73B
330
E6D0
100
AcDbEntity
  8
1外形線
100
AcDbVertex
100
AcDb3dPolylineVertex
 10
444.9995466477957
 20
-617.1250547608942
 30
0.0
 70
    32
  0
VERTEX
  5
E73C
330
E6D0
100
AcDbEntity
  8
1外形線
100
AcDbVertex
100
AcDb3dPolylineVertex
 10
445.0015466477957
 20
-617.1243547608942
 30
0.0
 70
    32
  0
VERTEX
  5
E73D
330
E6D0
100
AcDbEntity
  8
1外形線
100
AcDbVertex
100
AcDb3dPolylineVertex
 10
445.0045466477958
 20
-617.1237547608943
 30
0.0
 70
    32
  0
VERTEX
  5
E73E
330
E6D0
100
AcDbEntity
  8
1外形線
100
AcDbVertex
100
AcDb3dPolylineVertex
 10
445.0075466477957
 20
-617.1230547608943
 30
0.0
 70
    32
  0
VERTEX
  5
E73F
330
E6D0
100
AcDbEntity
  8
1外形線
100
AcDbVertex
100
AcDb3dPolylineVertex
 10
445.0105466477957
 20
-617.1224547608942
 30
0.0
 70
    32
  0
VERTEX
  5
E740
330
E6D0
100
AcDbEntity
  8
1外形線
100
AcDbVertex
100
AcDb3dPolylineVertex
 10
445.0125466477956
 20
-617.1218547608941
 30
0.0
 70
    32
  0
VERTEX
  5
E741
330
E6D0
100
AcDbEntity
  8
1外形線
100
AcDbVertex
100
AcDb3dPolylineVertex
 10
445.0155466477958
 20
-617.1212547608943
 30
0.0
 70
    32
  0
VERTEX
  5
E742
330
E6D0
100
AcDbEntity
  8
1外形線
100
AcDbVertex
100
AcDb3dPolylineVertex
 10
445.0185466477957
 20
-617.1206547608942
 30
0.0
 70
    32
  0
VERTEX
  5
E743
330
E6D0
100
AcDbEntity
  8
1外形線
100
AcDbVertex
100
AcDb3dPolylineVertex
 10
445.0215466477956
 20
-617.1200547608941
 30
0.0
 70
    32
  0
VERTEX
  5
E744
330
E6D0
100
AcDbEntity
  8
1外形線
100
AcDbVertex
100
AcDb3dPolylineVertex
 10
445.0235466477955
 20
-617.1194547608942
 30
0.0
 70
    32
  0
VERTEX
  5
E745
330
E6D0
100
AcDbEntity
  8
1外形線
100
AcDbVertex
100
AcDb3dPolylineVertex
 10
445.0265466477957
 20
-617.1188547608942
 30
0.0
 70
    32
  0
VERTEX
  5
E746
330
E6D0
100
AcDbEntity
  8
1外形線
100
AcDbVertex
100
AcDb3dPolylineVertex
 10
445.0295466477957
 20
-617.1182547608942
 30
0.0
 70
    32
  0
VERTEX
  5
E747
330
E6D0
100
AcDbEntity
  8
1外形線
100
AcDbVertex
100
AcDb3dPolylineVertex
 10
445.0325466477956
 20
-617.1176547608943
 30
0.0
 70
    32
  0
VERTEX
  5
E748
330
E6D0
100
AcDbEntity
  8
1外形線
100
AcDbVertex
100
AcDb3dPolylineVertex
 10
445.0345466477956
 20
-617.1171547608942
 30
0.0
 70
    32
  0
VERTEX
  5
E749
330
E6D0
100
AcDbEntity
  8
1外形線
100
AcDbVertex
100
AcDb3dPolylineVertex
 10
445.0375466477957
 20
-617.1165547608943
 30
0.0
 70
    32
  0
VERTEX
  5
E74A
330
E6D0
100
AcDbEntity
  8
1外形線
100
AcDbVertex
100
AcDb3dPolylineVertex
 10
445.0405466477956
 20
-617.1160547608942
 30
0.0
 70
    32
  0
VERTEX
  5
E74B
330
E6D0
100
AcDbEntity
  8
1外形線
100
AcDbVertex
100
AcDb3dPolylineVertex
 10
445.0435466477956
 20
-617.1154547608944
 30
0.0
 70
    32
  0
VERTEX
  5
E74C
330
E6D0
100
AcDbEntity
  8
1外形線
100
AcDbVertex
100
AcDb3dPolylineVertex
 10
445.0455466477955
 20
-617.1149547608942
 30
0.0
 70
    32
  0
VERTEX
  5
E74D
330
E6D0
100
AcDbEntity
  8
1外形線
100
AcDbVertex
100
AcDb3dPolylineVertex
 10
445.0485466477957
 20
-617.1144547608942
 30
0.0
 70
    32
  0
VERTEX
  5
E74E
330
E6D0
100
AcDbEntity
  8
1外形線
100
AcDbVertex
100
AcDb3dPolylineVertex
 10
445.0515466477956
 20
-617.1138547608943
 30
0.0
 70
    32
  0
VERTEX
  5
E74F
330
E6D0
100
AcDbEntity
  8
1外形線
100
AcDbVertex
100
AcDb3dPolylineVertex
 10
445.0545466477955
 20
-617.1133547608942
 30
0.0
 70
    32
  0
VERTEX
  5
E750
330
E6D0
100
AcDbEntity
  8
1外形線
100
AcDbVertex
100
AcDb3dPolylineVertex
 10
445.0565466477955
 20
-617.1128547608941
 30
0.0
 70
    32
  0
VERTEX
  5
E751
330
E6D0
100
AcDbEntity
  8
1外形線
100
AcDbVertex
100
AcDb3dPolylineVertex
 10
445.0595466477956
 20
-617.1123547608942
 30
0.0
 70
    32
  0
VERTEX
  5
E752
330
E6D0
100
AcDbEntity
  8
1外形線
100
AcDbVertex
100
AcDb3dPolylineVertex
 10
445.0625466477958
 20
-617.1119547608941
 30
0.0
 70
    32
  0
VERTEX
  5
E753
330
E6D0
100
AcDbEntity
  8
1外形線
100
AcDbVertex
100
AcDb3dPolylineVertex
 10
445.0655466477955
 20
-617.1114547608943
 30
0.0
 70
    32
  0
VERTEX
  5
E754
330
E6D0
100
AcDbEntity
  8
1外形線
100
AcDbVertex
100
AcDb3dPolylineVertex
 10
445.0675466477957
 20
-617.1109547608944
 30
0.0
 70
    32
  0
VERTEX
  5
E755
330
E6D0
100
AcDbEntity
  8
1外形線
100
AcDbVertex
100
AcDb3dPolylineVertex
 10
445.0705466477956
 20
-617.1104547608942
 30
0.0
 70
    32
  0
VERTEX
  5
E756
330
E6D0
100
AcDbEntity
  8
1外形線
100
AcDbVertex
100
AcDb3dPolylineVertex
 10
445.0735466477958
 20
-617.1100547608943
 30
0.0
 70
    32
  0
VERTEX
  5
E757
330
E6D0
100
AcDbEntity
  8
1外形線
100
AcDbVertex
100
AcDb3dPolylineVertex
 10
445.0765466477955
 20
-617.1095547608943
 30
0.0
 70
    32
  0
VERTEX
  5
E758
330
E6D0
100
AcDbEntity
  8
1外形線
100
AcDbVertex
100
AcDb3dPolylineVertex
 10
445.0785466477957
 20
-617.1091547608944
 30
0.0
 70
    32
  0
VERTEX
  5
E759
330
E6D0
100
AcDbEntity
  8
1外形線
100
AcDbVertex
100
AcDb3dPolylineVertex
 10
445.0815466477956
 20
-617.1087547608943
 30
0.0
 70
    32
  0
VERTEX
  5
E75A
330
E6D0
100
AcDbEntity
  8
1外形線
100
AcDbVertex
100
AcDb3dPolylineVertex
 10
445.0845466477957
 20
-617.1083547608941
 30
0.0
 70
    32
  0
VERTEX
  5
E75B
330
E6D0
100
AcDbEntity
  8
1外形線
100
AcDbVertex
100
AcDb3dPolylineVertex
 10
445.0875466477957
 20
-617.1078547608942
 30
0.0
 70
    32
  0
VERTEX
  5
E75C
330
E6D0
100
AcDbEntity
  8
1外形線
100
AcDbVertex
100
AcDb3dPolylineVertex
 10
445.0895466477956
 20
-617.1074547608941
 30
0.0
 70
    32
  0
VERTEX
  5
E75D
330
E6D0
100
AcDbEntity
  8
1外形線
100
AcDbVertex
100
AcDb3dPolylineVertex
 10
445.0925466477955
 20
-617.1070547608942
 30
0.0
 70
    32
  0
VERTEX
  5
E75E
330
E6D0
100
AcDbEntity
  8
1外形線
100
AcDbVertex
100
AcDb3dPolylineVertex
 10
445.0955466477957
 20
-617.1066547608943
 30
0.0
 70
    32
  0
VERTEX
  5
E75F
330
E6D0
100
AcDbEntity
  8
1外形線
100
AcDbVertex
100
AcDb3dPolylineVertex
 10
445.0985466477956
 20
-617.1063547608942
 30
0.0
 70
    32
  0
VERTEX
  5
E760
330
E6D0
100
AcDbEntity
  8
1外形線
100
AcDbVertex
100
AcDb3dPolylineVertex
 10
445.1015466477955
 20
-617.1059547608942
 30
0.0
 70
    32
  0
VERTEX
  5
E761
330
E6D0
100
AcDbEntity
  8
1外形線
100
AcDbVertex
100
AcDb3dPolylineVertex
 10
445.1035466477955
 20
-617.1055547608943
 30
0.0
 70
    32
  0
VERTEX
  5
E762
330
E6D0
100
AcDbEntity
  8
1外形線
100
AcDbVertex
100
AcDb3dPolylineVertex
 10
445.1065466477957
 20
-617.1051547608942
 30
0.0
 70
    32
  0
VERTEX
  5
E763
330
E6D0
100
AcDbEntity
  8
1外形線
100
AcDbVertex
100
AcDb3dPolylineVertex
 10
445.1095466477958
 20
-617.1048547608943
 30
0.0
 70
    32
  0
VERTEX
  5
E764
330
E6D0
100
AcDbEntity
  8
1外形線
100
AcDbVertex
100
AcDb3dPolylineVertex
 10
445.1125466477956
 20
-617.1044547608942
 30
0.0
 70
    32
  0
VERTEX
  5
E765
330
E6D0
100
AcDbEntity
  8
1外形線
100
AcDbVertex
100
AcDb3dPolylineVertex
 10
445.1145466477957
 20
-617.1041547608942
 30
0.0
 70
    32
  0
VERTEX
  5
E766
330
E6D0
100
AcDbEntity
  8
1外形線
100
AcDbVertex
100
AcDb3dPolylineVertex
 10
445.1175466477956
 20
-617.1038547608941
 30
0.0
 70
    32
  0
VERTEX
  5
E767
330
E6D0
100
AcDbEntity
  8
1外形線
100
AcDbVertex
100
AcDb3dPolylineVertex
 10
445.1205466477958
 20
-617.1035547608942
 30
0.0
 70
    32
  0
VERTEX
  5
E768
330
E6D0
100
AcDbEntity
  8
1外形線
100
AcDbVertex
100
AcDb3dPolylineVertex
 10
445.1235466477958
 20
-617.1031547608943
 30
0.0
 70
    32
  0
VERTEX
  5
E769
330
E6D0
100
AcDbEntity
  8
1外形線
100
AcDbVertex
100
AcDb3dPolylineVertex
 10
445.1265466477956
 20
-617.1028547608943
 30
0.0
 70
    32
  0
VERTEX
  5
E76A
330
E6D0
100
AcDbEntity
  8
1外形線
100
AcDbVertex
100
AcDb3dPolylineVertex
 10
445.1285466477956
 20
-617.1025547608942
 30
0.0
 70
    32
  0
VERTEX
  5
E76B
330
E6D0
100
AcDbEntity
  8
1外形線
100
AcDbVertex
100
AcDb3dPolylineVertex
 10
445.1315466477957
 20
-617.1022547608942
 30
0.0
 70
    32
  0
VERTEX
  5
E76C
330
E6D0
100
AcDbEntity
  8
1外形線
100
AcDbVertex
100
AcDb3dPolylineVertex
 10
445.1345466477957
 20
-617.1020547608941
 30
0.0
 70
    32
  0
VERTEX
  5
E76D
330
E6D0
100
AcDbEntity
  8
1外形線
100
AcDbVertex
100
AcDb3dPolylineVertex
 10
445.1375466477956
 20
-617.1017547608942
 30
0.0
 70
    32
  0
VERTEX
  5
E76E
330
E6D0
100
AcDbEntity
  8
1外形線
100
AcDbVertex
100
AcDb3dPolylineVertex
 10
445.1395466477956
 20
-617.1014547608942
 30
0.0
 70
    32
  0
VERTEX
  5
E76F
330
E6D0
100
AcDbEntity
  8
1外形線
100
AcDbVertex
100
AcDb3dPolylineVertex
 10
445.1425466477958
 20
-617.1012547608943
 30
0.0
 70
    32
  0
VERTEX
  5
E770
330
E6D0
100
AcDbEntity
  8
1外形線
100
AcDbVertex
100
AcDb3dPolylineVertex
 10
445.1455466477956
 20
-617.1009547608941
 30
0.0
 70
    32
  0
VERTEX
  5
E771
330
E6D0
100
AcDbEntity
  8
1外形線
100
AcDbVertex
100
AcDb3dPolylineVertex
 10
445.1485466477956
 20
-617.1007547608942
 30
0.0
 70
    32
  0
VERTEX
  5
E772
330
E6D0
100
AcDbEntity
  8
1外形線
100
AcDbVertex
100
AcDb3dPolylineVertex
 10
445.1515466477958
 20
-617.1004547608943
 30
0.0
 70
    32
  0
VERTEX
  5
E773
330
E6D0
100
AcDbEntity
  8
1外形線
100
AcDbVertex
100
AcDb3dPolylineVertex
 10
445.1535466477957
 20
-617.1002547608941
 30
0.0
 70
    32
  0
VERTEX
  5
E774
330
E6D0
100
AcDbEntity
  8
1外形線
100
AcDbVertex
100
AcDb3dPolylineVertex
 10
445.1565466477957
 20
-617.1000547608941
 30
0.0
 70
    32
  0
VERTEX
  5
E775
330
E6D0
100
AcDbEntity
  8
1外形線
100
AcDbVertex
100
AcDb3dPolylineVertex
 10
445.1595466477956
 20
-617.0998547608942
 30
0.0
 70
    32
  0
VERTEX
  5
E776
330
E6D0
100
AcDbEntity
  8
1外形線
100
AcDbVertex
100
AcDb3dPolylineVertex
 10
445.1625466477957
 20
-617.0996547608942
 30
0.0
 70
    32
  0
VERTEX
  5
E777
330
E6D0
100
AcDbEntity
  8
1外形線
100
AcDbVertex
100
AcDb3dPolylineVertex
 10
445.1645466477956
 20
-617.0994547608943
 30
0.0
 70
    32
  0
VERTEX
  5
E778
330
E6D0
100
AcDbEntity
  8
1外形線
100
AcDbVertex
100
AcDb3dPolylineVertex
 10
445.1675466477958
 20
-617.0992547608944
 30
0.0
 70
    32
  0
VERTEX
  5
E779
330
E6D0
100
AcDbEntity
  8
1外形線
100
AcDbVertex
100
AcDb3dPolylineVertex
 10
445.1705466477955
 20
-617.0990547608941
 30
0.0
 70
    32
  0
VERTEX
  5
E77A
330
E6D0
100
AcDbEntity
  8
1外形線
100
AcDbVertex
100
AcDb3dPolylineVertex
 10
445.1735466477956
 20
-617.0988547608942
 30
0.0
 70
    32
  0
VERTEX
  5
E77B
330
E6D0
100
AcDbEntity
  8
1外形線
100
AcDbVertex
100
AcDb3dPolylineVertex
 10
445.1765466477956
 20
-617.0986547608943
 30
0.0
 70
    32
  0
VERTEX
  5
E77C
330
E6D0
100
AcDbEntity
  8
1外形線
100
AcDbVertex
100
AcDb3dPolylineVertex
 10
445.1785466477958
 20
-617.0985547608943
 30
0.0
 70
    32
  0
VERTEX
  5
E77D
330
E6D0
100
AcDbEntity
  8
1外形線
100
AcDbVertex
100
AcDb3dPolylineVertex
 10
445.1815466477955
 20
-617.0983547608943
 30
0.0
 70
    32
  0
VERTEX
  5
E77E
330
E6D0
100
AcDbEntity
  8
1外形線
100
AcDbVertex
100
AcDb3dPolylineVertex
 10
445.1845466477957
 20
-617.0982547608941
 30
0.0
 70
    32
  0
VERTEX
  5
E77F
330
E6D0
100
AcDbEntity
  8
1外形線
100
AcDbVertex
100
AcDb3dPolylineVertex
 10
445.1875466477958
 20
-617.0981547608942
 30
0.0
 70
    32
  0
VERTEX
  5
E780
330
E6D0
100
AcDbEntity
  8
1外形線
100
AcDbVertex
100
AcDb3dPolylineVertex
 10
445.1895466477957
 20
-617.0979547608943
 30
0.0
 70
    32
  0
VERTEX
  5
E781
330
E6D0
100
AcDbEntity
  8
1外形線
100
AcDbVertex
100
AcDb3dPolylineVertex
 10
445.1925466477957
 20
-617.0978547608942
 30
0.0
 70
    32
  0
VERTEX
  5
E782
330
E6D0
100
AcDbEntity
  8
1外形線
100
AcDbVertex
100
AcDb3dPolylineVertex
 10
445.1955466477956
 20
-617.0977547608942
 30
0.0
 70
    32
  0
VERTEX
  5
E783
330
E6D0
100
AcDbEntity
  8
1外形線
100
AcDbVertex
100
AcDb3dPolylineVertex
 10
445.1985466477958
 20
-617.0976547608943
 30
0.0
 70
    32
  0
VERTEX
  5
E784
330
E6D0
100
AcDbEntity
  8
1外形線
100
AcDbVertex
100
AcDb3dPolylineVertex
 10
445.2015466477955
 20
-617.0975547608943
 30
0.0
 70
    32
  0
VERTEX
  5
E785
330
E6D0
100
AcDbEntity
  8
1外形線
100
AcDbVertex
100
AcDb3dPolylineVertex
 10
445.2035466477957
 20
-617.0974547608944
 30
0.0
 70
    32
  0
VERTEX
  5
E786
330
E6D0
100
AcDbEntity
  8
1外形線
100
AcDbVertex
100
AcDb3dPolylineVertex
 10
445.2065466477955
 20
-617.0973547608942
 30
0.0
 70
    32
  0
VERTEX
  5
E787
330
E6D0
100
AcDbEntity
  8
1外形線
100
AcDbVertex
100
AcDb3dPolylineVertex
 10
445.2095466477957
 20
-617.0972547608942
 30
0.0
 70
    32
  0
VERTEX
  5
E788
330
E6D0
100
AcDbEntity
  8
1外形線
100
AcDbVertex
100
AcDb3dPolylineVertex
 10
445.2125466477957
 20
-617.0972547608942
 30
0.0
 70
    32
  0
VERTEX
  5
E789
330
E6D0
100
AcDbEntity
  8
1外形線
100
AcDbVertex
100
AcDb3dPolylineVertex
 10
445.2145466477956
 20
-617.0971547608942
 30
0.0
 70
    32
  0
VERTEX
  5
E78A
330
E6D0
100
AcDbEntity
  8
1外形線
100
AcDbVertex
100
AcDb3dPolylineVertex
 10
445.2175466477956
 20
-617.0971547608942
 30
0.0
 70
    32
  0
VERTEX
  5
E78B
330
E6D0
100
AcDbEntity
  8
1外形線
100
AcDbVertex
100
AcDb3dPolylineVertex
 10
445.2205466477957
 20
-617.0970547608942
 30
0.0
 70
    32
  0
VERTEX
  5
E78C
330
E6D0
100
AcDbEntity
  8
1外形線
100
AcDbVertex
100
AcDb3dPolylineVertex
 10
445.2235466477956
 20
-617.0970547608942
 30
0.0
 70
    32
  0
VERTEX
  5
E78D
330
E6D0
100
AcDbEntity
  8
1外形線
100
AcDbVertex
100
AcDb3dPolylineVertex
 10
445.2265466477956
 20
-617.0970547608942
 30
0.0
 70
    32
  0
VERTEX
  5
E78E
330
E6D0
100
AcDbEntity
  8
1外形線
100
AcDbVertex
100
AcDb3dPolylineVertex
 10
445.2285466477955
 20
-617.0969547608942
 30
0.0
 70
    32
  0
VERTEX
  5
E78F
330
E6D0
100
AcDbEntity
  8
1外形線
100
AcDbVertex
100
AcDb3dPolylineVertex
 10
445.2315466477957
 20
-617.0969547608942
 30
0.0
 70
    32
  0
VERTEX
  5
E790
330
E6D0
100
AcDbEntity
  8
1外形線
100
AcDbVertex
100
AcDb3dPolylineVertex
 10
445.2345466477958
 20
-617.0969547608942
 30
0.0
 70
    32
  0
SEQEND
  5
E791
330
E6D0
100
AcDbEntity
  8
1外形線
  0
POLYLINE
  5
E792
330
17
100
AcDbEntity
  8
1外形線
100
AcDb3dPolyline
 66
     1
 10
0.0
 20
0.0
 30
0.0
 70
     8
  0
VERTEX
  5
E793
330
E792
100
AcDbEntity
  8
1外形線
100
AcDbVertex
100
AcDb3dPolylineVertex
 10
442.7005466477957
 20
-618.4513547608942
 30
0.0
 70
    32
  0
VERTEX
  5
E794
330
E792
100
AcDbEntity
  8
1外形線
100
AcDbVertex
100
AcDb3dPolylineVertex
 10
442.6985466477957
 20
-618.4520547608943
 30
0.0
 70
    32
  0
VERTEX
  5
E795
330
E792
100
AcDbEntity
  8
1外形線
100
AcDbVertex
100
AcDb3dPolylineVertex
 10
442.6975466477956
 20
-618.4527547608943
 30
0.0
 70
    32
  0
VERTEX
  5
E796
330
E792
100
AcDbEntity
  8
1外形線
100
AcDbVertex
100
AcDb3dPolylineVertex
 10
442.6965466477956
 20
-618.4535547608943
 30
0.0
 70
    32
  0
VERTEX
  5
E797
330
E792
100
AcDbEntity
  8
1外形線
100
AcDbVertex
100
AcDb3dPolylineVertex
 10
442.6955466477956
 20
-618.4542547608944
 30
0.0
 70
    32
  0
VERTEX
  5
E798
330
E792
100
AcDbEntity
  8
1外形線
100
AcDbVertex
100
AcDb3dPolylineVertex
 10
442.6945466477956
 20
-618.4550547608941
 30
0.0
 70
    32
  0
VERTEX
  5
E799
330
E792
100
AcDbEntity
  8
1外形線
100
AcDbVertex
100
AcDb3dPolylineVertex
 10
442.6925466477957
 20
-618.4557547608942
 30
0.0
 70
    32
  0
VERTEX
  5
E79A
330
E792
100
AcDbEntity
  8
1外形線
100
AcDbVertex
100
AcDb3dPolylineVertex
 10
442.6915466477957
 20
-618.4565547608943
 30
0.0
 70
    32
  0
VERTEX
  5
E79B
330
E792
100
AcDbEntity
  8
1外形線
100
AcDbVertex
100
AcDb3dPolylineVertex
 10
442.6905466477955
 20
-618.4572547608943
 30
0.0
 70
    32
  0
VERTEX
  5
E79C
330
E792
100
AcDbEntity
  8
1外形線
100
AcDbVertex
100
AcDb3dPolylineVertex
 10
442.6895466477957
 20
-618.4580547608943
 30
0.0
 70
    32
  0
VERTEX
  5
E79D
330
E792
100
AcDbEntity
  8
1外形線
100
AcDbVertex
100
AcDb3dPolylineVertex
 10
442.6885466477956
 20
-618.4587547608944
 30
0.0
 70
    32
  0
VERTEX
  5
E79E
330
E792
100
AcDbEntity
  8
1外形線
100
AcDbVertex
100
AcDb3dPolylineVertex
 10
442.6865466477956
 20
-618.4595547608942
 30
0.0
 70
    32
  0
VERTEX
  5
E79F
330
E792
100
AcDbEntity
  8
1外形線
100
AcDbVertex
100
AcDb3dPolylineVertex
 10
442.6855466477956
 20
-618.4602547608943
 30
0.0
 70
    32
  0
VERTEX
  5
E7A0
330
E792
100
AcDbEntity
  8
1外形線
100
AcDbVertex
100
AcDb3dPolylineVertex
 10
442.6845466477956
 20
-618.4610547608943
 30
0.0
 70
    32
  0
VERTEX
  5
E7A1
330
E792
100
AcDbEntity
  8
1外形線
100
AcDbVertex
100
AcDb3dPolylineVertex
 10
442.6835466477957
 20
-618.4618547608943
 30
0.0
 70
    32
  0
VERTEX
  5
E7A2
330
E792
100
AcDbEntity
  8
1外形線
100
AcDbVertex
100
AcDb3dPolylineVertex
 10
442.6825466477957
 20
-618.4625547608943
 30
0.0
 70
    32
  0
VERTEX
  5
E7A3
330
E792
100
AcDbEntity
  8
1外形線
100
AcDbVertex
100
AcDb3dPolylineVertex
 10
442.6815466477955
 20
-618.4633547608942
 30
0.0
 70
    32
  0
VERTEX
  5
E7A4
330
E792
100
AcDbEntity
  8
1外形線
100
AcDbVertex
100
AcDb3dPolylineVertex
 10
442.6795466477956
 20
-618.4641547608944
 30
0.0
 70
    32
  0
VERTEX
  5
E7A5
330
E792
100
AcDbEntity
  8
1外形線
100
AcDbVertex
100
AcDb3dPolylineVertex
 10
442.6785466477958
 20
-618.4649547608942
 30
0.0
 70
    32
  0
VERTEX
  5
E7A6
330
E792
100
AcDbEntity
  8
1外形線
100
AcDbVertex
100
AcDb3dPolylineVertex
 10
442.6775466477955
 20
-618.4656547608942
 30
0.0
 70
    32
  0
VERTEX
  5
E7A7
330
E792
100
AcDbEntity
  8
1外形線
100
AcDbVertex
100
AcDb3dPolylineVertex
 10
442.6765466477956
 20
-618.4664547608942
 30
0.0
 70
    32
  0
VERTEX
  5
E7A8
330
E792
100
AcDbEntity
  8
1外形線
100
AcDbVertex
100
AcDb3dPolylineVertex
 10
442.6755466477956
 20
-618.4672547608943
 30
0.0
 70
    32
  0
VERTEX
  5
E7A9
330
E792
100
AcDbEntity
  8
1外形線
100
AcDbVertex
100
AcDb3dPolylineVertex
 10
442.6745466477957
 20
-618.4680547608943
 30
0.0
 70
    32
  0
VERTEX
  5
E7AA
330
E792
100
AcDbEntity
  8
1外形線
100
AcDbVertex
100
AcDb3dPolylineVertex
 10
442.6735466477957
 20
-618.4687547608941
 30
0.0
 70
    32
  0
VERTEX
  5
E7AB
330
E792
100
AcDbEntity
  8
1外形線
100
AcDbVertex
100
AcDb3dPolylineVertex
 10
442.6715466477957
 20
-618.4695547608941
 30
0.0
 70
    32
  0
VERTEX
  5
E7AC
330
E792
100
AcDbEntity
  8
1外形線
100
AcDbVertex
100
AcDb3dPolylineVertex
 10
442.6705466477955
 20
-618.4703547608942
 30
0.0
 70
    32
  0
VERTEX
  5
E7AD
330
E792
100
AcDbEntity
  8
1外形線
100
AcDbVertex
100
AcDb3dPolylineVertex
 10
442.6695466477958
 20
-618.4711547608942
 30
0.0
 70
    32
  0
VERTEX
  5
E7AE
330
E792
100
AcDbEntity
  8
1外形線
100
AcDbVertex
100
AcDb3dPolylineVertex
 10
442.6685466477955
 20
-618.4719547608942
 30
0.0
 70
    32
  0
VERTEX
  5
E7AF
330
E792
100
AcDbEntity
  8
1外形線
100
AcDbVertex
100
AcDb3dPolylineVertex
 10
442.6675466477958
 20
-618.4727547608943
 30
0.0
 70
    32
  0
VERTEX
  5
E7B0
330
E792
100
AcDbEntity
  8
1外形線
100
AcDbVertex
100
AcDb3dPolylineVertex
 10
442.6665466477956
 20
-618.4735547608943
 30
0.0
 70
    32
  0
VERTEX
  5
E7B1
330
E792
100
AcDbEntity
  8
1外形線
100
AcDbVertex
100
AcDb3dPolylineVertex
 10
442.6655466477956
 20
-618.4743547608944
 30
0.0
 70
    32
  0
VERTEX
  5
E7B2
330
E792
100
AcDbEntity
  8
1外形線
100
AcDbVertex
100
AcDb3dPolylineVertex
 10
442.6645466477957
 20
-618.4751547608944
 30
0.0
 70
    32
  0
VERTEX
  5
E7B3
330
E792
100
AcDbEntity
  8
1外形線
100
AcDbVertex
100
AcDb3dPolylineVertex
 10
442.6625466477957
 20
-618.4759547608941
 30
0.0
 70
    32
  0
VERTEX
  5
E7B4
330
E792
100
AcDbEntity
  8
1外形線
100
AcDbVertex
100
AcDb3dPolylineVertex
 10
442.6615466477955
 20
-618.4767547608942
 30
0.0
 70
    32
  0
VERTEX
  5
E7B5
330
E792
100
AcDbEntity
  8
1外形線
100
AcDbVertex
100
AcDb3dPolylineVertex
 10
442.6605466477957
 20
-618.4775547608942
 30
0.0
 70
    32
  0
VERTEX
  5
E7B6
330
E792
100
AcDbEntity
  8
1外形線
100
AcDbVertex
100
AcDb3dPolylineVertex
 10
442.6595466477955
 20
-618.4783547608942
 30
0.0
 70
    32
  0
VERTEX
  5
E7B7
330
E792
100
AcDbEntity
  8
1外形線
100
AcDbVertex
100
AcDb3dPolylineVertex
 10
442.6585466477958
 20
-618.4791547608942
 30
0.0
 70
    32
  0
VERTEX
  5
E7B8
330
E792
100
AcDbEntity
  8
1外形線
100
AcDbVertex
100
AcDb3dPolylineVertex
 10
442.6575466477956
 20
-618.4799547608943
 30
0.0
 70
    32
  0
VERTEX
  5
E7B9
330
E792
100
AcDbEntity
  8
1外形線
100
AcDbVertex
100
AcDb3dPolylineVertex
 10
442.6565466477956
 20
-618.4808547608943
 30
0.0
 70
    32
  0
VERTEX
  5
E7BA
330
E792
100
AcDbEntity
  8
1外形線
100
AcDbVertex
100
AcDb3dPolylineVertex
 10
442.6555466477957
 20
-618.4816547608943
 30
0.0
 70
    32
  0
VERTEX
  5
E7BB
330
E792
100
AcDbEntity
  8
1外形線
100
AcDbVertex
100
AcDb3dPolylineVertex
 10
442.6545466477957
 20
-618.4824547608941
 30
0.0
 70
    32
  0
VERTEX
  5
E7BC
330
E792
100
AcDbEntity
  8
1外形線
100
AcDbVertex
100
AcDb3dPolylineVertex
 10
442.6535466477957
 20
-618.4832547608944
 30
0.0
 70
    32
  0
VERTEX
  5
E7BD
330
E792
100
AcDbEntity
  8
1外形線
100
AcDbVertex
100
AcDb3dPolylineVertex
 10
442.6525466477957
 20
-618.4840547608942
 30
0.0
 70
    32
  0
VERTEX
  5
E7BE
330
E792
100
AcDbEntity
  8
1外形線
100
AcDbVertex
100
AcDb3dPolylineVertex
 10
442.6505466477955
 20
-618.4849547608942
 30
0.0
 70
    32
  0
VERTEX
  5
E7BF
330
E792
100
AcDbEntity
  8
1外形線
100
AcDbVertex
100
AcDb3dPolylineVertex
 10
442.6495466477958
 20
-618.4857547608942
 30
0.0
 70
    32
  0
VERTEX
  5
E7C0
330
E792
100
AcDbEntity
  8
1外形線
100
AcDbVertex
100
AcDb3dPolylineVertex
 10
442.6485466477956
 20
-618.4865547608942
 30
0.0
 70
    32
  0
VERTEX
  5
E7C1
330
E792
100
AcDbEntity
  8
1外形線
100
AcDbVertex
100
AcDb3dPolylineVertex
 10
442.6475466477959
 20
-618.4874547608942
 30
0.0
 70
    32
  0
VERTEX
  5
E7C2
330
E792
100
AcDbEntity
  8
1外形線
100
AcDbVertex
100
AcDb3dPolylineVertex
 10
442.6465466477957
 20
-618.4882547608943
 30
0.0
 70
    32
  0
VERTEX
  5
E7C3
330
E792
100
AcDbEntity
  8
1外形線
100
AcDbVertex
100
AcDb3dPolylineVertex
 10
442.6455466477957
 20
-618.4890547608943
 30
0.0
 70
    32
  0
VERTEX
  5
E7C4
330
E792
100
AcDbEntity
  8
1外形線
100
AcDbVertex
100
AcDb3dPolylineVertex
 10
442.6445466477956
 20
-618.4899547608942
 30
0.0
 70
    32
  0
VERTEX
  5
E7C5
330
E792
100
AcDbEntity
  8
1外形線
100
AcDbVertex
100
AcDb3dPolylineVertex
 10
442.6435466477957
 20
-618.4907547608943
 30
0.0
 70
    32
  0
VERTEX
  5
E7C6
330
E792
100
AcDbEntity
  8
1外形線
100
AcDbVertex
100
AcDb3dPolylineVertex
 10
442.6425466477957
 20
-618.4916547608943
 30
0.0
 70
    32
  0
VERTEX
  5
E7C7
330
E792
100
AcDbEntity
  8
1外形線
100
AcDbVertex
100
AcDb3dPolylineVertex
 10
442.6415466477955
 20
-618.4924547608943
 30
0.0
 70
    32
  0
VERTEX
  5
E7C8
330
E792
100
AcDbEntity
  8
1外形線
100
AcDbVertex
100
AcDb3dPolylineVertex
 10
442.6405466477958
 20
-618.4933547608943
 30
0.0
 70
    32
  0
VERTEX
  5
E7C9
330
E792
100
AcDbEntity
  8
1外形線
100
AcDbVertex
100
AcDb3dPolylineVertex
 10
442.6395466477956
 20
-618.4941547608941
 30
0.0
 70
    32
  0
VERTEX
  5
E7CA
330
E792
100
AcDbEntity
  8
1外形線
100
AcDbVertex
100
AcDb3dPolylineVertex
 10
442.6385466477959
 20
-618.4950547608941
 30
0.0
 70
    32
  0
VERTEX
  5
E7CB
330
E792
100
AcDbEntity
  8
1外形線
100
AcDbVertex
100
AcDb3dPolylineVertex
 10
442.6375466477956
 20
-618.4958547608943
 30
0.0
 70
    32
  0
VERTEX
  5
E7CC
330
E792
100
AcDbEntity
  8
1外形線
100
AcDbVertex
100
AcDb3dPolylineVertex
 10
442.6365466477957
 20
-618.4967547608944
 30
0.0
 70
    32
  0
VERTEX
  5
E7CD
330
E792
100
AcDbEntity
  8
1外形線
100
AcDbVertex
100
AcDb3dPolylineVertex
 10
442.6355466477956
 20
-618.4975547608942
 30
0.0
 70
    32
  0
VERTEX
  5
E7CE
330
E792
100
AcDbEntity
  8
1外形線
100
AcDbVertex
100
AcDb3dPolylineVertex
 10
442.6345466477957
 20
-618.4984547608942
 30
0.0
 70
    32
  0
VERTEX
  5
E7CF
330
E792
100
AcDbEntity
  8
1外形線
100
AcDbVertex
100
AcDb3dPolylineVertex
 10
442.6335466477957
 20
-618.4992547608942
 30
0.0
 70
    32
  0
VERTEX
  5
E7D0
330
E792
100
AcDbEntity
  8
1外形線
100
AcDbVertex
100
AcDb3dPolylineVertex
 10
442.6325466477957
 20
-618.5001547608942
 30
0.0
 70
    32
  0
VERTEX
  5
E7D1
330
E792
100
AcDbEntity
  8
1外形線
100
AcDbVertex
100
AcDb3dPolylineVertex
 10
442.6315466477958
 20
-618.5010547608942
 30
0.0
 70
    32
  0
VERTEX
  5
E7D2
330
E792
100
AcDbEntity
  8
1外形線
100
AcDbVertex
100
AcDb3dPolylineVertex
 10
442.6305466477955
 20
-618.5018547608942
 30
0.0
 70
    32
  0
VERTEX
  5
E7D3
330
E792
100
AcDbEntity
  8
1外形線
100
AcDbVertex
100
AcDb3dPolylineVertex
 10
442.6295466477959
 20
-618.5027547608942
 30
0.0
 70
    32
  0
VERTEX
  5
E7D4
330
E792
100
AcDbEntity
  8
1外形線
100
AcDbVertex
100
AcDb3dPolylineVertex
 10
442.6285466477956
 20
-618.5036547608943
 30
0.0
 70
    32
  0
VERTEX
  5
E7D5
330
E792
100
AcDbEntity
  8
1外形線
100
AcDbVertex
100
AcDb3dPolylineVertex
 10
442.6275466477958
 20
-618.5045547608942
 30
0.0
 70
    32
  0
VERTEX
  5
E7D6
330
E792
100
AcDbEntity
  8
1外形線
100
AcDbVertex
100
AcDb3dPolylineVertex
 10
442.6265466477956
 20
-618.5053547608942
 30
0.0
 70
    32
  0
VERTEX
  5
E7D7
330
E792
100
AcDbEntity
  8
1外形線
100
AcDbVertex
100
AcDb3dPolylineVertex
 10
442.6255466477956
 20
-618.5062547608943
 30
0.0
 70
    32
  0
VERTEX
  5
E7D8
330
E792
100
AcDbEntity
  8
1外形線
100
AcDbVertex
100
AcDb3dPolylineVertex
 10
442.6245466477957
 20
-618.5071547608942
 30
0.0
 70
    32
  0
VERTEX
  5
E7D9
330
E792
100
AcDbEntity
  8
1外形線
100
AcDbVertex
100
AcDb3dPolylineVertex
 10
442.6235466477957
 20
-618.5080547608943
 30
0.0
 70
    32
  0
VERTEX
  5
E7DA
330
E792
100
AcDbEntity
  8
1外形線
100
AcDbVertex
100
AcDb3dPolylineVertex
 10
442.6225466477958
 20
-618.5089547608943
 30
0.0
 70
    32
  0
VERTEX
  5
E7DB
330
E792
100
AcDbEntity
  8
1外形線
100
AcDbVertex
100
AcDb3dPolylineVertex
 10
442.6215466477955
 20
-618.5097547608943
 30
0.0
 70
    32
  0
VERTEX
  5
E7DC
330
E792
100
AcDbEntity
  8
1外形線
100
AcDbVertex
100
AcDb3dPolylineVertex
 10
442.6205466477958
 20
-618.5106547608943
 30
0.0
 70
    32
  0
VERTEX
  5
E7DD
330
E792
100
AcDbEntity
  8
1外形線
100
AcDbVertex
100
AcDb3dPolylineVertex
 10
442.6195466477956
 20
-618.5115547608943
 30
0.0
 70
    32
  0
VERTEX
  5
E7DE
330
E792
100
AcDbEntity
  8
1外形線
100
AcDbVertex
100
AcDb3dPolylineVertex
 10
442.6185466477958
 20
-618.5124547608943
 30
0.0
 70
    32
  0
VERTEX
  5
E7DF
330
E792
100
AcDbEntity
  8
1外形線
100
AcDbVertex
100
AcDb3dPolylineVertex
 10
442.6175466477956
 20
-618.5133547608943
 30
0.0
 70
    32
  0
VERTEX
  5
E7E0
330
E792
100
AcDbEntity
  8
1外形線
100
AcDbVertex
100
AcDb3dPolylineVertex
 10
442.6165466477956
 20
-618.5142547608943
 30
0.0
 70
    32
  0
VERTEX
  5
E7E1
330
E792
100
AcDbEntity
  8
1外形線
100
AcDbVertex
100
AcDb3dPolylineVertex
 10
442.6155466477957
 20
-618.5151547608943
 30
0.0
 70
    32
  0
VERTEX
  5
E7E2
330
E792
100
AcDbEntity
  8
1外形線
100
AcDbVertex
100
AcDb3dPolylineVertex
 10
442.6145466477957
 20
-618.5160547608943
 30
0.0
 70
    32
  0
VERTEX
  5
E7E3
330
E792
100
AcDbEntity
  8
1外形線
100
AcDbVertex
100
AcDb3dPolylineVertex
 10
442.6135466477957
 20
-618.5169547608943
 30
0.0
 70
    32
  0
VERTEX
  5
E7E4
330
E792
100
AcDbEntity
  8
1外形線
100
AcDbVertex
100
AcDb3dPolylineVertex
 10
442.6125466477955
 20
-618.5178547608943
 30
0.0
 70
    32
  0
VERTEX
  5
E7E5
330
E792
100
AcDbEntity
  8
1外形線
100
AcDbVertex
100
AcDb3dPolylineVertex
 10
442.6115466477958
 20
-618.5187547608943
 30
0.0
 70
    32
  0
VERTEX
  5
E7E6
330
E792
100
AcDbEntity
  8
1外形線
100
AcDbVertex
100
AcDb3dPolylineVertex
 10
442.6105466477956
 20
-618.5196547608943
 30
0.0
 70
    32
  0
VERTEX
  5
E7E7
330
E792
100
AcDbEntity
  8
1外形線
100
AcDbVertex
100
AcDb3dPolylineVertex
 10
442.6095466477958
 20
-618.5205547608943
 30
0.0
 70
    32
  0
VERTEX
  5
E7E8
330
E792
100
AcDbEntity
  8
1外形線
100
AcDbVertex
100
AcDb3dPolylineVertex
 10
442.6085466477956
 20
-618.5214547608943
 30
0.0
 70
    32
  0
VERTEX
  5
E7E9
330
E792
100
AcDbEntity
  8
1外形線
100
AcDbVertex
100
AcDb3dPolylineVertex
 10
442.6075466477956
 20
-618.5223547608943
 30
0.0
 70
    32
  0
VERTEX
  5
E7EA
330
E792
100
AcDbEntity
  8
1外形線
100
AcDbVertex
100
AcDb3dPolylineVertex
 10
442.6075466477956
 20
-618.5233547608943
 30
0.0
 70
    32
  0
VERTEX
  5
E7EB
330
E792
100
AcDbEntity
  8
1外形線
100
AcDbVertex
100
AcDb3dPolylineVertex
 10
442.6065466477957
 20
-618.5242547608943
 30
0.0
 70
    32
  0
VERTEX
  5
E7EC
330
E792
100
AcDbEntity
  8
1外形線
100
AcDbVertex
100
AcDb3dPolylineVertex
 10
442.6055466477957
 20
-618.5251547608943
 30
0.0
 70
    32
  0
VERTEX
  5
E7ED
330
E792
100
AcDbEntity
  8
1外形線
100
AcDbVertex
100
AcDb3dPolylineVertex
 10
442.6045466477957
 20
-618.5260547608943
 30
0.0
 70
    32
  0
VERTEX
  5
E7EE
330
E792
100
AcDbEntity
  8
1外形線
100
AcDbVertex
100
AcDb3dPolylineVertex
 10
442.6035466477955
 20
-618.5269547608943
 30
0.0
 70
    32
  0
VERTEX
  5
E7EF
330
E792
100
AcDbEntity
  8
1外形線
100
AcDbVertex
100
AcDb3dPolylineVertex
 10
442.6025466477958
 20
-618.5279547608943
 30
0.0
 70
    32
  0
VERTEX
  5
E7F0
330
E792
100
AcDbEntity
  8
1外形線
100
AcDbVertex
100
AcDb3dPolylineVertex
 10
442.6015466477956
 20
-618.5288547608942
 30
0.0
 70
    32
  0
VERTEX
  5
E7F1
330
E792
100
AcDbEntity
  8
1外形線
100
AcDbVertex
100
AcDb3dPolylineVertex
 10
442.6005466477958
 20
-618.5297547608943
 30
0.0
 70
    32
  0
VERTEX
  5
E7F2
330
E792
100
AcDbEntity
  8
1外形線
100
AcDbVertex
100
AcDb3dPolylineVertex
 10
442.5995466477956
 20
-618.5306547608943
 30
0.0
 70
    32
  0
VERTEX
  5
E7F3
330
E792
100
AcDbEntity
  8
1外形線
100
AcDbVertex
100
AcDb3dPolylineVertex
 10
442.5985466477956
 20
-618.5316547608943
 30
0.0
 70
    32
  0
VERTEX
  5
E7F4
330
E792
100
AcDbEntity
  8
1外形線
100
AcDbVertex
100
AcDb3dPolylineVertex
 10
442.5975466477956
 20
-618.5325547608942
 30
0.0
 70
    32
  0
VERTEX
  5
E7F5
330
E792
100
AcDbEntity
  8
1外形線
100
AcDbVertex
100
AcDb3dPolylineVertex
 10
442.5965466477957
 20
-618.5334547608943
 30
0.0
 70
    32
  0
VERTEX
  5
E7F6
330
E792
100
AcDbEntity
  8
1外形線
100
AcDbVertex
100
AcDb3dPolylineVertex
 10
442.5965466477957
 20
-618.5344547608942
 30
0.0
 70
    32
  0
VERTEX
  5
E7F7
330
E792
100
AcDbEntity
  8
1外形線
100
AcDbVertex
100
AcDb3dPolylineVertex
 10
442.5955466477957
 20
-618.5353547608943
 30
0.0
 70
    32
  0
VERTEX
  5
E7F8
330
E792
100
AcDbEntity
  8
1外形線
100
AcDbVertex
100
AcDb3dPolylineVertex
 10
442.5945466477955
 20
-618.5363547608942
 30
0.0
 70
    32
  0
VERTEX
  5
E7F9
330
E792
100
AcDbEntity
  8
1外形線
100
AcDbVertex
100
AcDb3dPolylineVertex
 10
442.5935466477958
 20
-618.5372547608942
 30
0.0
 70
    32
  0
VERTEX
  5
E7FA
330
E792
100
AcDbEntity
  8
1外形線
100
AcDbVertex
100
AcDb3dPolylineVertex
 10
442.5925466477956
 20
-618.5382547608942
 30
0.0
 70
    32
  0
VERTEX
  5
E7FB
330
E792
100
AcDbEntity
  8
1外形線
100
AcDbVertex
100
AcDb3dPolylineVertex
 10
442.5915466477958
 20
-618.5391547608942
 30
0.0
 70
    32
  0
VERTEX
  5
E7FC
330
E792
100
AcDbEntity
  8
1外形線
100
AcDbVertex
100
AcDb3dPolylineVertex
 10
442.5905466477956
 20
-618.5401547608941
 30
0.0
 70
    32
  0
VERTEX
  5
E7FD
330
E792
100
AcDbEntity
  8
1外形線
100
AcDbVertex
100
AcDb3dPolylineVertex
 10
442.5895466477956
 20
-618.5410547608942
 30
0.0
 70
    32
  0
VERTEX
  5
E7FE
330
E792
100
AcDbEntity
  8
1外形線
100
AcDbVertex
100
AcDb3dPolylineVertex
 10
442.5895466477956
 20
-618.5420547608941
 30
0.0
 70
    32
  0
VERTEX
  5
E7FF
330
E792
100
AcDbEntity
  8
1外形線
100
AcDbVertex
100
AcDb3dPolylineVertex
 10
442.5885466477956
 20
-618.5429547608942
 30
0.0
 70
    32
  0
VERTEX
  5
E800
330
E792
100
AcDbEntity
  8
1外形線
100
AcDbVertex
100
AcDb3dPolylineVertex
 10
442.5875466477957
 20
-618.5439547608943
 30
0.0
 70
    32
  0
VERTEX
  5
E801
330
E792
100
AcDbEntity
  8
1外形線
100
AcDbVertex
100
AcDb3dPolylineVertex
 10
442.5865466477957
 20
-618.5448547608944
 30
0.0
 70
    32
  0
VERTEX
  5
E802
330
E792
100
AcDbEntity
  8
1外形線
100
AcDbVertex
100
AcDb3dPolylineVertex
 10
442.5855466477955
 20
-618.5458547608941
 30
0.0
 70
    32
  0
VERTEX
  5
E803
330
E792
100
AcDbEntity
  8
1外形線
100
AcDbVertex
100
AcDb3dPolylineVertex
 10
442.5845466477958
 20
-618.5467547608941
 30
0.0
 70
    32
  0
VERTEX
  5
E804
330
E792
100
AcDbEntity
  8
1外形線
100
AcDbVertex
100
AcDb3dPolylineVertex
 10
442.5835466477956
 20
-618.5477547608943
 30
0.0
 70
    32
  0
VERTEX
  5
E805
330
E792
100
AcDbEntity
  8
1外形線
100
AcDbVertex
100
AcDb3dPolylineVertex
 10
442.5825466477958
 20
-618.5487547608943
 30
0.0
 70
    32
  0
VERTEX
  5
E806
330
E792
100
AcDbEntity
  8
1外形線
100
AcDbVertex
100
AcDb3dPolylineVertex
 10
442.5825466477958
 20
-618.5496547608943
 30
0.0
 70
    32
  0
VERTEX
  5
E807
330
E792
100
AcDbEntity
  8
1外形線
100
AcDbVertex
100
AcDb3dPolylineVertex
 10
442.5815466477955
 20
-618.5506547608943
 30
0.0
 70
    32
  0
VERTEX
  5
E808
330
E792
100
AcDbEntity
  8
1外形線
100
AcDbVertex
100
AcDb3dPolylineVertex
 10
442.5805466477956
 20
-618.5516547608942
 30
0.0
 70
    32
  0
VERTEX
  5
E809
330
E792
100
AcDbEntity
  8
1外形線
100
AcDbVertex
100
AcDb3dPolylineVertex
 10
442.5795466477956
 20
-618.5526547608942
 30
0.0
 70
    32
  0
VERTEX
  5
E80A
330
E792
100
AcDbEntity
  8
1外形線
100
AcDbVertex
100
AcDb3dPolylineVertex
 10
442.5785466477957
 20
-618.5535547608942
 30
0.0
 70
    32
  0
VERTEX
  5
E80B
330
E792
100
AcDbEntity
  8
1外形線
100
AcDbVertex
100
AcDb3dPolylineVertex
 10
442.5775466477957
 20
-618.5545547608942
 30
0.0
 70
    32
  0
VERTEX
  5
E80C
330
E792
100
AcDbEntity
  8
1外形線
100
AcDbVertex
100
AcDb3dPolylineVertex
 10
442.5775466477957
 20
-618.5555547608942
 30
0.0
 70
    32
  0
VERTEX
  5
E80D
330
E792
100
AcDbEntity
  8
1外形線
100
AcDbVertex
100
AcDb3dPolylineVertex
 10
442.5765466477955
 20
-618.5565547608944
 30
0.0
 70
    32
  0
VERTEX
  5
E80E
330
E792
100
AcDbEntity
  8
1外形線
100
AcDbVertex
100
AcDb3dPolylineVertex
 10
442.5755466477958
 20
-618.5574547608943
 30
0.0
 70
    32
  0
VERTEX
  5
E80F
330
E792
100
AcDbEntity
  8
1外形線
100
AcDbVertex
100
AcDb3dPolylineVertex
 10
442.5745466477955
 20
-618.5584547608941
 30
0.0
 70
    32
  0
VERTEX
  5
E810
330
E792
100
AcDbEntity
  8
1外形線
100
AcDbVertex
100
AcDb3dPolylineVertex
 10
442.5735466477958
 20
-618.5594547608944
 30
0.0
 70
    32
  0
VERTEX
  5
E811
330
E792
100
AcDbEntity
  8
1外形線
100
AcDbVertex
100
AcDb3dPolylineVertex
 10
442.5725466477955
 20
-618.5604547608943
 30
0.0
 70
    32
  0
VERTEX
  5
E812
330
E792
100
AcDbEntity
  8
1外形線
100
AcDbVertex
100
AcDb3dPolylineVertex
 10
442.5725466477955
 20
-618.5614547608943
 30
0.0
 70
    32
  0
SEQEND
  5
E813
330
E792
100
AcDbEntity
  8
1外形線
  0
ARC
  5
E814
330
17
100
AcDbEntity
  8
1外形線
100
AcDbCircle
 10
461.4574914991307
 20
-608.8469834750313
 30
0.0
 40
16.25000000000004
100
AcDbArc
 50
305.775823344552
 51
328.507425429641
  0
ARC
  5
E815
330
17
100
AcDbEntity
  8
1外形線
100
AcDbCircle
 10
475.7403483562165
 20
-617.5969834750312
 30
0.0
 40
0.5
100
AcDbArc
 50
90.0
 51
148.507425429641
  0
ARC
  5
E816
330
17
100
AcDbEntity
  8
1外形線
100
AcDbCircle
 10
461.4574914991307
 20
-608.8469834750313
 30
0.0
 40
16.25000000000004
100
AcDbArc
 50
211.4925745703589
 51
234.224176655444
  0
ARC
  5
E817
330
17
100
AcDbEntity
  8
1外形線
100
AcDbCircle
 10
447.174634642045
 20
-617.5969834750312
 30
0.0
 40
0.5
100
AcDbArc
 50
31.49257457034452
 51
90.0
  0
LINE
  5
E818
330
17
100
AcDbEntity
  8
1外形線
100
AcDbLine
 10
480.3382036428878
 20
-624.5969834750314
 30
0.0
 11
471.1382631549089
 21
-624.5969834750314
 31
0.0
  0
LINE
  5
E819
330
17
100
AcDbEntity
  8
C4
 48
2.0
100
AcDbLine
 10
231.3045104778686
 20
-667.0969834750455
 30
0.0
 11
212.2187240402415
 21
-667.0969834750451
 31
0.0
  0
ARC
  5
E81A
330
17
100
AcDbEntity
  8
C4
 48
2.0
100
AcDbCircle
 10
231.3045104778686
 20
-609.5969834750315
 30
0.0
 40
21.0
100
AcDbArc
 50
90.0
 51
180.0
  0
LINE
  5
E81B
330
17
100
AcDbEntity
  8
C4
100
AcDbLine
 10
210.3045104778686
 20
-627.096983475031
 30
0.0
 11
210.3045104778686
 21
-609.5969834750315
 31
0.0
  0
LINE
  5
E81C
330
17
100
AcDbEntity
  8
1外形線
 48
3.0
100
AcDbLine
 10
210.3045104778686
 20
-665.5969834750451
 30
0.0
 11
211.5116172590552
 21
-666.8040902562317
 31
0.0
  0
ARC
  5
E81D
330
17
100
AcDbEntity
  8
1外形線
 48
2.0
100
AcDbCircle
 10
212.2187240402415
 20
-666.0969834750451
 30
0.0
 40
1.0
100
AcDbArc
 50
225.0000000000276
 51
270.0
  0
LINE
  5
E81E
330
17
100
AcDbEntity
  8
C4
 48
2.0
100
AcDbLine
 10
210.3045104778686
 20
-665.5969834750456
 30
0.0
 11
210.3045104778686
 21
-627.096983475031
 31
0.0
  0
LINE
  5
E81F
330
17
100
AcDbEntity
  8
C4
100
AcDbLine
 10
252.3045104778686
 20
-627.096983475031
 30
0.0
 11
252.3045104778686
 21
-609.5969834750315
 31
0.0
  0
LINE
  5
E820
330
17
100
AcDbEntity
  8
C4
 48
2.0
100
AcDbLine
 10
231.3045104778686
 20
-667.0969834750455
 30
0.0
 11
250.3902969154957
 21
-667.096983475046
 31
0.0
  0
LINE
  5
E821
330
17
100
AcDbEntity
  8
1外形線
 48
3.0
100
AcDbLine
 10
252.3045104778686
 20
-665.5969834750451
 30
0.0
 11
251.0974036966819
 21
-666.8040902562317
 31
0.0
  0
ARC
  5
E822
330
17
100
AcDbEntity
  8
1外形線
 48
2.0
100
AcDbCircle
 10
250.3902969154957
 20
-666.0969834750451
 30
0.0
 40
1.0
100
AcDbArc
 50
270.0
 51
314.9999999999724
  0
LINE
  5
E823
330
17
100
AcDbEntity
  8
C4
 48
2.0
100
AcDbLine
 10
252.3045104778686
 20
-665.5969834750456
 30
0.0
 11
252.3045104778686
 21
-627.096983475031
 31
0.0
  0
ARC
  5
E824
330
17
100
AcDbEntity
  8
C4
 48
2.0
100
AcDbCircle
 10
231.3045104778686
 20
-609.5969834750315
 30
0.0
 40
21.0
100
AcDbArc
 50
0.0
 51
90.0
  0
ENDSEC
  0
SECTION
  2
OBJECTS
  0
DICTIONARY
  5
C
330
0
100
AcDbDictionary
281
     1
  3
ACAD_CIP_PREVIOUS_PRODUCT_INFO
350
DECC
  3
ACAD_COLOR
350
DEAD
  3
ACAD_GROUP
350
D
  3
ACAD_LAYOUT
350
DEC4
  3
ACAD_MATERIAL
350
DE7B
  3
ACAD_MLEADERSTYLE
350
DEC2
  3
ACAD_MLINESTYLE
350
1A
  3
ACAD_PLOTSETTINGS
350
DEC5
  3
ACAD_PLOTSTYLENAME
350
DE79
  3
ACAD_SCALELIST
350
DEB0
  3
ACAD_TABLESTYLE
350
DEAE
  3
ACAD_VISUALSTYLE
350
DE94
  3
ACDB_RECOMPOSE_DATA
350
EAFE
  3
ACDBVARIABLEDICTIONARY
350
51
  3
DWGPROPS
350
EAFF
  0
DICTIONARY
  5
EA37
330
8
100
AcDbDictionary
280
     1
281
     1
  0
DICTIONARY
  5
DFCB
330
2
100
AcDbDictionary
280
     1
281
     1
  3
ACAD_LAYERSTATES
360
DFCC
  0
DICTIONARY
  5
DECD
330
E
100
AcDbDictionary
280
     1
281
     1
  3
ADSK_XREC_LAYER_RECONCILED
360
DECE
  0
DICTIONARY
  5
DECF
330
40
100
AcDbDictionary
280
     1
281
     1
  3
ADSK_XREC_LAYER_RECONCILED
360
DED0
  0
DICTIONARY
  5
DED1
330
41
100
AcDbDictionary
280
     1
281
     1
  3
ADSK_XREC_LAYER_RECONCILED
360
DED2
  0
DICTIONARY
  5
DED3
330
4C
100
AcDbDictionary
280
     1
281
     1
  3
ADSK_XREC_LAYER_RECONCILED
360
DED4
  0
DICTIONARY
  5
DED5
330
D6D6
100
AcDbDictionary
280
     1
281
     1
  3
ADSK_XREC_LAYER_RECONCILED
360
DED6
  0
DICTIONARY
  5
DED7
330
DB77
100
AcDbDictionary
280
     1
281
     1
  3
ADSK_XREC_LAYER_RECONCILED
360
DED8
  0
DICTIONARY
  5
DED9
330
DB78
100
AcDbDictionary
280
     1
281
     1
  3
ADSK_XREC_LAYER_RECONCILED
360
DEDA
  0
DICTIONARY
  5
DEDB
330
DB79
100
AcDbDictionary
280
     1
281
     1
  3
ADSK_XREC_LAYER_RECONCILED
360
DEDC
  0
DICTIONARY
  5
DFC9
330
DFC8
100
AcDbDictionary
280
     1
281
     1
  0
DICTIONARY
  5
E217
330
E216
100
AcDbDictionary
280
     1
281
     1
  0
XRECORD
  5
DECC
102
{ACAD_REACTORS
330
C
102
}
330
C
100
AcDbXrecord
280
     1
300
ACDLT
300
2012
300
ACDLT_F_S
  0
DICTIONARY
  5
DEAD
102
{ACAD_REACTORS
330
C
102
}
330
C
100
AcDbDictionary
281
     1
  0
DICTIONARY
  5
D
102
{ACAD_REACTORS
330
C
102
}
330
C
100
AcDbDictionary
281
     1
  0
DICTIONARY
  5
DEC4
102
{ACAD_REACTORS
330
C
102
}
330
C
100
AcDbDictionary
281
     1
  3
Model
350
DEC6
  3
レイアウト1
350
DEC7
  0
DICTIONARY
  5
DE7B
102
{ACAD_REACTORS
330
C
102
}
330
C
100
AcDbDictionary
281
     1
  3
ByBlock
350
DE84
  3
ByLayer
350
DE7C
  3
Global
350
DE8C
  0
DICTIONARY
  5
DEC2
102
{ACAD_REACTORS
330
C
102
}
330
C
100
AcDbDictionary
281
     1
  3
Standard
350
DEC3
  0
DICTIONARY
  5
1A
102
{ACAD_REACTORS
330
C
102
}
330
C
100
AcDbDictionary
281
     1
  3
STANDARD
350
1B
  0
DICTIONARY
  5
DEC5
102
{ACAD_REACTORS
330
C
102
}
330
C
100
AcDbDictionary
281
     1
  0
ACDBDICTIONARYWDFLT
  5
DE79
102
{ACAD_REACTORS
330
C
102
}
330
C
100
AcDbDictionary
281
     1
  3
Normal
350
DE7A
100
AcDbDictionaryWithDefault
340
DE7A
  0
DICTIONARY
  5
DEB0
102
{ACAD_REACTORS
330
C
102
}
330
C
100
AcDbDictionary
281
     1
  3
A0
350
DEB1
  3
A1
350
DEB2
  3
A2
350
DEB3
  3
A3
350
DEB4
  3
A4
350
DEB5
  3
A5
350
DEB6
  3
A6
350
DEB7
  3
A7
350
DEB8
  3
A8
350
DEB9
  3
A9
350
DEBA
  3
B0
350
DEBB
  3
B1
350
DEBC
  3
B2
350
DEBD
  3
B3
350
DEBE
  3
B4
350
DEBF
  3
B5
350
DEC0
  3
B6
350
DEC1
  0
DICTIONARY
  5
DEAE
102
{ACAD_REACTORS
330
C
102
}
330
C
100
AcDbDictionary
281
     1
  3
Standard
350
DEAF
  0
DICTIONARY
  5
DE94
102
{ACAD_REACTORS
330
C
102
}
330
C
100
AcDbDictionary
281
     1
  3
2dWireframe
350
DE9A
  3
Basic
350
DE99
  3
Brighten
350
DEA0
  3
ColorChange
350
DEA4
  3
Conceptual
350
DE9D
  3
Dim
350
DE9F
  3
EdgeColorOff
350
DEAC
  3
Facepattern
350
DEA3
  3
Flat
350
DE95
  3
FlatWithEdges
350
DE96
  3
Gouraud
350
DE97
  3
GouraudWithEdges
350
DE98
  3
Hidden
350
DE9C
  3
JitterOff
350
DEAA
  3
Linepattern
350
DEA2
  3
OverhangOff
350
DEAB
  3
Realistic
350
DE9E
  3
Shaded
350
DEA9
  3
Shaded with edges
350
DEA8
  3
Shades of Gray
350
DEA5
  3
Sketchy
350
DEA6
  3
Thicken
350
DEA1
  3
Wireframe
350
DE9B
  3
X-Ray
350
DEA7
  0
XRECORD
  5
EAFE
102
{ACAD_REACTORS
330
C
102
}
330
C
100
AcDbXrecord
280
     1
 90
        1
330
DEAF
  0
DICTIONARY
  5
51
102
{ACAD_REACTORS
330
C
102
}
330
C
100
AcDbDictionary
281
     1
  3
CANNOSCALE
350
E83C
  3
CMLEADERSTYLE
350
E83A
  3
CTABLESTYLE
350
E839
  3
DIMADEC
350
52
  3
DIMASSOC
350
EA72
  3
INDEXCTL
350
EA71
  3
LAYEREVAL
350
E83E
  3
LAYERNOTIFY
350
E83F
  3
LIGHTINGUNITS
350
E83D
  3
MSLTSCALE
350
E83B
  3
SORTENTS
350
D1FE
  3
XCLIPFRAME
350
EAFA
  0
XRECORD
  5
EAFF
102
{ACAD_REACTORS
330
C
102
}
330
C
100
AcDbXrecord
280
     1
  1
DWGPROPS COOKIE
  2

  3

  4

  6

  7

  8
akira.shimizu
  9

300
=
301
=
302
=
303
=
304
=
305
=
306
=
307
=
308
=
309
=
 40
0.0587515856481482
 41
2452040.737838669
 42
2457213.634403125
  1

 90
        0
  0
DICTIONARY
  5
DFCC
102
{ACAD_REACTORS
330
DFCB
102
}
330
DFCB
100
AcDbDictionary
281
     1
  0
XRECORD
  5
DECE
102
{ACAD_REACTORS
330
DECD
102
}
330
DECD
100
AcDbXrecord
280
     1
290
     1
  0
XRECORD
  5
DED0
102
{ACAD_REACTORS
330
DECF
102
}
330
DECF
100
AcDbXrecord
280
     1
290
     1
  0
XRECORD
  5
DED2
102
{ACAD_REACTORS
330
DED1
102
}
330
DED1
100
AcDbXrecord
280
     1
290
     1
  0
XRECORD
  5
DED4
102
{ACAD_REACTORS
330
DED3
102
}
330
DED3
100
AcDbXrecord
280
     1
290
     1
  0
XRECORD
  5
DED6
102
{ACAD_REACTORS
330
DED5
102
}
330
DED5
100
AcDbXrecord
280
     1
290
     1
  0
XRECORD
  5
DED8
102
{ACAD_REACTORS
330
DED7
102
}
330
DED7
100
AcDbXrecord
280
     1
290
     1
  0
XRECORD
  5
DEDA
102
{ACAD_REACTORS
330
DED9
102
}
330
DED9
100
AcDbXrecord
280
     1
290
     1
  0
XRECORD
  5
DEDC
102
{ACAD_REACTORS
330
DEDB
102
}
330
DEDB
100
AcDbXrecord
280
     1
290
     1
  0
LAYOUT
  5
DEC6
102
{ACAD_XDICTIONARY
360
E835
102
}
102
{ACAD_REACTORS
330
DEC4
102
}
330
DEC4
100
AcDbPlotSettings
  1

  2
Canon LBP3920/3970 LIPSLX
  4

  6

 40
0.0
 41
0.0
 42
0.0
 43
0.0
 44
0.0
 45
0.0
 46
0.0
 47
0.0
 48
0.0
 49
0.0
140
0.0
141
0.0
142
1.0
143
1.0
 70
  1712
 72
     0
 73
     0
 74
     0
  7

 75
     0
147
1.0
148
0.0
149
0.0
100
AcDbLayout
  1
Model
 70
     1
 71
     0
 10
0.0
 20
0.0
 11
12.0
 21
9.0
 12
0.0
 22
0.0
 32
0.0
 14
0.0
 24
0.0
 34
0.0
 15
0.0
 25
0.0
 35
0.0
146
0.0
 13
0.0
 23
0.0
 33
0.0
 16
1.0
 26
0.0
 36
0.0
 17
0.0
 27
1.0
 37
0.0
 76
     0
330
17
331
DE77
  0
LAYOUT
  5
DEC7
102
{ACAD_XDICTIONARY
360
EB35
102
}
102
{ACAD_REACTORS
330
DEC4
102
}
330
DEC4
100
AcDbPlotSettings
  1

  2
Canon LBP3920/3970 LIPSLX
  4

  6

 40
0.0
 41
0.0
 42
0.0
 43
0.0
 44
0.0
 45
0.0
 46
0.0
 47
0.0
 48
0.0
 49
0.0
140
0.0
141
0.0
142
1.0
143
1.0
 70
   688
 72
     0
 73
     0
 74
     5
  7

 75
    16
147
1.0
148
0.0
149
0.0
100
AcDbLayout
  1
レイアウト1
 70
     0
 71
     1
 10
0.0
 20
0.0
 11
12.0
 21
9.0
 12
0.0
 22
0.0
 32
0.0
 14
1.000000000000000E+20
 24
1.000000000000000E+20
 34
1.000000000000000E+20
 15
-1.000000000000000E+20
 25
-1.000000000000000E+20
 35
-1.000000000000000E+20
146
0.0
 13
0.0
 23
0.0
 33
0.0
 16
1.0
 26
0.0
 36
0.0
 17
0.0
 27
1.0
 37
0.0
 76
     0
330
14
  0
MATERIAL
  5
DE84
102
{ACAD_XDICTIONARY
360
DE85
102
}
102
{ACAD_REACTORS
330
DE7B
102
}
330
DE7B
100
AcDbMaterial
  1
ByBlock
 72
     0
 43
0.0208333333333333
 43
0.0
 43
0.0
 43
0.0
 43
0.0
 43
0.0208333333333333
 43
0.0
 43
0.0
 43
0.0
 43
0.0
 43
1.0
 43
0.0
 43
0.0
 43
0.0
 43
0.0
 43
1.0
 77
     0
 47
0.0208333333333333
 47
0.0
 47
0.0
 47
0.0
 47
0.0
 47
0.0208333333333333
 47
0.0
 47
0.0
 47
0.0
 47
0.0
 47
1.0
 47
0.0
 47
0.0
 47
0.0
 47
0.0
 47
1.0
171
     0
 49
0.0208333333333333
 49
0.0
 49
0.0
 49
0.0
 49
0.0
 49
0.0208333333333333
 49
0.0
 49
0.0
 49
0.0
 49
0.0
 49
1.0
 49
0.0
 49
0.0
 49
0.0
 49
0.0
 49
1.0
175
     0
142
0.0208333333333333
142
0.0
142
0.0
142
0.0
142
0.0
142
0.0208333333333333
142
0.0
142
0.0
142
0.0
142
0.0
142
1.0
142
0.0
142
0.0
142
0.0
142
0.0
142
1.0
179
     0
144
0.0208333333333333
144
0.0
144
0.0
144
0.0
144
0.0
144
0.0208333333333333
144
0.0
144
0.0
144
0.0
144
0.0
144
1.0
144
0.0
144
0.0
144
0.0
144
0.0
144
1.0
147
0.0208333333333333
147
0.0
147
0.0
147
0.0
147
0.0
147
0.0208333333333333
147
0.0
147
0.0
147
0.0
147
0.0
147
1.0
147
0.0
147
0.0
147
0.0
147
0.0
147
1.0
  0
MATERIAL
  5
DE7C
102
{ACAD_XDICTIONARY
360
DE7D
102
}
102
{ACAD_REACTORS
330
DE7B
102
}
330
DE7B
100
AcDbMaterial
  1
ByLayer
 72
     0
 43
0.0208333333333333
 43
0.0
 43
0.0
 43
0.0
 43
0.0
 43
0.0208333333333333
 43
0.0
 43
0.0
 43
0.0
 43
0.0
 43
1.0
 43
0.0
 43
0.0
 43
0.0
 43
0.0
 43
1.0
 77
     0
 47
0.0208333333333333
 47
0.0
 47
0.0
 47
0.0
 47
0.0
 47
0.0208333333333333
 47
0.0
 47
0.0
 47
0.0
 47
0.0
 47
1.0
 47
0.0
 47
0.0
 47
0.0
 47
0.0
 47
1.0
171
     0
 49
0.0208333333333333
 49
0.0
 49
0.0
 49
0.0
 49
0.0
 49
0.0208333333333333
 49
0.0
 49
0.0
 49
0.0
 49
0.0
 49
1.0
 49
0.0
 49
0.0
 49
0.0
 49
0.0
 49
1.0
175
     0
142
0.0208333333333333
142
0.0
142
0.0
142
0.0
142
0.0
142
0.0208333333333333
142
0.0
142
0.0
142
0.0
142
0.0
142
1.0
142
0.0
142
0.0
142
0.0
142
0.0
142
1.0
179
     0
144
0.0208333333333333
144
0.0
144
0.0
144
0.0
144
0.0
144
0.0208333333333333
144
0.0
144
0.0
144
0.0
144
0.0
144
1.0
144
0.0
144
0.0
144
0.0
144
0.0
144
1.0
147
0.0208333333333333
147
0.0
147
0.0
147
0.0
147
0.0
147
0.0208333333333333
147
0.0
147
0.0
147
0.0
147
0.0
147
1.0
147
0.0
147
0.0
147
0.0
147
0.0
147
1.0
  0
MATERIAL
  5
DE8C
102
{ACAD_XDICTIONARY
360
DE8D
102
}
102
{ACAD_REACTORS
330
DE7B
102
}
330
DE7B
100
AcDbMaterial
  1
Global
 72
     0
 43
0.0208333333333333
 43
0.0
 43
0.0
 43
0.0
 43
0.0
 43
0.0208333333333333
 43
0.0
 43
0.0
 43
0.0
 43
0.0
 43
1.0
 43
0.0
 43
0.0
 43
0.0
 43
0.0
 43
1.0
 77
     0
 47
0.0208333333333333
 47
0.0
 47
0.0
 47
0.0
 47
0.0
 47
0.0208333333333333
 47
0.0
 47
0.0
 47
0.0
 47
0.0
 47
1.0
 47
0.0
 47
0.0
 47
0.0
 47
0.0
 47
1.0
171
     0
 49
0.0208333333333333
 49
0.0
 49
0.0
 49
0.0
 49
0.0
 49
0.0208333333333333
 49
0.0
 49
0.0
 49
0.0
 49
0.0
 49
1.0
 49
0.0
 49
0.0
 49
0.0
 49
0.0
 49
1.0
175
     0
142
0.0208333333333333
142
0.0
142
0.0
142
0.0
142
0.0
142
0.0208333333333333
142
0.0
142
0.0
142
0.0
142
0.0
142
1.0
142
0.0
142
0.0
142
0.0
142
0.0
142
1.0
179
     0
144
0.0208333333333333
144
0.0
144
0.0
144
0.0
144
0.0
144
0.0208333333333333
144
0.0
144
0.0
144
0.0
144
0.0
144
1.0
144
0.0
144
0.0
144
0.0
144
0.0
144
1.0
147
0.0208333333333333
147
0.0
147
0.0
147
0.0
147
0.0
147
0.0208333333333333
147
0.0
147
0.0
147
0.0
147
0.0
147
1.0
147
0.0
147
0.0
147
0.0
147
0.0
147
1.0
  0
MLEADERSTYLE
  5
DEC3
102
{ACAD_XDICTIONARY
360
EAFC
102
}
102
{ACAD_REACTORS
330
DEC2
102
}
330
DEC2
100
AcDbMLeaderStyle
170
     2
171
     1
172
     0
 90
        2
 40
0.0
 41
0.0
173
     1
 91
-1056964608
340
11
 92
       -2
290
     1
 42
2.0
291
     1
 43
0.36
  3
Standard
 44
4.0
300

342
F
174
     1
178
     6
175
     1
176
     0
 93
-1056964608
 45
4.0
292
     0
297
     0
 46
4.0
 94
-1056964608
 47
1.0
 49
1.0
140
1.0
293
     1
141
0.0
294
     1
177
     0
142
1.0
295
     0
296
     0
143
0.125
1001
ACAD_MLEADERVER
1070
     2
  0
MLINESTYLE
  5
1B
102
{ACAD_REACTORS
330
1A
102
}
330
1A
100
AcDbMlineStyle
  2
STANDARD
 70
     0
  3

 62
   256
 51
90.0
 52
90.0
 71
     2
 49
0.5
 62
   256
  6
BYLAYER
 49
-0.5
 62
   256
  6
BYLAYER
  0
ACDBPLACEHOLDER
  5
DE7A
102
{ACAD_REACTORS
330
DE79
102
}
330
DE79
  0
SCALE
  5
DEB1
102
{ACAD_REACTORS
330
DEB0
102
}
330
DEB0
100
AcDbScale
 70
     0
300
1:1
140
1.0
141
1.0
290
     1
  0
SCALE
  5
DEB2
102
{ACAD_REACTORS
330
DEB0
102
}
330
DEB0
100
AcDbScale
 70
     0
300
1:2
140
1.0
141
2.0
290
     0
  0
SCALE
  5
DEB3
102
{ACAD_REACTORS
330
DEB0
102
}
330
DEB0
100
AcDbScale
 70
     0
300
1:4
140
1.0
141
4.0
290
     0
  0
SCALE
  5
DEB4
102
{ACAD_REACTORS
330
DEB0
102
}
330
DEB0
100
AcDbScale
 70
     0
300
1:5
140
1.0
141
5.0
290
     0
  0
SCALE
  5
DEB5
102
{ACAD_REACTORS
330
DEB0
102
}
330
DEB0
100
AcDbScale
 70
     0
300
1:8
140
1.0
141
8.0
290
     0
  0
SCALE
  5
DEB6
102
{ACAD_REACTORS
330
DEB0
102
}
330
DEB0
100
AcDbScale
 70
     0
300
1:10
140
1.0
141
10.0
290
     0
  0
SCALE
  5
DEB7
102
{ACAD_REACTORS
330
DEB0
102
}
330
DEB0
100
AcDbScale
 70
     0
300
1:16
140
1.0
141
16.0
290
     0
  0
SCALE
  5
DEB8
102
{ACAD_REACTORS
330
DEB0
102
}
330
DEB0
100
AcDbScale
 70
     0
300
1:20
140
1.0
141
20.0
290
     0
  0
SCALE
  5
DEB9
102
{ACAD_REACTORS
330
DEB0
102
}
330
DEB0
100
AcDbScale
 70
     0
300
1:30
140
1.0
141
30.0
290
     0
  0
SCALE
  5
DEBA
102
{ACAD_REACTORS
330
DEB0
102
}
330
DEB0
100
AcDbScale
 70
     0
300
1:40
140
1.0
141
40.0
290
     0
  0
SCALE
  5
DEBB
102
{ACAD_REACTORS
330
DEB0
102
}
330
DEB0
100
AcDbScale
 70
     0
300
1:50
140
1.0
141
50.0
290
     0
  0
SCALE
  5
DEBC
102
{ACAD_REACTORS
330
DEB0
102
}
330
DEB0
100
AcDbScale
 70
     0
300
1:100
140
1.0
141
100.0
290
     0
  0
SCALE
  5
DEBD
102
{ACAD_REACTORS
330
DEB0
102
}
330
DEB0
100
AcDbScale
 70
     0
300
2:1
140
2.0
141
1.0
290
     0
  0
SCALE
  5
DEBE
102
{ACAD_REACTORS
330
DEB0
102
}
330
DEB0
100
AcDbScale
 70
     0
300
4:1
140
4.0
141
1.0
290
     0
  0
SCALE
  5
DEBF
102
{ACAD_REACTORS
330
DEB0
102
}
330
DEB0
100
AcDbScale
 70
     0
300
8:1
140
8.0
141
1.0
290
     0
  0
SCALE
  5
DEC0
102
{ACAD_REACTORS
330
DEB0
102
}
330
DEB0
100
AcDbScale
 70
     0
300
10:1
140
10.0
141
1.0
290
     0
  0
SCALE
  5
DEC1
102
{ACAD_REACTORS
330
DEB0
102
}
330
DEB0
100
AcDbScale
 70
     0
300
100:1
140
100.0
141
1.0
290
     0
  0
TABLESTYLE
  5
DEAF
102
{ACAD_XDICTIONARY
360
EA31
102
}
102
{ACAD_REACTORS
330
DEAE
102
}
330
DEAE
100
AcDbTableStyle
  3
Standard
 70
     0
 71
     0
 40
1.5
 41
1.5
280
     0
281
     0
  7
STANDARD
140
4.5
170
     2
 62
     0
 63
     7
283
     0
274
    -2
284
     1
 64
     0
275
    -2
285
     1
 65
     0
276
    -2
286
     1
 66
     0
277
    -2
287
     1
 67
     0
278
    -2
288
     1
 68
     0
279
    -2
289
     1
 69
     0
  7
STANDARD
140
6.0
170
     5
 62
     0
 63
     7
283
     0
274
    -2
284
     1
 64
     0
275
    -2
285
     1
 65
     0
276
    -2
286
     1
 66
     0
277
    -2
287
     1
 67
     0
278
    -2
288
     1
 68
     0
279
    -2
289
     1
 69
     0
  7
STANDARD
140
4.5
170
     5
 62
     0
 63
     7
283
     0
274
    -2
284
     1
 64
     0
275
    -2
285
     1
 65
     0
276
    -2
286
     1
 66
     0
277
    -2
287
     1
 67
     0
278
    -2
288
     1
 68
     0
279
    -2
289
     1
 69
     0
  0
VISUALSTYLE
  5
DE9A
102
{ACAD_XDICTIONARY
360
EB0D
102
}
102
{ACAD_REACTORS
330
DE94
102
}
330
DE94
100
AcDbVisualStyle
  2
2dWireframe
 70
     4
 71
     0
 72
     2
 73
     0
 90
        0
 40
-0.6
 41
-30.0
 62
     5
 63
     7
 74
     1
 91
        4
 64
     7
 65
   257
 75
     1
175
     1
 42
1.0
 92
        0
 66
   257
 43
1.0
 76
     1
 77
     6
 78
     2
 67
     7
 79
     5
170
     0
171
     0
290
     0
174
     0
 93
        1
 44
0.0
173
     0
291
     0
 45
0.0
1001
ACAD
1000
AcDbSavedByObjectVersion
1070
     0
  0
VISUALSTYLE
  5
DE99
102
{ACAD_XDICTIONARY
360
EB0B
102
}
102
{ACAD_REACTORS
330
DE94
102
}
330
DE94
100
AcDbVisualStyle
  2
Basic
 70
     7
 71
     1
 72
     0
 73
     1
 90
        0
 40
-0.6
 41
-30.0
 62
     5
 63
     7
 74
     0
 91
        4
 64
     7
 65
   257
 75
     1
175
     1
 42
1.0
 92
        8
 66
     7
 43
1.0
 76
     1
 77
     6
 78
     2
 67
     7
 79
     5
170
     0
171
     0
290
     0
174
     0
 93
        1
 44
0.0
173
     0
291
     1
 45
0.0
1001
ACAD
1000
AcDbSavedByObjectVersion
1070
     0
  0
VISUALSTYLE
  5
DEA0
102
{ACAD_XDICTIONARY
360
EB19
102
}
102
{ACAD_REACTORS
330
DE94
102
}
330
DE94
100
AcDbVisualStyle
  2
Brighten
 70
    12
 71
     2
 72
     2
 73
     0
 90
        0
 40
-0.6
 41
-30.0
 62
     5
 63
     7
 74
     1
 91
        4
 64
     7
 65
   257
 75
     1
175
     1
 42
1.0
 92
        8
 66
     7
 43
1.0
 76
     1
 77
     6
 78
     2
 67
     7
 79
     5
170
     0
171
     0
290
     0
174
     0
 93
        1
 44
50.0
173
     0
291
     1
 45
0.0
1001
ACAD
1000
AcDbSavedByObjectVersion
1070
     0
  0
VISUALSTYLE
  5
DEA4
102
{ACAD_XDICTIONARY
360
EB21
102
}
102
{ACAD_REACTORS
330
DE94
102
}
330
DE94
100
AcDbVisualStyle
  2
ColorChange
 70
    16
 71
     2
 72
     2
 73
     3
 90
        0
 40
-0.6
 41
-30.0
 62
     5
 63
     8
 74
     1
 91
        4
 64
     7
 65
   257
 75
     1
175
     1
 42
1.0
 92
        8
 66
     8
 43
1.0
 76
     1
 77
     6
 78
     2
 67
     7
 79
     5
170
     0
171
     0
290
     0
174
     0
 93
        1
 44
0.0
173
     0
291
     1
 45
0.0
1001
ACAD
1000
AcDbSavedByObjectVersion
1070
     0
  0
VISUALSTYLE
  5
DE9D
102
{ACAD_XDICTIONARY
360
EB13
102
}
102
{ACAD_REACTORS
330
DE94
102
}
330
DE94
100
AcDbVisualStyle
  2
Conceptual
 70
     9
 71
     3
 72
     2
 73
     0
 90
        0
 40
-0.6
 41
-30.0
 62
     5
 63
     7
 74
     2
 91
        2
 64
     7
 65
   257
 75
     1
175
     1
 42
179.0
 92
        8
 66
     7
 43
1.0
 76
     1
 77
     6
 78
     2
 67
     7
 79
     3
170
     0
171
     0
290
     0
174
     0
 93
        1
 44
0.0
173
     0
291
     0
 45
0.0
1001
ACAD
1000
AcDbSavedByObjectVersion
1070
     0
  0
VISUALSTYLE
  5
DE9F
102
{ACAD_XDICTIONARY
360
EB17
102
}
102
{ACAD_REACTORS
330
DE94
102
}
330
DE94
100
AcDbVisualStyle
  2
Dim
 70
    11
 71
     2
 72
     2
 73
     0
 90
        0
 40
-0.6
 41
-30.0
 62
     5
 63
     7
 74
     1
 91
        4
 64
     7
 65
   257
 75
     1
175
     1
 42
1.0
 92
        8
 66
     7
 43
1.0
 76
     1
 77
     6
 78
     2
 67
     7
 79
     5
170
     0
171
     0
290
     0
174
     0
 93
        1
 44
-50.0
173
     0
291
     1
 45
0.0
1001
ACAD
1000
AcDbSavedByObjectVersion
1070
     0
  0
VISUALSTYLE
  5
DEAC
102
{ACAD_XDICTIONARY
360
EB31
102
}
102
{ACAD_REACTORS
330
DE94
102
}
330
DE94
100
AcDbVisualStyle
  2
EdgeColorOff
 70
    22
 71
     2
 72
     2
 73
     0
 90
        0
 40
-0.6
 41
-30.0
 62
     5
 63
     7
 74
     1
 91
        4
 64
     7
 65
   257
 75
     1
175
     1
 42
1.0
 92
        8
 66
     7
 43
1.0
 76
     1
 77
     6
 78
     2
 67
     7
 79
     5
170
     0
171
     0
290
     0
174
     0
 93
        1
 44
0.0
173
     0
291
     1
 45
0.0
1001
ACAD
1000
AcDbSavedByObjectVersion
1070
     0
  0
VISUALSTYLE
  5
DEA3
102
{ACAD_XDICTIONARY
360
EB1F
102
}
102
{ACAD_REACTORS
330
DE94
102
}
330
DE94
100
AcDbVisualStyle
  2
Facepattern
 70
    15
 71
     2
 72
     2
 73
     0
 90
        0
 40
-0.6
 41
-30.0
 62
     5
 63
     7
 74
     1
 91
        4
 64
     7
 65
   257
 75
     1
175
     1
 42
1.0
 92
        8
 66
     7
 43
1.0
 76
     1
 77
     6
 78
     2
 67
     7
 79
     5
170
     0
171
     0
290
     0
174
     0
 93
        1
 44
0.0
173
     0
291
     1
 45
0.0
1001
ACAD
1000
AcDbSavedByObjectVersion
1070
     0
  0
VISUALSTYLE
  5
DE95
102
{ACAD_XDICTIONARY
360
EB03
102
}
102
{ACAD_REACTORS
330
DE94
102
}
330
DE94
100
AcDbVisualStyle
  2
Flat
 70
     0
 71
     2
 72
     1
 73
     1
 90
        2
 40
-0.6
 41
30.0
 62
     5
 63
     7
 74
     0
 91
        0
 64
     7
 65
   257
 75
     1
175
     1
 42
1.0
 92
        8
 66
     7
 43
1.0
 76
     1
 77
     6
 78
     2
 67
     7
 79
     5
170
     0
171
     0
290
     0
174
     0
 93
       13
 44
0.0
173
     0
291
     1
 45
0.0
1001
ACAD
1000
AcDbSavedByObjectVersion
1070
     0
  0
VISUALSTYLE
  5
DE96
102
{ACAD_XDICTIONARY
360
EB05
102
}
102
{ACAD_REACTORS
330
DE94
102
}
330
DE94
100
AcDbVisualStyle
  2
FlatWithEdges
 70
     1
 71
     2
 72
     1
 73
     1
 90
        2
 40
-0.6
 41
30.0
 62
     5
 63
     7
 74
     1
 91
        0
 64
     7
 65
   257
 75
     1
175
     1
 42
1.0
 92
        0
 66
   257
 43
1.0
 76
     1
 77
     6
 78
     2
 67
     7
 79
     5
170
     0
171
     0
290
     0
174
     0
 93
       13
 44
0.0
173
     0
291
     1
 45
0.0
1001
ACAD
1000
AcDbSavedByObjectVersion
1070
     0
  0
VISUALSTYLE
  5
DE97
102
{ACAD_XDICTIONARY
360
EB07
102
}
102
{ACAD_REACTORS
330
DE94
102
}
330
DE94
100
AcDbVisualStyle
  2
Gouraud
 70
     2
 71
     2
 72
     2
 73
     1
 90
        2
 40
-0.6
 41
30.0
 62
     5
 63
     7
 74
     0
 91
        0
 64
     7
 65
   257
 75
     1
175
     1
 42
1.0
 92
        0
 66
     7
 43
1.0
 76
     1
 77
     6
 78
     2
 67
     7
 79
     5
170
     0
171
     0
290
     0
174
     0
 93
       13
 44
0.0
173
     0
291
     1
 45
0.0
1001
ACAD
1000
AcDbSavedByObjectVersion
1070
     0
  0
VISUALSTYLE
  5
DE98
102
{ACAD_XDICTIONARY
360
EB09
102
}
102
{ACAD_REACTORS
330
DE94
102
}
330
DE94
100
AcDbVisualStyle
  2
GouraudWithEdges
 70
     3
 71
     2
 72
     2
 73
     1
 90
        2
 40
-0.6
 41
30.0
 62
     5
 63
     7
 74
     1
 91
        0
 64
     7
 65
   257
 75
     1
175
     1
 42
1.0
 92
        0
 66
   257
 43
1.0
 76
     1
 77
     6
 78
     2
 67
     7
 79
     5
170
     0
171
     0
290
     0
174
     0
 93
       13
 44
0.0
173
     0
291
     1
 45
0.0
1001
ACAD
1000
AcDbSavedByObjectVersion
1070
     0
  0
VISUALSTYLE
  5
DE9C
102
{ACAD_XDICTIONARY
360
EB11
102
}
102
{ACAD_REACTORS
330
DE94
102
}
330
DE94
100
AcDbVisualStyle
  2
Hidden
 70
     6
 71
     1
 72
     2
 73
     2
 90
        0
 40
-0.6
 41
-30.0
 62
     5
 63
     7
 74
     2
 91
        2
 64
     7
 65
   257
 75
     2
175
     1
 42
40.0
 92
        0
 66
   257
 43
1.0
 76
     1
 77
     6
 78
     2
 67
     7
 79
     3
170
     0
171
     0
290
     0
174
     0
 93
        1
 44
0.0
173
     0
291
     0
 45
0.0
1001
ACAD
1000
AcDbSavedByObjectVersion
1070
     0
  0
VISUALSTYLE
  5
DEAA
102
{ACAD_XDICTIONARY
360
EB2D
102
}
102
{ACAD_REACTORS
330
DE94
102
}
330
DE94
100
AcDbVisualStyle
  2
JitterOff
 70
    20
 71
     2
 72
     2
 73
     0
 90
        0
 40
-0.6
 41
-30.0
 62
     5
 63
     7
 74
     1
 91
        4
 64
     7
 65
   257
 75
     1
175
     1
 42
1.0
 92
       10
 66
     7
 43
1.0
 76
     1
 77
     6
 78
     2
 67
     7
 79
     5
170
     0
171
     0
290
     0
174
     0
 93
        1
 44
0.0
173
     0
291
     1
 45
0.0
1001
ACAD
1000
AcDbSavedByObjectVersion
1070
     0
  0
VISUALSTYLE
  5
DEA2
102
{ACAD_XDICTIONARY
360
EB1D
102
}
102
{ACAD_REACTORS
330
DE94
102
}
330
DE94
100
AcDbVisualStyle
  2
Linepattern
 70
    14
 71
     2
 72
     2
 73
     0
 90
        0
 40
-0.6
 41
-30.0
 62
     5
 63
     7
 74
     1
 91
        4
 64
     7
 65
   257
 75
     7
175
     7
 42
1.0
 92
        8
 66
     7
 43
1.0
 76
     1
 77
     6
 78
     2
 67
     7
 79
     5
170
     0
171
     0
290
     0
174
     0
 93
        1
 44
0.0
173
     0
291
     1
 45
0.0
1001
ACAD
1000
AcDbSavedByObjectVersion
1070
     0
  0
VISUALSTYLE
  5
DEAB
102
{ACAD_XDICTIONARY
360
EB2F
102
}
102
{ACAD_REACTORS
330
DE94
102
}
330
DE94
100
AcDbVisualStyle
  2
OverhangOff
 70
    21
 71
     2
 72
     2
 73
     0
 90
        0
 40
-0.6
 41
-30.0
 62
     5
 63
     7
 74
     1
 91
        4
 64
     7
 65
   257
 75
     1
175
     1
 42
1.0
 92
        9
 66
     7
 43
1.0
 76
     1
 77
     6
 78
     2
 67
     7
 79
     5
170
     0
171
     0
290
     0
174
     0
 93
        1
 44
0.0
173
     0
291
     1
 45
0.0
1001
ACAD
1000
AcDbSavedByObjectVersion
1070
     0
  0
VISUALSTYLE
  5
DE9E
102
{ACAD_XDICTIONARY
360
EB15
102
}
102
{ACAD_REACTORS
330
DE94
102
}
330
DE94
100
AcDbVisualStyle
  2
Realistic
 70
     8
 71
     2
 72
     2
 73
     0
 90
        2
 40
-0.6
 41
30.0
 62
     5
 63
     7
 74
     0
 91
        0
 64
     7
 65
   257
 75
     1
175
     1
 42
1.0
 92
        8
 66
   257
 43
1.0
 76
     1
 77
     6
 78
     2
 67
     7
 79
     3
170
     0
171
     0
290
     0
174
     0
 93
       13
 44
0.0
173
     0
291
     0
 45
0.0
1001
ACAD
1000
AcDbSavedByObjectVersion
1070
     0
  0
VISUALSTYLE
  5
DEA9
102
{ACAD_XDICTIONARY
360
EB2B
102
}
102
{ACAD_REACTORS
330
DE94
102
}
330
DE94
100
AcDbVisualStyle
  2
Shaded
 70
    27
 71
     2
 72
     2
 73
     1
 90
        2
 40
-0.6
 41
30.0
 62
     5
 63
     7
 74
     0
 91
        4
 64
     7
 65
   257
 75
     1
175
     1
 42
1.0
 92
        8
 66
   257
 43
1.0
 76
     1
 77
     6
 78
     2
 67
     8
 79
     3
170
     0
171
     0
290
     0
174
     0
 93
        5
 44
0.0
173
     0
291
     0
 45
0.0
1001
ACAD
1000
AcDbSavedByObjectVersion
1070
     0
  0
VISUALSTYLE
  5
DEA8
102
{ACAD_XDICTIONARY
360
EB29
102
}
102
{ACAD_REACTORS
330
DE94
102
}
330
DE94
100
AcDbVisualStyle
  2
Shaded with edges
 70
    26
 71
     2
 72
     2
 73
     1
 90
        2
 40
-0.6
 41
30.0
 62
     5
 63
     7
 74
     1
 91
       10
 64
     7
 65
   257
 75
     2
175
     1
 42
1.0
 92
        8
 66
   257
 43
1.0
 76
     1
 77
     6
 78
     2
 67
     7
 79
     3
170
     0
171
     0
290
     0
174
     0
 93
        5
 44
0.0
173
     0
291
     0
 45
0.0
1001
ACAD
1000
AcDbSavedByObjectVersion
1070
     0
  0
VISUALSTYLE
  5
DEA5
102
{ACAD_XDICTIONARY
360
EB23
102
}
102
{ACAD_REACTORS
330
DE94
102
}
330
DE94
100
AcDbVisualStyle
  2
Shades of Gray
 70
    23
 71
     2
 72
     2
 73
     3
 90
        0
 40
-0.6
 41
-30.0
 62
     5
 63
     7
 74
     2
 91
        2
 64
     7
 65
     7
 75
     1
175
     1
 42
40.0
 92
        8
 66
     7
 43
1.0
 76
     1
 77
     6
 78
     2
 67
     7
 79
     3
170
     0
171
     0
290
     0
174
     0
 93
        1
 44
0.0
173
     0
291
     0
 45
0.0
1001
ACAD
1000
AcDbSavedByObjectVersion
1070
     0
  0
VISUALSTYLE
  5
DEA6
102
{ACAD_XDICTIONARY
360
EB25
102
}
102
{ACAD_REACTORS
330
DE94
102
}
330
DE94
100
AcDbVisualStyle
  2
Sketchy
 70
    24
 71
     1
 72
     2
 73
     2
 90
        0
 40
-0.6
 41
-30.0
 62
     5
 63
     7
 74
     2
 91
        2
 64
     7
 65
     7
 75
     1
175
     1
 42
40.0
 92
       11
 66
     7
 43
1.0
 76
     1
 77
     6
 78
     2
 67
     7
 79
     6
170
     0
171
     0
290
     0
174
     0
 93
        1
 44
0.0
173
     0
291
     0
 45
0.0
1001
ACAD
1000
AcDbSavedByObjectVersion
1070
     0
  0
VISUALSTYLE
  5
DEA1
102
{ACAD_XDICTIONARY
360
EB1B
102
}
102
{ACAD_REACTORS
330
DE94
102
}
330
DE94
100
AcDbVisualStyle
  2
Thicken
 70
    13
 71
     2
 72
     2
 73
     0
 90
        0
 40
-0.6
 41
-30.0
 62
     5
 63
     7
 74
     1
 91
        4
 64
     7
 65
   257
 75
     1
175
     1
 42
1.0
 92
       12
 66
     7
 43
1.0
 76
     1
 77
     6
 78
     2
 67
     7
 79
     5
170
     0
171
     0
290
     0
174
     0
 93
        1
 44
0.0
173
     0
291
     1
 45
0.0
1001
ACAD
1000
AcDbSavedByObjectVersion
1070
     0
  0
VISUALSTYLE
  5
DE9B
102
{ACAD_XDICTIONARY
360
EB0F
102
}
102
{ACAD_REACTORS
330
DE94
102
}
330
DE94
100
AcDbVisualStyle
  2
Wireframe
 70
     5
 71
     0
 72
     2
 73
     0
 90
        0
 40
-0.6
 41
-30.0
 62
     5
 63
     7
 74
     1
 91
        4
 64
     7
 65
   257
 75
     1
175
     1
 42
1.0
 92
        0
 66
   257
 43
1.0
 76
     1
 77
     6
 78
     2
 67
     7
 79
     3
170
     0
171
     0
290
     0
174
     0
 93
        1
 44
0.0
173
     0
291
     0
 45
0.0
1001
ACAD
1000
AcDbSavedByObjectVersion
1070
     0
  0
VISUALSTYLE
  5
DEA7
102
{ACAD_XDICTIONARY
360
EB27
102
}
102
{ACAD_REACTORS
330
DE94
102
}
330
DE94
100
AcDbVisualStyle
  2
X-Ray
 70
    25
 71
     2
 72
     2
 73
     1
 90
        1
 40
0.5
 41
-30.0
 62
     5
 63
     7
 74
     1
 91
        0
 64
     7
 65
   257
 75
     1
175
     1
 42
1.0
 92
        8
 66
     7
 43
1.0
 76
     1
 77
     6
 78
     2
 67
     7
 79
     3
170
     0
171
     0
290
     0
174
     0
 93
       13
 44
0.0
173
     0
291
     0
 45
0.0
1001
ACAD
1000
AcDbSavedByObjectVersion
1070
     0
  0
DICTIONARYVAR
  5
E83C
102
{ACAD_REACTORS
330
51
102
}
330
51
100
DictionaryVariables
280
     0
  1
1:1
  0
DICTIONARYVAR
  5
E83A
102
{ACAD_REACTORS
330
51
102
}
330
51
100
DictionaryVariables
280
     0
  1
STANDARD
  0
DICTIONARYVAR
  5
E839
102
{ACAD_REACTORS
330
51
102
}
330
51
100
DictionaryVariables
280
     0
  1
STANDARD
  0
DICTIONARYVAR
  5
52
102
{ACAD_REACTORS
330
51
102
}
330
51
100
DictionaryVariables
280
     0
  1
0
  0
DICTIONARYVAR
  5
EA72
102
{ACAD_REACTORS
330
51
102
}
330
51
100
DictionaryVariables
280
     0
  1
1
  0
DICTIONARYVAR
  5
EA71
102
{ACAD_REACTORS
330
51
102
}
330
51
100
DictionaryVariables
280
     0
  1
0
  0
DICTIONARYVAR
  5
E83E
102
{ACAD_REACTORS
330
51
102
}
330
51
100
DictionaryVariables
280
     0
  1
1
  0
DICTIONARYVAR
  5
E83F
102
{ACAD_REACTORS
330
51
102
}
330
51
100
DictionaryVariables
280
     0
  1
15
  0
DICTIONARYVAR
  5
E83D
102
{ACAD_REACTORS
330
51
102
}
330
51
100
DictionaryVariables
280
     0
  1
0
  0
DICTIONARYVAR
  5
E83B
102
{ACAD_REACTORS
330
51
102
}
330
51
100
DictionaryVariables
280
     0
  1
0
  0
DICTIONARYVAR
  5
D1FE
102
{ACAD_REACTORS
330
51
102
}
330
51
100
DictionaryVariables
280
     0
  1
96
  0
DICTIONARYVAR
  5
EAFA
102
{ACAD_REACTORS
330
51
102
}
330
51
100
DictionaryVariables
280
     0
  1
2
  0
DICTIONARY
  5
E835
330
DEC6
100
AcDbDictionary
280
     1
281
     1
  3
ACAD_XREC_ROUNDTRIP
360
EB34
  3
ADSK_XREC_LAYOUTTHUMBNAIL
360
E836
  0
DICTIONARY
  5
EB35
330
DEC7
100
AcDbDictionary
280
     1
281
     1
  3
ACAD_XREC_ROUNDTRIP
360
EB36
  0
DICTIONARY
  5
DE85
330
DE84
100
AcDbDictionary
280
     1
281
     1
  3
ACAD_XREC_ROUNDTRIP
360
EB01
  3
BUMPTILE
360
DE87
  3
DIFFUSETILE
360
DE86
  3
OPACITYTILE
360
DE8A
  3
REFLECTIONTILE
360
DE89
  3
REFRACTIONTILE
360
DE8B
  3
SPECULARTILE
360
DE88
  0
DICTIONARY
  5
DE7D
330
DE7C
100
AcDbDictionary
280
     1
281
     1
  3
ACAD_XREC_ROUNDTRIP
360
EB00
  3
BUMPTILE
360
DE7F
  3
DIFFUSETILE
360
DE7E
  3
OPACITYTILE
360
DE82
  3
REFLECTIONTILE
360
DE81
  3
REFRACTIONTILE
360
DE83
  3
SPECULARTILE
360
DE80
  0
DICTIONARY
  5
DE8D
330
DE8C
100
AcDbDictionary
280
     1
281
     1
  3
ACAD_XREC_ROUNDTRIP
360
EB02
  3
BUMPTILE
360
DE8F
  3
DIFFUSETILE
360
DE8E
  3
OPACITYTILE
360
DE92
  3
REFLECTIONTILE
360
DE91
  3
REFRACTIONTILE
360
DE93
  3
SPECULARTILE
360
DE90
  0
DICTIONARY
  5
EAFC
330
DEC3
100
AcDbDictionary
280
     1
281
     1
  3
ACAD_XREC_ROUNDTRIP
360
EAFD
  0
DICTIONARY
  5
EA31
330
DEAF
100
AcDbDictionary
280
     1
281
     1
  3
ACAD_ROUNDTRIP_2008_TABLESTYLE_CELLSTYLEMAP
360
EAFB
  3
ACAD_XREC_ROUNDTRIP
360
EB33
  0
DICTIONARY
  5
EB0D
330
DE9A
100
AcDbDictionary
280
     1
281
     1
  3
ACAD_XREC_ROUNDTRIP
360
EB0E
  0
DICTIONARY
  5
EB0B
330
DE99
100
AcDbDictionary
280
     1
281
     1
  3
ACAD_XREC_ROUNDTRIP
360
EB0C
  0
DICTIONARY
  5
EB19
330
DEA0
100
AcDbDictionary
280
     1
281
     1
  3
ACAD_XREC_ROUNDTRIP
360
EB1A
  0
DICTIONARY
  5
EB21
330
DEA4
100
AcDbDictionary
280
     1
281
     1
  3
ACAD_XREC_ROUNDTRIP
360
EB22
  0
DICTIONARY
  5
EB13
330
DE9D
100
AcDbDictionary
280
     1
281
     1
  3
ACAD_XREC_ROUNDTRIP
360
EB14
  0
DICTIONARY
  5
EB17
330
DE9F
100
AcDbDictionary
280
     1
281
     1
  3
ACAD_XREC_ROUNDTRIP
360
EB18
  0
DICTIONARY
  5
EB31
330
DEAC
100
AcDbDictionary
280
     1
281
     1
  3
ACAD_XREC_ROUNDTRIP
360
EB32
  0
DICTIONARY
  5
EB1F
330
DEA3
100
AcDbDictionary
280
     1
281
     1
  3
ACAD_XREC_ROUNDTRIP
360
EB20
  0
DICTIONARY
  5
EB03
330
DE95
100
AcDbDictionary
280
     1
281
     1
  3
ACAD_XREC_ROUNDTRIP
360
EB04
  0
DICTIONARY
  5
EB05
330
DE96
100
AcDbDictionary
280
     1
281
     1
  3
ACAD_XREC_ROUNDTRIP
360
EB06
  0
DICTIONARY
  5
EB07
330
DE97
100
AcDbDictionary
280
     1
281
     1
  3
ACAD_XREC_ROUNDTRIP
360
EB08
  0
DICTIONARY
  5
EB09
330
DE98
100
AcDbDictionary
280
     1
281
     1
  3
ACAD_XREC_ROUNDTRIP
360
EB0A
  0
DICTIONARY
  5
EB11
330
DE9C
100
AcDbDictionary
280
     1
281
     1
  3
ACAD_XREC_ROUNDTRIP
360
EB12
  0
DICTIONARY
  5
EB2D
330
DEAA
100
AcDbDictionary
280
     1
281
     1
  3
ACAD_XREC_ROUNDTRIP
360
EB2E
  0
DICTIONARY
  5
EB1D
330
DEA2
100
AcDbDictionary
280
     1
281
     1
  3
ACAD_XREC_ROUNDTRIP
360
EB1E
  0
DICTIONARY
  5
EB2F
330
DEAB
100
AcDbDictionary
280
     1
281
     1
  3
ACAD_XREC_ROUNDTRIP
360
EB30
  0
DICTIONARY
  5
EB15
330
DE9E
100
AcDbDictionary
280
     1
281
     1
  3
ACAD_XREC_ROUNDTRIP
360
EB16
  0
DICTIONARY
  5
EB2B
330
DEA9
100
AcDbDictionary
280
     1
281
     1
  3
ACAD_XREC_ROUNDTRIP
360
EB2C
  0
DICTIONARY
  5
EB29
330
DEA8
100
AcDbDictionary
280
     1
281
     1
  3
ACAD_XREC_ROUNDTRIP
360
EB2A
  0
DICTIONARY
  5
EB23
330
DEA5
100
AcDbDictionary
280
     1
281
     1
  3
ACAD_XREC_ROUNDTRIP
360
EB24
  0
DICTIONARY
  5
EB25
330
DEA6
100
AcDbDictionary
280
     1
281
     1
  3
ACAD_XREC_ROUNDTRIP
360
EB26
  0
DICTIONARY
  5
EB1B
330
DEA1
100
AcDbDictionary
280
     1
281
     1
  3
ACAD_XREC_ROUNDTRIP
360
EB1C
  0
DICTIONARY
  5
EB0F
330
DE9B
100
AcDbDictionary
280
     1
281
     1
  3
ACAD_XREC_ROUNDTRIP
360
EB10
  0
DICTIONARY
  5
EB27
330
DEA7
100
AcDbDictionary
280
     1
281
     1
  3
ACAD_XREC_ROUNDTRIP
360
EB28
  0
XRECORD
  5
EB34
102
{ACAD_REACTORS
330
E835
102
}
330
E835
100
AcDbXrecord
280
     1
102
SHADEPLOT
 70
     0
102
SHADEPLOTRESLEVEL
 70
     2
102
SHADEPLOTCUSTOMDPI
 70
   300
  0
XRECORD
  5
E836
102
{ACAD_REACTORS
330
E835
102
}
330
E835
100
AcDbXrecord
280
     1
310
280000000001000089000000010008000000000000890000000000000000000000010000000000003028210000000000C8C8C8000000000000000000000000000000000000000000000000000000000000000000330000006600000099000000CC000000FF00000000330000333300006633000099330000CC330000FF3300
310
0000660000336600006666000099660000CC660000FF66000000990000339900006699000099990000CC990000FF99000000CC000033CC000066CC000099CC0000CCCC0000FFCC000000FF000033FF000066FF000099FF0000CCFF0000FFFF000000003300330033006600330099003300CC003300FF003300003333003333
310
33006633330099333300CC333300FF33330000663300336633006666330099663300CC663300FF66330000993300339933006699330099993300CC993300FF99330000CC330033CC330066CC330099CC3300CCCC3300FFCC330000FF330033FF330066FF330099FF3300CCFF3300FFFF330000006600330066006600660099
310
006600CC006600FF00660000336600333366006633660099336600CC336600FF33660000666600336666006666660099666600CC666600FF66660000996600339966006699660099996600CC996600FF99660000CC660033CC660066CC660099CC6600CCCC6600FFCC660000FF660033FF660066FF660099FF6600CCFF6600
310
FFFF660000009900330099006600990099009900CC009900FF00990000339900333399006633990099339900CC339900FF33990000669900336699006666990099669900CC669900FF66990000999900339999006699990099999900CC999900FF99990000CC990033CC990066CC990099CC9900CCCC9900FFCC990000FF99
310
0033FF990066FF990099FF9900CCFF9900FFFF99000000CC003300CC006600CC009900CC00CC00CC00FF00CC000033CC003333CC006633CC009933CC00CC33CC00FF33CC000066CC003366CC006666CC009966CC00CC66CC00FF66CC000099CC003399CC006699CC009999CC00CC99CC00FF99CC0000CCCC0033CCCC0066CC
310
CC0099CCCC00CCCCCC00FFCCCC0000FFCC0033FFCC0066FFCC0099FFCC00CCFFCC00FFFFCC000000FF003300FF006600FF009900FF00CC00FF00FF00FF000033FF003333FF006633FF009933FF00CC33FF00FF33FF000066FF003366FF006666FF009966FF00CC66FF00FF66FF000099FF003399FF006699FF009999FF00CC
310
99FF00FF99FF0000CCFF0033CCFF0066CCFF0099CCFF00CCCCFF00FFCCFF0000FFFF0033FFFF0066FFFF0099FFFF00CCFFFF00FFFFFF00000000000D0D0D001A1A1A00282828003535350043434300505050005D5D5D006B6B6B00787878008686860093939300A1A1A100AEAEAE00BBBBBB00C9C9C900D6D6D600E4E4E400
310
F1F1F100FFFFFF000000000000000000000000000000000000000000000000000000000000000000000000000000000000000000000000000000000000000000000000000000000000000000000000000000000000000000000000000000000000000000000000000000000000000000000000000000000000000000000000
310
00000000000000000000000000000000000000000000000000000000000000000000000000000000000000000000000000000000000000000000000000000000000000000000000000000000000000000000000000000000000000000000000000000000000000000000000000000000000000000000000000000000000000
310
00000000000000000000000000000000000000000000000000000000000000000000000000000000000000000000000000000000000000000000000000000000000000000000000000000000000000000000000000000000000000000000000000000000000000000000000000000000000000000000000000000000000000
310
00000000000000000000000000000000000000000000000000000000000000000000000000000000000000000000000000000000000000000000000000000000000000000000000000000000000000000000000000000000000000000000000000000000000000000000000000000000000000000000000000000000000000
310
00000000000000000000000000000000000000000000000000000000000000000000000000000000000000000000000000000000000000000000000000000000000000000000000000000000000000000000000000000000000000000000000000000000000000000000000000000000000000000000000000000000000000
310
00000000000000000000000000000000000000000000000000000000000000000000000000000000000000000000000000000000000000000000000000000000000000000000000000000000000000000000000000000000000000000000000000000000000000000000000000000000000000000000000000000000000000
310
00000000000000000000000000000000000000000000000000000000000000000000000000000000000000000000000000000000000000000000000000000000000000000000000000000000000000000000000000000000000000000000000000000000000000000000000000000000000000000000000000000000000000
310
00000000000000000000000000000000000000000000000000000000000000000000000000000000000000000000000000000000000000000000000000000000000000000000000000000000000000000000000000000000000000000000000000000000000000000000000000000000000000000000000000000000000000
310
00000000000000000000000000000000000000000000000000000000000000000000000000000000000000000000000000000000000000000000000000000000000000000000000000000000000000000000000000000000000000000000000000000000000000000000000000000000000000000000000000000000000000
310
00000000000000000000000000000000000000000000000000000000000000000000000000000000000000000000000000000000000000000000000000000000000000000000000000000000000000000000000000000000000000000000000000000000000000000000000000000000000000000000000000000000000000
310
00000000000000000000000000000000000000000000000000000000000000000000000000000000000000000000000000000000000000000000000000000000000000000000000000000000000000000000000000000000000000000000000000000000000000000000000000000000000000000000000000000000000000
310
00000000000000000000000000000000000000000000000000000000000000000000000000000000000000000000000000000000000000000000000000000000000000000000000000000000000000000000000000000000000000000000000000000000000000000000000000000000000000000000000000000000000000
310
00000000000000000000000000000000000000000000000000000000000000000000000000000000000000000000000000000000000000000000000000000000000000000000000000000000000000000000000000000000000000000000000000000000000000000000000000000000000000000000000000000000000000
310
00000000000000000000000000000000000000000000000000000000000000000000000000000000000000000000000000000000000000000000000000000000000000000000000000000000000000000000000000000000000000000000000000000000000000000000000000000000000000000000000000000000000000
310
00000000000000000000000000000000000000000000000000000000000000000000000000000000000000000000000000000000000000000000000000000000000000000000000000000000000000000000000000000000000000000000000000000000000000000000000000000000000000000000000000000000000000
310
00000000000000000000000000000000000000000000000000000000000000000000000000000000000000000000000000000000000000000000000000000000000000000000000000000000000000000000000000000000000000000000000000000000000000000000000000000000000000000000000000000000000000
310
00000000000000000000000000000000000000000000000000000000000000000000000000000000000000000000000000000000000000000000000000000000000000000000000000000000000000000000000000000000000000000000000000000000000000000000000000000000000000000000000000000000000000
310
00000000000000000000000000000000000000000000000000000000000000000000000000000028282828282828282828282828282828282828282828282828282828282828282828282828282828282828282828282828282828282828282828282828282828282828282828282828282828282828282828282828282828
310
28282828282828282828282828280000000000000000000000000000000000000000000000000000000000000000000000000000000000000000000000000000000000000000000000000000000000000000000000000000000000000000000000000000000000000000000000000000000000000000000000000000000000
310
00000000000000000000000000000000000000000000000000000000000000000000000000000000002800000000000000000000000000000000000000000000000000000000000000000000000000000000000000000000000000000000000000000000000000000000000000000000000000000000000000000000000000
310
00000000000000000000000000000028000000000000000000000000000000000000000000000000000000000000000000000000000000000000000000000000000000000000000000000000000000000000000000000000000000000000000000000000000000000000000000000000000000000000000000000000000000
310
00000000000000000000000000000000000000000000000000000000000000000000000000000000000000280000000000000000000000000000000000000000000000000000000000000000000000000000000000000000000000000000000000000000000000000000000000000000000000000000000000000000000000
310
00000000000000000000000000000000002800000000000000000000000000000000000000000000000000000000000000000000000000000000000000000000000000000000000000000000000000000000000000000000000000000000000000000000000000000000000000000000000000000000000000000000000000
310
00000000000000000000000000000000000000000000000000000000000000000000000000000000000000000028000000000000000000000000000000000000000000000000000000000000000000000000000000000000000000000000000000000000000000000000000000000000000000000000000000000000000000
310
00000000000000000000000000000000000000280000000000000000000000000000000000000000000000000000000000000000000000000000000000000000000000000000000000000000000000000000000000000000000000000000000000000000000000000000000000000000000000000000000000000000000000
310
00000000000000000000000000000000000000000000000000000000000000000000000000000000000000000000002800000000000000000000000000000000000000000000000000000000000000000000000000000000000000000000000000000000000000000000000000000000000000000000000000000000000000
310
00000000000000000000000000000000000000000028000000000000000000000000000000000000000000000000000000000000000000000000000000000000000000000000000000000000000000000000000000000000000000000000000000000000000000000000000000000000000000000000000000000000000000
310
00000000000000000000000000000000000000000000000000000000000000000000000000000000000000000000000000280000000000000000000000000000000000000000000000000000000000000000000000000000000000000000000000000000000000000000000000000000000000000000000000000000000000
310
00000000000000000000000000000000000000000000002800000000000000000000000000000000000000000000000000000000000000000000000000000000000000000000000000000000000000000000000000000000000000000000000000000000000000000000000000000000000000000000000000000000000000
310
00000000000000000000000000000000000000000000000000000000000000000000000000000000000000000000000000000028000000000000000000000000000000000000000000000000000000000000000000000000000000000000000000000000000000000000000000000000000000000000000000000000000000
310
00000000000000000000000000000000000000000000000000280000000000000000000000000000000000000000000000000000000000000000000000000000000000000000000000000000000000000000000000000000000000000000000000000000000000000000000000000000000000000000000000000000000000
310
00000000000000000000000000000000000000000000000000000000000000000000000000000000000000000000000000000000002800000000000000000000000000000000000000000000000000000000000000000000000000000000000000000000000000000000000000000000000000000000000000000000000000
310
00000000000000000000000000000000000000000000000000000028000000000000000000000000000000000000000000000000000000000000000000000000000000000000000000000000000000000000000000000000000000000000000000000000000000000000000000000000000000000000000000000000000000
310
00000000000000000000000000000000000000000000000000000000000000000000000000000000000000000000000000000000000000280000000000000000000000000000000000000000000000000000000000000000000000000000000000000000000000000000000000000000000000000000000000000000000000
310
00000000000000000000000000000000000000000000000000000000002800000000000000000000000000000000000000000000000000000000000000000000000000000000000000000000000000000000000000000000000000000000000000000000000000000000000000000000000000000000000000000000000000
310
00000000000000000000000000000000000000000000000000000000000000000000000000000000000000000000000000000000000000000028000000000000000000000000000000000000000000000000000000000000000000000000000000000000000000000000000000000000000000000000000000000000000000
310
00000000000000000000000000000000000000000000000000000000000000280000000000000000000000000000000000000000000000000000000000000000000000000000000000000000000000000000000000000000000000000000000000000000000000000000000000000000000000000000000000000000000000
310
00000000000000000000000000000000000000000000000000000000000000000000000000000000000000000000000000000000000000000000002800000000000000000000000000000000000000000000000000000000000000000000000000000000000000000000000000000000000000000000000000000000000000
310
00000000000000000000000000000000000000000000000000000000000000000028000000000000000000000000000000000000000000000000000000000000000000000000000000000000000000000000000000000000000000000000000000000000000000000000000000000000000000000000000000000000000000
310
00000000000000000000000000000000000000000000000000000000000000000000000000000000000000000000000000000000000000000000000000280000000000000000000000000000000000000000282828282828282828282800000000000000000000282828282828282828280000000000000000000000000000
310
00000000282828282828282828282828000000000000000000000000000000000000002800000000000000000000000000000000000000000000000000000000000000000000000000000000000000000000000000000000000000000000000000000000000000000000000000000000000000000000000000000000000000
310
00000000000000000000000000000000000000000000000000000000000000000000000000000000000000000000000000000000000000000000000000000028000000000000000000000000000000000000000028000000000000000000280000000000000000000028000000000000000028000000000000000000000000
310
00000000000028280028282828282800282800000000000000000000000000000000000000280000000000000000000000000000000000000000000000000000000000000000000000000000000000000000000000000000000000000000000000000000000000000000000000000000000000000000000000000000000000
310
00000000000000000000000000000000000000000000000000000000000000000000000000000000000000000000000000000000000000000000000000000000002800000000000000000000000000000000000000002800000000000000000028000000000000000000002800000000000000002800000000000000000000
310
00000000000000002828002828282828280028280000000000000000000000000000000000000028000000000000000000000000000000000000000000000000000000000000000000000000000000000000000000000000000000000000000000000000000000000000000000000000000000000000000000000000000000
310
00000000000000000000000000000000000000000000000000000000000000000000000000000000000000000000000000000000000000000000000000000000000000280000000000000000000000000000000000000000280000000000000000002800000000000000000000280000000000000000280000000000000000
310
00000000000000000000282828282828282828282828000000000000000000000000000000000000002800000000000000000000000000000000000000000000000000000000000000000000000000000000000000000000000000000000000000000000000000000000000000000000000000000000000000000000000000
310
00000000000000000000000000000000000000000000000000000000000000000000000000000000000000000000000000000000000000000000000000000000000000000028000000000000000000000000000000000000000028000000000000000000280000000000000000000028000000000000000028000000000000
310
00000000000000000000000028282800000000000000282800000000000000000000000000000000000000280000000000000000000000000000000000000000000000000000000000000000000000000000000000000000000000000000000000000000000000000000000000000000000000000000000000000000000000
310
00000000000000000000000000000000000000000000000000000000000000000000000000000000000000000000000000000000000000000000000000000000000000000000002800000000000000000000000000000000000000002800000000000000000028000000000000000000002800000000000000002800000000
310
00000000000000000000000000002828280000282800000028280000000000000000000000000000000000000028000000000000000000000000000000000000000000000000000000000000000000000000000000000000000000000000000000000000000000000000000000000000000000000000000000000000000000
310
00000000000000000000000000000000000000000000000000000000000000000000000000000000000000000000000000000000000000000000000000000000000000000000000000280000000000000000000000000000000000000000280000000000000000002800000000000000000000280000000000000000280000
310
00000000000000000000000000000000282828000028280000002828000000000000000000000000000000000000002800000000000000000000000000000000000000000000000000000000000000000000000000000000000000000000000000000000000000000000000000000000000000000000000000000000000000
310
00000000000000000000000000000000000000000000000000000000000000000000000000000000000000000000000000000000000000000000000000000000000000000000000000000028000000000000000000000000000000000000000028000000000000000000280000000000000000000028000000000000000028
310
00000000000000000000000000000000000028282800000000000000282800000000000000000000000000000000000000280000000000000000000000000000000000000000000000000000000000000000000000000000000000000000000000000000000000000000000000000000000000000000000000000000000000
310
00000000000000000000000000000000000000000000000000000000000000000000000000000000000000000000000000000000000000000000000000000000000000000000000000000000002800000000000000000000000000000000000000002800000000000000000028000000000000000000002800000000000000
310
00280000000000000000000000000000000000002828280000000000000028280000000000000000000000000000000000000028000000000000000000000000000000000000000000000000000000000000000000000000000000000000000000000000000000000000000000000000000000000000000000000000000000
310
00000000000000000000000000000000000000000000000000000000000000000000000000000000000000000000000000000000000000000000000000000000000000000000000000000000000000280000000000000000000000000000000000000000280000000000000000002800000000000000000000280000000000
310
00000028000000000000000000000000000000000000282828000000000000002828000000000000000000000000000000000000002800000000000000000000000000000000000000000000000000000000000000000000000000000000000000000000000000000000000000000000000000000000000000000000000000
310
00000000000000000000000000000000000000000000000000000000000000000000000000000000000000000000000000000000000000000000000000000000000000000000000000000000000000000028000000000000000000000000000000000000000028000000000000000000280000000000000000000028000000
310
00000000002800000000000000000000000000000000000028282800000000000000282800000000000000000000000000000000000000280000000000000000000000000000000000000000000000000000000000000000000000000000000000000000000000000000000000000000000000000000000000000000000000
310
00000000000000000000000000000000000000000000000000000000000000000000000000000000000000000000000000000000000000000000000000000000000000000000000000000000000000000000002800000000000000000000000000000000000000002800000000000000000028000000000000000000002800
310
00000000000000282828282828282828282828000000000000002828282828282828282828280000000000000000000000000000000000000028000000000000000000000000000000000000000000000000000000000000000000000000000000000000000000000000000000000000000000000000000000000000000000
310
00000000000000000000000000000000000000000000000000000000000000000000000000000000000000000000000000000000000000000000000000000000000000000000000000000000000000000000000000280000000000000000000000000000000000000000280000000000000000002800000000000000000000
310
28000000000000000000000000000000000000282800000000000000282828280028280028282828000000000000000000000000000000000000002800000000000000000000000000000000000000000000000000000000000000000000000000000000000000000000000000000000000000000000000000000000000000
310
00000000000000000000000000000000000000000000000000000000000000000000000000000000000000000000000000000000000000000000000000000000000000000000000000000000000000000000000000000028000000000000000000000000000000000000000028000000000000000000280000000000000000
310
00002800000000000000000000000000000000000028280000000000000028282800000000000028282800000000000000000000000000000000000000280000000000000000000000000000000000000000000000000000000000000000000000000000000000000000000000000000000000000000000000000000000000
310
00000000000000000000000000000000000000000000000000000000000000000000000000000000000000000000000000000000000000000000000000000000000000000000000000000000000000000000000000000000002800000000000000000000000000000000000000002800000000000000000028000000000000
310
00000000280000000000000000000000000000000000002828000000000000002828000000000000000028280000000000000000000000000000000000000028000000000000000000000000000000000000000000000000000000000000000000000000000000000000000000000000000000000000000000000000000000
310
00000000000000000000000000000000000000000000000000000000000000000000000000000000000000000000000000000000000000000000000000000000000000000000000000000000000000000000000000000000000000280000000000000000000000000000000000000000280000000000000000002800000000
310
00000000000028000000000000000000000000000000000000282800000000000000282800000000000000002828000000000000000000000000000000000000002800000000000000000000000000000000000000000000000000000000000000000000000000000000000000000000000000000000000000000000000000
310
00000000000000000000000000000000000000000000000000000000000000000000000000000000000000000000000000000000000000000000000000000000000000000000000000000000000000000000000000000000000000000028000000000000000000000000000000000000000028000000000000000000280000
310
00000000000000002800000000000000000000000000000000000028280000000000000000280000000000000000282800000000000000000000000000000000000000280000000000000000000000000000000000000000000000000000000000000000000000000000000000000000000000000000000000000000000000
310
00000000000000000000000000000000000000000000000000000000000000000000000000000000000000000000000000000000000000000000000000000000000000000000000000000000000000000000000000000000000000000000002800000000000000000000000000000000000000000028000000000000000028
310
00000000000000000000280000000000000000000000000000000000002828000000000000000028000000000000000028000000000000000000000000000000000000000028000000000000000000000000000000000000000000000000000000000000000000000000000000000000000000000000000000000000000000
310
00000000000000000000000000000000000000000000000000000000000000000000000000000000000000000000000000000000000000000000000000000000000000000000000000000000000000000000000000000000000000000000000000280000000000000000000000000000000000000000002800000000000000
310
28000000000000000000000028000000000000000000000000000000000000282800000000000000000028000000000000282800000000000000000000000000000000000000002800000000000000000000000000000000000000000000000000000000000000000000000000000000000000000000000000000000000000
310
00000000000000000000000000000000000000000000000000000000000000000000000000000000000000000000000000000000000000000000000000000000000000000000000000000000000000000000000000000000000000000000000000000028000000000000000000000000000000000000000000002800000000
310
00280000000000000000000000000028000000000000000000000000000000000028280000000000000000002828280000002828000000000000000000000000000000000000000000280000000000000000000000000000000000000000000000000000000000000000000000000000000000000000000000000000000000
310
00000000000000000000000000000000000000000000000000000000000000000000000000000000000000000000000000000000000000000000000000000000000000000000000000000000000000000000000000000000000000000000000000000000002800000000000000000000000000000000000000000000002828
310
28282800000000000000000000000000000028282828282828282828282828282828282828000000000000000000002828282828280000000000000000000000000000000000000000000028000000000000000000000000000000000000000000000000000000000000000000000000000000000000000000000000000000
310
00000000000000000000000000000000000000000000000000000000000000000000000000000000000000000000000000000000000000000000000000000000000000000000000000000000000000000000000000000000000000000000000000000000000000280000000000000000000000000000000000000000000000
310
00000000000000000000000000000000000000000000000000000000000000000000000000000000000000000000000000000000000000000000000000000000000000000000000000000000002800000000000000000000000000000000000000000000000000000000000000000000000000000000000000000000000000
310
00000000000000000000000000000000000000000000000000000000000000000000000000000000000000000000000000000000000000000000000000000000000000000000000000000000000000000000000000000000000000000000000000000000000000000028000000000000000000000000000000000000000000
310
00000000000000000000000000000000000000000000000000000000000000000000000000000000000000000000000000000000000000000000000000000000000000000000000000000000000000280000000000000000000000000000000000000000000000000000000000000000000000000000000000000000000000
310
00000000000000000000000000000000000000000000000000000000000000000000000000000000000000000000000000000000000000000000000000000000000000000000000000000000000000000000000000000000000000000000000000000000000000000000002800000000000000000000000000000000000000
310
00000000000000000000000000000000000000000000000000000000000000000000000000000000000000000000000000000000000000000000000000000000000000000000000000000000000000000028000000000000000000000000000000000000000000000000000000000000000000000000000000000000000000
310
00000000000000000000000000000000000000000000000000000000000000000000000000000000000000000000000000000000000000000000000000000000000000000000000000000000000000000000000000000000000000000000000000000000000000000000000000280000000000000000000000000000000000
310
00000000000000000000000000000000000000000000000000000000000000000000000000000000000000000000000000000000000000000000000000000000000000000000000000000000000000000000002800000000000000000000000000000000000000000000000000000000000000000000000000000000000000
310
00000000000000000000000000000000000000000000000000000000000000000000000000000000000000000000000000000000000000000000000000000000000000000000000000000000000000000000000000000000000000000000000000000000000000000000000000000028000000000000000000000000000000
310
00000000000000000000000000000000000000000000000000000000000000000000000000000000000000000000000000000000000000000000000000000000000000000000000000000000000000000000000000280000000000000000000000000000000000000000000000000000000000000000000000000000000000
310
00000000000000000000000000000000000000000000000000000000000000000000000000000000000000000000000000000000000000000000000000000000000000000000000000000000000000000000000000000000000000000000000000000000000000000000000000000000002800000028282828282800000028
310
28282828000000000000000000000000000000000000000000000000000000000000000000000000000000000000000000000000000000000000000000000000000000000000000000000000000000000000000000000028000000000000000000000000000000000000000000000000000000000000000000000000000000
310
00000000000000000000000000000000000000000000000000000000000000000000000000000000000000000000000000000000000000000000000000000000000000000000000000000000000000000000000000000000000000000000000000000000000000000000000000000000000000280000000028282828282828
310
28282828282828000000000000000000000000000000000000000000000000000000000000000000000000000000000000000000000000000000000000000000000000000000000000000000000000000000000000000000002800000000000000000000000000000000000000000000000000000000000000000000000000
310
00000000000000000000000000000000000000000000000000000000000000000000000000000000000000000000000000000000000000000000000000000000000000000000000000000000000000000000000000000000000000000000000000000000000000000000000000000000000000000028000000002828282828
310
00000028282828282800000000000000000000000000000000000000000000000000000000000000000000000000000000000000000000000000000000000000000000000000000000000000000000000000000000000000000000280000000000000000000000000000000000000000000000000000000000000000000000
310
00000000000000000000000000000000000000000000000000000000000000000000000000000000000000000000000000000000000000000000000000000000000000000000000000000000000000000000000000000000000000000000000000000000000000000000000000000000000000000000002800000000000000
310
00000000000000000000000000000000000000000000000000000000000000000000000000000000000000000000000000000000000000000000000000000000000000000000000000000000000000000000000000000000000000000028000000000000000000000000000000000000000000000000000000000000000000
310
00000000000000000000000000000000000000000000000000000000000000000000000000000000000000000000000000000000000000000000000000000000000000000000000000000000000000000000000000000000000000000000000000000000000000000000000000000000000000000000000000280000000000
310
00000000000000000000000000000000000000000000000000000000000000000000000000000000000000000000000000000000000000000000000000000000000000000000000000000000000000000000000000000000000000000000002800000000000000000000000000000000000000000000000000000000000000
310
00000000000000000000000000000000000000000000000000000000000000000000000000000000000000000000000000000000000000000000000000000000000000000000000000000000000000000000000000000000000000000000000000000000000000000000000000000000000000000000000000000028000000
310
00000000000000000000000000000000000000000000000000000000000000000000000000000000000000000000000000000000000000000000000000000000000000000000000000000000000000000000000000000000000000000000000000280000000000000000000000000000000000000000000000000000000000
310
00000000000000000000000000000000000000000000000000000000000000000000000000000000000000000000000000000000000000000000000000000000000000000000000000000000000000000000000000000000000000000000000000000000000000000000000000000000000000000000000000000000002800
310
00000000000000000000000000000000000000000000000000000000000000000000000000000000000000000000000000000000000000000000000000000000000000000000000000000000000000000000000000000000000000000000000000000028000000000000000000000000000000000000000000000000000000
310
00000000000000000000000000000000000000000000000000000000000000000000000000000000000000000000000000000000000000000000000000000000000000000000000000000000000000000000000000000000000000000000000000000000000000000000000000000000000000000000000000000000000000
310
28282828282828282828282828282828282828282828282828282828282828282828282828282828282828282828282828282828282828282828282828282828282828282828282828282828282828282828282828282828282828282828282828282828282800000000000000000000000000000000000000000000000000
310
00000000000000000000000000000000000000000000000000000000000000000000000000000000000000000000000000000000000000000000000000000000000000000000000000000000000000000000000000000000000000000000000000000000000000000000000000000000000000000000000000000000000000
310
00002800000000000000000000000000000000000000000000000000000000000000000000000000000000000000000000000000000000000000000000000000000000000000000000000000000000000000000000000000000000000000000000000000000000280000000000000000000000000000000000000000000000
310
00000000000000000000000000000000000000000000000000000000000000000000000000000000000000000000000000000000000000000000000000000000000000000000000000000000000000000000000000000000000000000000000000000000000000000000000000000000000000000000000000000000000000
310
00000000280000000000000000000000000000000000000000000000000000000000000000000000000000000000000000000000000000000000000000000000000000000000000000000000000000000000000000000000000000000000000000000000000000000028000000000000000000000000000000000000000000
310
00000000000000000000000000000000000000000000000000000000000000000000000000000000000000000000000000000000000000000000000000000000000000000000000000000000000000000000000000000000000000000000000000000000000000000000000000000000000000000000000000000000000000
310
00000000000028000000000000000000000000000000000000000000000000000000000000000000000000000000000000000000000000000000000000000000000000000000000000000000000000000000000000000000000000000000000000000000000000000000002800000000000000000000000000000000000000
310
00000000000000000000000000000000000000000000000000000000000000000000000000000000000000000000000000000000000000000000000000000000000000000000000000000000000000000000000000000000000000000000000000000000000000000000000000000000000000000000000000000000000000
310
00000000000000002800000000000000000000000000000000000000000000000000000000000000000000000000000000000000000000000000000000000000000000000000000000000000000000000000000000000000000000000000000000000000000000000000000000280000000000000000000000000000000000
310
00000000000000000000000000000000000000000000000000000000000000000000000000000000000000000000000000000000000000000000000000000000000000000000000000000000000000000000000000000000000000000000000000000000000000000000000000000000000000000000000000000000000000
310
00000000000000000000280000000000000000000000000000000000000000000000000000000000000000000000000000000000000000000000000000000000000000000000000000000000000000000000000000000000000000000000000000000000000000000000000000000028000000000000000000000000000000
310
00000000000000000000000000000000000000000000000000000000000000000000000000000000000000000000000000000000000000000000000000000000000000000000000000000000000000000000000000000000000000000000000000000000000000000000000000000000000000000000000000000000000000
310
00000000000000000000000028000000000000000000000000000000000000000000000000000000000000000000000000000000000000000000000000000000000000000000000000000000000000000000000000000000000000000000000000000000000000000000000000000000002800000000000000000000000000
310
00000000000000000000000000000000000000000000000000000000000000000000000000000000000000000000000000000000000000000000000000000000000000000000000000000000000000000000000000000000000000000000000000000000000000000000000000000000000000000000000000000000000000
310
00000000000000000000000000002800000000000000000000000000000000000000000000000000000000000000000000000000000000000000000000000000000000000000000000000000000000000000000000000000000000000000000000000000000000000000000000000000000000280000000000000000000000
310
00000000000000000000000000000000000000000000000000000000000000000000000000000000000000000000000000000000000000000000000000000000000000000000000000000000000000000000000000000000000000000000000000000000000000000000000000000000000000000000000000000000000000
310
00000000000000000000000000000000280000000000000000000000000000000000000000000000000000000000000000000000000000000000000000000000000000000000000000000000000000000000000000000000000000000000000000000000000000000000000000000000000000000028000000000000000000
310
00000000000000000000000000000000000000000000000000000000000000000000000000000000000000000000000000000000000000000000000000000000000000000000000000000000000000000000000000000000000000000000000000000000000000000000000000000000000000000000000000000000000000
310
00000000000000000000000000000000000028000000000000000000000000000000000000000000000000000000000000000000000000000000000000000000000000000000000000000000000000000000000000000000000000000000000000000000000000000000000000000000000000000000002800000000000000
310
00000000000000000000000000000000000000000000000000000000000000000000000000000000000000000000000000000000000000000000000000000000000000000000000000000000000000000000000000000000000000000000000000000000000000000000000000000000000000000000000000000000000000
310
00000000000000000000000000000000000000002800000000000000000000000000000000000000000000000000000000000000000000000000000000000000000000000000000000000000000000000000000000000000000000000000000000000000000000000000000000000000000000000000000000280000000000
310
00000000000000000000000000000000000000000000000000000000000000000000000000000000000000000000000000000000000000000000000000000000000000000000000000000000000000000000000000000000000000000000000000000000000000000000000000000000000000000000000000000000000000
310
00000000000000000000000000000000000000000000280000000000000000000000000000000000002828282828282828282800000000000000000000002828282828282828282800000000000000000000000000000000000000282828282828282828000000000000000000000000000000000000000000000028000000
310
00000000000000000000000000000000000000000000000000000000000000000000000000000000000000000000000000000000000000000000000000000000000000000000000000000000000000000000000000000000000000000000000000000000000000000000000000000000000000000000000000000000000000
310
00000000000000000000000000000000000000000000000028000000000000000000000000000000000000280000000000000000280000000000000000000000282828282828282828280000000000000000000000000000000000000028002828282828002828000000000000000000000000000000000000000000002800
310
00000000000000000000000000000000000000000000000000000000000000000000000000000000000000000000000000000000000000000000000000000000000000000000000000000000000000000000000000000000000000000000000000000000000000000000000000000000000000000000000000000000000000
310
00000000000000000000000000000000000000000000000000002800000000000000000000000000000000000028000000000000000028000000000000000000000028000000000000000028000000000000000000000000000000000000002800282828282800282800000000000000000000000000000000000000000000
310
28000000000000000000000000000000000000000000000000000000000000000000000000000000000000000000000000000000000000000000000000000000000000000000000000000000000000000000000000000000000000000000000000000000000000000000000000000000000000000000000000000000000000
310
00000000000000000000000000000000000000000000000000000000280000000000000000000000000000000000002800000000000000002800000000000000000000002800000000000000002800000000000000000000000000000000000000282828282828282828280000000000000000000000000000000000000000
310
00002800000000000000000000000000000000000000000000000000000000000000000000000000000000000000000000000000000000000000000000000000000000000000000000000000000000000000000000000000000000000000000000000000000000000000000000000000000000000000000000000000000000
310
00000000000000000000000000000000000000000000000000000000000028000000000000000000000000000000000000280000000000000000280000000000000000000000280000000000000000280000000000000000000000000000000000000028280000000000002828000000000000000000000000000000000000
310
00000000280000000000000000000000000000000000000000000000000000000000000000000000000000000000000000000000000000000000000000000000000000000000000000000000000000000000000000000000000000000000000000000000000000000000000000000000000000000000000000000000000000
310
00000000000000000000000000000000000000000000000000000000000000002800000000000000000000000000000000000028000000000000000028000000000000000000000028000000000000000028000000000000000000000000000000000000002828000028280000282800000000000000000000000000000000
310
00000000000028000000000000000000000000000000000000000000000000000000000000000000000000000000000000000000000000000000000000000000000000000000000000000000000000000000000000000000000000000000000000000000000000000000000000000000000000000000000000000000000000
310
00000000000000000000000000000000000000000000000000000000000000000000280000000000000000000000000000000000002800000000000000002800000000000000000000002800000000000000002800000000000000000000000000000000000000282800002828000028280000000000000000000000000000
310
00000000000000002800000000000000000000000000000000000000000000000000000000000000000000000000000000000000000000000000000000000000000000000000000000000000000000000000000000000000000000000000000000000000000000000000000000000000000000000000000000000000000000
310
00000000000000000000000000000000000000000000000000000000000000000000000028000000000000000000000000000000000000280000000000000000280000000000000000000000280000000000000000280000000000000000000000000000000000000028280000000000002828000000000000000000000000
310
00000000000000000000280000000000000000000000000000000000000000000000000000000000000000000000000000000000000000000000000000000000000000000000000000000000000000000000000000000000000000000000000000000000000000000000000000000000000000000000000000000000000000
310
00000000000000000000000000000000000000000000000000000000000000000000000000002800000000000000000000000000000000000028000000000000000028000000000000000000000028000000000000000028000000000000000000000000000000000000002828000000000000282800000000000000000000
310
00000000000000000000000028000000000000000000000000000000000000000000000000000000000000000000000000000000000000000000000000000000000000000000000000000000000000000000000000000000000000000000000000000000000000000000000000000000000000000000000000000000000000
310
00000000000000000000000000000000000000000000000000000000000000000000000000000000280000000000000000000000000000000000002800000000000000002800000000000000000000002800000000000000002828282828282828280000000000000000000000282828282828282828280000000000000000
310
00000000000000000000000000002800000000000000000000000000000000000000000000000000000000000000000000000000000000000000000000000000000000000000000000000000000000000000000000000000000000000000000000000000000000000000000000000000000000000000000000000000000000
310
00000000000000000000000000000000000000000000000000000000000000000000000000000000000028000000000000000000000000000000000000280000000000000000280000000000000000000000280000000000000000000000000000000028000000000000000000000028002828282828282828000000000000
310
00000000000000000000000000000000280000000000000000000000000000000000000000000000000000000000000000000000000000000000000000000000000000000000000000000000000000000000000000000000000000000000000000000000000000000000000000000000000000000000000000000000000000
310
00000000000000000000000000000000000000000000000000000000000000000000000000000000000000002800000000000000000000000000000000000028000000000000000028000000000000000000000028000000000000000000000000000000002800000000000000000000002828000000000028282800000000
310
00000000000000000000000000000000000028000000000000000000000000000000000000000000000000000000000000000000000000000000000000000000000000000000000000000000000000000000000000000000000000000000000000000000000000000000000000000000000000000000000000000000000000
310
00000000000000000000000000000000000000000000000000000000000000000000000000000000000000000000280000000000000000000000000000000000002800000000000000002800000000000000000000002800000000000000000000000000000000280000000000000000000000280000000000000028280000
310
00000000000000000000000000000000000000002800000000000000000000000000000000000000000000000000000000000000000000000000000000000000000000000000000000000000000000000000000000000000000000000000000000000000000000000000000000000000000000000000000000000000000000
310
00000000000000000000000000000000000000000000000000000000000000000000000000000000000000000000000028000000000000000000000000000000000000280000000000000000280000000000000000000000280000000000000000000000000000000028000000000000000000000028000000000000002828
310
00000000000000000000000000000000000000000000280000000000000000000000000000000000000000000000000000000000000000000000000000000000000000000000000000000000000000000000000000000000000000000000000000000000000000000000000000000000000000000000000000000000000000
310
00000000000000000000000000000000000000000000000000000000000000000000000000000000000000000000000000002800000000000000000000000000000000000028000000000000000028000000000000000000000028000000000000000000000000000000002800000000000000000000002800000000000000
310
28280000000000000000000000000000000000000000000028000000000000000000000000000000000000000000000000000000000000000000000000000000000000000000000000000000000000000000000000000000000000000000000000000000000000000000000000000000000000000000000000000000000000
310
00000000000000000000000000000000000000000000000000000000000000000000000000000000000000000000000000000000280000000000000000000000000000000000002828000000000000282800000000000000000000000028000000000000000000000000000000280000000000000000000000282800000000
310
00282800000000000000000000000000000000000000000000002800000000000000000000000000000000000000000000000000000000000000000000000000000000000000000000000000000000000000000000000000000000000000000000000000000000000000000000000000000000000000000000000000000000
310
00000000000000000000000000000000000000000000000000000000000000000000000000000000000000000000000000000000000028000000000000000000000000000000000000000028000000002800000000000000000000000000002828000000000000000000000000000028000000000000000000000000282828
310
00282828000000000000000000000000000000000000000000000000280000000000000000000000000000000000000000000000000000000000000000000000000000000000000000000000000000000000000000000000000000000000000000000000000000000000000000000000000000000000000000000000000000
310
00000000000000000000000000000000000000000000000000000000000000000000000000000000000000000000000000000000000000002800000000000000000000000000000000000000000028282828000000000000000000000000000000000028282828282828282828282828282800000000000000000000000000
310
28282828280000000000000000000000000000000000000000000000000028000000000000000000000000000000000000000000000000000000000000000000000000000000000000000000000000000000000000000000000000000000000000000000000000000000000000000000000000000000000000000000000000
310
00000000000000000000000000000000000000000000000000000000000000000000000000000000000000000000000000000000000000000000280000000000000000000000000000000000000000000000000000000000000000000000000000000000000000000000000000000000000000000000000000000000000000
310
00000000000000000000000000000000000000000000000000000000000000002800000000000000000000000000000000000000000000000000000000000000000000000000000000000000000000000000000000000000000000000000000000000000000000000000000000000000000000000000000000000000000000
310
00000000000000000000000000000000000000000000000000000000000000000000000000000000000000000000000000000000000000000000000028000000000000000000000000000000000000000000000000000000000000000000000000000000000000000000000000000000000000000000000000000000000000
310
00000000000000000000000000000000000000000000000000000000000000000000280000000000000000000000000000000000000000000000000000000000000000000000000000000000000000000000000000000000000000000000000000000000000000000000000000000000000000000000000000000000000000
310
00000000000000000000000000000000000000000000000000000000000000000000000000000000000000000000000000000000000000000000000000002800000000000000000000000000000000000000000000000000000000000000000000000000000000000000000000000000000000000000000000000000000000
310
00000000000000000000000000000000000000000000000000000000000000000000000028000000000000000000000000000000000000000000000000000000000000000000000000000000000000000000000000000000000000000000000000000000000000000000000000000000000000000000000000000000000000
310
00000000000000000000000000000000000000000000000000000000000000000000000000000000000000000000000000000000000000000000000000000000280000000000000000000000000000000000000000000000000000000000000000000000000000000000000000000000000000000000000000000000000000
310
00000000000000000000000000000000000000000000000000000000000000000000000000002800000000000000000000000000000000000000000000000000000000000000000000000000000000000000000000000000000000000000000000000000000000000000000000000000000000000000000000000000000000
310
00000000000000000000000000000000000000000000000000000000000000000000000000000000000000000000000000000000000000000000000000000000000028000000000000000000000000000000000000000000000000000000000000000000000000000000000000000000000000000000000000000000000000
310
00000000000000000000000000000000000000000000000000000000000000000000000000000000280000000000000000000000000000000000000000000000000000000000000000000000000000000000000000000000000000000000000000000000000000000000000000000000000000000000000000000000000000
310
00000000000000000000000000000000000000000000000000000000000000000000000000000000000000000000000000000000000000000000000000000000000000002800000000000000000000000000000000000000000000000000000000000000000000000000000000000000000000000000000000000000000000
310
00000000000000000000000000000000000000000000000000000000000000000000000000000000000028000000000000000000000000000000000000000000000000000000000000000000000000000000000000000000000000000000000000000000000000000000000000000000000000000000000000000000000000
310
00000000000000000000000000000000000000000000000000000000000000000000000000000000000000000000000000000000000000000000000000000000000000000000280000000000000000000000000000000000000000000000000000000000000000000000000000000000000000000000000000000000000000
310
00000000000000000000000000000000000000000000000000000000000000000000000000000000000000002800000000000000000000000000000000000000000000000000000000000000000000000000000000000000000000000000000000000000000000000000000000000000000000000000000000000000000000
310
00000000000000000000000000000000000000000000000000000000000000000000000000000000000000000000000000000000000000000000000000000000000000000000000028000000000000000000000000000000000000000000000000000000000000000000000000000000000000000000000000000000000000
310
00000000000000000000000000000000000000000000000000000000000000000000000000000000000000000000280000000000000000000000000000000000000000000000000000000000000000000000000000000000000000000000000000000000000000000000000000000000000000000000000000000000000000
310
00000000000000000000000000000000000000000000000000000000000000000000000000000000000000000000000000000000000000000000000000000000000000000000000000002800000028282828282828282828002828280000000000000000000000000000000000000000000000000000000000000000000000
310
00000000000000000000000000000000000000000000000000000000000000000000000000000000000000000000000028000000000000000000000000000000000000000000000000000000000000000000000000000000000000000000000000000000000000000000000000000000000000000000000000000000000000
310
00000000000000000000000000000000000000000000000000000000000000000000000000000000000000000000000000000000000000000000000000000000000000000000000000000000280000000028282828282800002800282828000000000000000000000000000000000000000000000000000000000000000000
310
00000000000000000000000000000000000000000000000000000000000000000000000000000000000000000000000000002800000000000000000000000000000000000000000000000000000000000000000000000000000000000000000000000000000000000000000000000000000000000000000000000000000000
310
00000000000000000000000000000000000000000000000000000000000000000000000000000000000000000000000000000000000000000000000000000000000000000000000000000000000028000000002828282828000000280028282828000000000000000000000000000000000000000000000000000000000000
310
00000000000000000000000000000000000000000000000000000000000000000000000000000000000000000000000000000000280000000000000000000000000000000000000000000000000000000000000000000000000000000000000000000000000000000000000000000000000000000000000000000000000000
310
00000000000000000000000000000000000000000000000000000000000000000000000000000000000000000000000000000000000000000000000000000000000000000000000000000000000000002800000000000000000000000000000000000000000000000000000000000000000000000000000000000000000000
310
00000000000000000000000000000000000000000000000000000000000000000000000000000000000000000000000000000000000028000000000000000000000000000000000000000000000000000000000000000000000000000000000000000000000000000000000000000000000000000000000000000000000000
310
00000000000000000000000000000000000000000000000000000000000000000000000000000000000000000000000000000000000000000000000000000000000000000000000000000000000000000000280000000000000000000000000000000000000000000000000000000000000000000000000000000000000000
310
00000000000000000000000000000000000000000000000000000000000000000000000000000000000000000000000000000000000000002800000000000000000000000000000000000000000000000000000000000000000000000000000000000000000000000000000000000000000000000000000000000000000000
310
00000000000000000000000000000000000000000000000000000000000000000000000000000000000000000000000000000000000000000000000000000000000000000000000000000000000000000000000028000000000000000000000000000000000000000000000000000000000000000000000000000000000000
310
00000000000000000000000000000000000000000000000000000000000000000000000000000000000000000000000000000000000000000000280000000000000000000000000000000000000000000000000000000000000000000000000000000000000000000000000000000000000000000000000000000000000000
310
00000000000000000000000000000000000000000000000000000000000000000000000000000000000000000000000000000000000000000000000000000000000000000000000000000000000000000000000000002800000000000000000000000000000000000000000000000000000000000000000000000000000000
310
00000000000000000000000000000000000000000000000000000000000000000000000000000000000000000000000000000000000000000000000028000000000000000000000000000000000000000000000000000000000000000000000000000000000000000000000000000000000000000000000000000000000000
310
00000000000000000000000000000000000000000000000000000000000000000000000000000000000000000000000000000000000000000000000000000000000000000000000000000000000000000000000000000000282828282828282828282828282828282828282828282828282828282828282828282828282828
310
28282828282828282828282828282828282828282828282828282828282828282828282828282828282828282828282828282828282828282828282828282800000000000000000000000000000000000000000000000000000000000000000000000000000000000000000000000000000000000000000000000000000000
310
00000000000000000000000000000000000000000000000000000000000000000000000000000000000000000000000000000000000000000000000000000000000000000000000000000000000000000000000000000000000000000000000000000000000000000000000000000000000000000000000000000000000000
310
00000000000000000000000000000000000000000000000000000000000000000000000000000000000000000000000000000000000000000000000000000000000000000000000000000000000000000000000000000000000000000000000000000000000000000000000000000000000000000000000000000000000000
310
00000000000000000000000000000000000000000000000000000000000000000000000000000000000000000000000000000000000000000000000000000000000000000000000000000000000000000000000000000000000000000000000000000000000000000000000000000000000000000000000000000000000000
310
00000000000000000000000000000000000000000000000000000000000000000000000000000000000000000000000000000000000000000000000000000000000000000000000000000000000000000000000000000000000000000000000000000000000000000000000000000000000000000000000000000000000000
310
00000000000000000000000000000000000000000000000000000000000000000000000000000000000000000000000000000000000000000000000000000000000000000000000000000000000000000000000000000000000000000000000000000000000000000000000000000000000000000000000000000000000000
310
00000000000000000000000000000000000000000000000000000000000000000000000000000000000000000000000000000000000000000000000000000000000000000000000000000000000000000000000000000000000000000000000000000000000000000000000000000000000000000000000000000000000000
310
00000000000000000000000000000000000000000000000000000000000000000000000000000000000000000000000000000000000000000000000000000000000000000000000000000000000000000000000000000000000000000000000000000000000000000000000000000000000000000000000000000000000000
310
00000000000000000000000000000000000000000000000000000000000000000000000000000000000000000000000000000000000000000000000000000000000000000000000000000000000000000000000000000000000000000000000000000000000000000000000000000000000000000000000000000000000000
310
00000000000000000000000000000000000000000000000000000000000000000000000000000000000000000000000000000000000000000000000000000000000000000000000000000000000000000000000000000000000000000000000000000000000000000000000000000000000000000000000000000000000000
310
00000000000000000000000000000000000000000000000000000000000000000000000000000000000000000000000000000000000000000000000000000000000000000000000000000000000000000000000000000000000000000000000000000000000000000000000000000000000000000000000000000000000000
310
00000000000000000000000000000000000000000000000000000000000000000000000000000000000000000000000000000000000000000000000000000000000000000000000000000000000000000000000000000000000000000000000000000000000000000000000000000000000000000000000000000000000000
310
00000000000000000000000000000000000000000000000000000000000000000000000000000000000000000000000000000000000000000000000000000000000000000000000000000000000000000000000000000000000000000000000000000000000000000000000000000000000000000000000000000000000000
310
00000000000000000000000000000000000000000000000000000000000000000000000000000000000000000000000000000000000000000000000000000000000000000000000000000000000000000000000000000000000000000000000000000000000000000000000000000000000000000000000000000000000000
310
00000000000000000000000000000000000000000000000000000000000000000000000000000000000000000000000000000000000000000000000000000000000000000000000000000000000000000000000000000000000000000000000000000000000000000000000000000000000000000000000000000000000000
310
00000000000000000000000000000000000000000000000000000000000000000000000000000000000000000000000000000000000000000000000000000000000000000000000000000000000000000000000000000000000000000000000000000000000000000000000000000000000000000000000000000000000000
310
00000000000000000000000000000000000000000000000000000000000000000000000000000000000000000000000000000000000000000000000000000000000000000000000000000000000000000000000000000000000000000000000000000000000000000000000000000000000000000000000000000000000000
310
00000000000000000000000000000000000000000000000000000000000000000000000000000000000000000000000000000000000000000000000000000000000000000000000000000000000000000000000000000000000000000000000000000000000000000000000000000000000000000000000000000000000000
310
00000000000000000000000000000000000000000000000000000000000000000000000000000000000000000000000000000000000000000000000000000000000000000000000000000000000000000000000000000000000000000000000000000000000000000000000000000000000000000000000000000000000000
310
00000000000000000000000000000000000000000000000000000000000000000000000000000000000000000000000000000000000000000000000000000000000000000000000000000000000000000000000000000000000000000000000000000000000000000000000000000000000000000000000000000000000000
310
00000000000000000000000000000000000000000000000000000000000000000000000000000000000000000000000000000000000000000000000000000000000000000000000000000000000000000000000000000000000000000000000000000000000000000000000000000000000000000000000000000000000000
310
00000000000000000000000000000000000000000000000000000000000000000000000000000000000000000000000000000000000000000000000000000000000000000000000000000000000000000000000000000000000000000000000000000000000000000000000000000000000000000000000000000000000000
310
00000000000000000000000000000000000000000000000000000000000000000000000000000000000000000000000000000000000000000000000000000000000000000000000000000000000000000000000000000000000000000000000000000000000000000000000000000000000000000000000000000000000000
310
00000000000000000000000000000000000000000000000000000000000000000000000000000000000000000000000000000000000000000000000000000000000000000000000000000000000000000000000000000000000000000000000000000000000000000000000000000000000000000000000000000000000000
310
00000000000000000000000000000000000000000000000000000000000000000000000000000000000000000000000000000000000000000000000000000000000000000000000000000000000000000000000000000000000000000000000000000000000000000000000000000000000000000000000000000000000000
310
00000000000000000000000000000000000000000000000000000000000000000000000000000000000000000000000000000000000000000000000000000000000000000000000000000000000000000000000000000000000000000000000000000000000000000000000000000000000000000000000000000000000000
310
00000000000000000000000000000000000000000000000000000000000000000000000000000000000000000000000000000000000000000000000000000000000000000000000000000000000000000000000000000000000000000000000000000000000000000000000000000000000000000000000000000000000000
310
00000000000000000000000000000000000000000000000000000000000000000000000000000000000000000000000000000000000000000000000000000000000000000000000000000000000000000000000000000000000000000000000000000000000000000000000000000000000000000000000000000000000000
310
00000000000000000000000000000000000000000000000000000000000000000000000000000000000000000000000000000000000000000000000000000000000000000000000000000000000000000000000000000000000000000000000000000000000000000000000000000000000000000000000000000000000000
310
00000000000000000000000000000000000000000000000000000000000000000000000000000000000000000000000000000000000000000000000000000000000000000000000000000000000000000000000000000000000000000000000000000000000000000000000000000000000000000000000000000000000000
310
00000000000000000000000000000000000000000000000000000000000000000000000000000000000000000000000000000000000000000000000000000000000000000000000000000000000000000000000000000000000000000000000000000000000000000000000000000000000000000000000000000000000000
310
00000000000000000000000000000000000000000000000000000000000000000000000000000000000000000000000000000000000000000000000000000000000000000000000000000000000000000000000000000000000000000000000000000000000000000000000000000000000000000000000000000000000000
310
00000000000000000000000000000000000000000000000000000000000000000000000000000000000000000000000000000000000000000000000000000000000000000000000000000000000000000000000000000000000000000000000000000000000000000000000000000000000000000000000000000000000000
310
00000000000000000000000000000000000000000000000000000000000000000000000000000000000000000000000000000000000000000000000000000000000000000000000000000000000000000000000000000000000000000000000000000000000000000000000000000000000000000000000000000000000000
310
00000000000000000000000000000000000000000000000000000000000000000000000000000000000000000000000000000000000000000000000000000000000000000000000000000000000000000000000000000000000000000000000000000000000000000000000000000000000000000000000000000000000000
310
00000000000000000000000000000000000000000000000000000000000000000000000000000000000000000000000000000000000000000000000000000000000000000000000000000000000000000000000000000000000000000000000000000000000000000000000000000000000000000000000000000000000000
310
00000000000000000000000000000000000000000000000000000000000000000000000000000000000000000000000000000000000000000000000000000000000000000000000000000000000000000000000000000000000000000000000000000000000000000000000000000000000000000000000000000000000000
310
00000000000000000000000000000000000000000000000000000000000000000000000000000000000000000000000000000000000000000000000000000000000000000000000000000000000000000000000000000000000000000000000000000000000000000000000000000000000000000000000000000000000000
310
00000000000000000000000000000000000000000000000000000000000000000000000000000000000000000000000000000000000000000000000000000000000000000000000000000000000000000000000000000000000000000000000000000000000000000000000000000000000000000000000000000000000000
310
00000000000000000000000000000000000000000000000000000000000000000000000000000000000000000000000000000000000000000000000000000000000000000000000000000000000000000000000000000000000000000000000000000000000000000000000000000000000000000000000000000000000000
310
00000000000000000000000000000000000000000000000000000000000000000000000000000000000000000000000000000000000000000000000000000000000000000000000000000000000000000000000000000000000000000000000000000000000000000000000000000000000000000000000000000000000000
310
00000000000000000000000000000000000000000000000000000000000000000000000000000000000000000000000000000000000000000000000000000000000000000000000000000000000000000000000000000000000000000000000000000000000000000000000000000000000000000000000000000000000000
310
00000028282828282828282828282828282828282828282828282828282828282828282828282828282828282828282828282828282828282828282828282828282828282828282828282828282828282828282828282828282828282828282828282828282828282800000000000000000000000000000000000000000000
310
00000000000000000000000000000000000000000000000000000000000000000000000000000000000000000000000000000000000000000000000000000000000000000000000000000000000000000000000000000000000000000000000000000000000000000000000000000000000000000000000000000000000000
310
00000000002800000000000000000000000000000000000000000000000000000000000000000000000000000000000000000000000000000000000000000000000000000000000000000000000000000000000000000000000000000000000000000000000000000000280000000000000000000000000000000000000000
310
00000000000000000000000000000000000000000000000000000000000000000000000000000000000000000000000000000000000000000000000000000000000000000000000000000000000000000000000000000000000000000000000000000000000000000000000000000000000000000000000000000000000000
310
00000000000000280000000000000000000000000000000000000000000000000000000000000000000000000000000000000000000000000000000000000000000000000000000000000000000000000000000000000000000000000000000000000000000000000000000028000000000000000000000000000000000000
310
00000000000000000000000000000000000000000000000000000000000000000000000000000000000000000000000000000000000000000000000000000000000000000000000000000000000000000000000000000000000000000000000000000000000000000000000000000000000000000000000000000000000000
310
00000000000000000028000000000000000000000000000000000000000000000000000000000000000000000000000000000000000000000000000000000000000000000000000000000000000000000000000000000000000000000000000000000000000000000000000000002800000000000000000000000000000000
310
00000000000000000000000000000000000000000000000000000000000000000000000000000000000000000000000000000000000000000000000000000000000000000000000000000000000000000000000000000000000000000000000000000000000000000000000000000000000000000000000000000000000000
310
00000000000000000000002800000000000000000000000000000000000000000000000000000000000000000000000000000000000000000000000000000000000000000000000000000000000000000000000000000000000000000000000000000000000000000000000000000000280000000000000000000000000000
310
00000000000000000000000000000000000000000000000000000000000000000000000000000000000000000000000000000000000000000000000000000000000000000000000000000000000000000000000000000000000000000000000000000000000000000000000000000000000000000000000000000000000000
310
00000000000000000000000000280000000000000000000000000000000000000000000000000000000000000000000000000000000000000000000000000000000000000000000000000000000000000000000000000000000000000000000000000000000000000000000000000000000028000000000000000000000000
310
00000000000000000000000000000000000000000000000000000000000000000000000000000000000000000000000000000000000000000000000000000000000000000000000000000000000000000000000000000000000000000000000000000000000000000000000000000000000000000000000000000000000000
310
00000000000000000000000000000028000000000000000000000000000000000000000000000000000000000000000000000000000000000000000000000000000000000000000000000000000000000000000000000000000000000000000000000000000000000000000000000000000000002800000000000000000000
310
00000000000000000000000000000000000000000000000000000000000000000000000000000000000000000000000000000000000000000000000000000000000000000000000000000000000000000000000000000000000000000000000000000000000000000000000000000000000000000000000000000000000000
310
00000000000000000000000000000000002800000000000000000000282828282828282828282828282828282800000000000000000000282828282828282828282828282828280000000000000000000000000000000000000028282828282828282828282828282828280000000000000000000000280000000000000000
310
00000000000000000000000000000000000000000000000000000000000000000000000000000000000000000000000000000000000000000000000000000000000000000000000000000000000000000000000000000000000000000000000000000000000000000000000000000000000000000000000000000000000000
310
00000000000000000000000000000000000000280000000000000000000028000000000000000000000000000000280000000000000000000028000000000000000000000000000028000000000000000000000000000000000000002828000028000000000000000028000028000000000000000000000028000000000000
310
00000000000000000000000000000000000000000000000000000000000000000000000000000000000000000000000000000000000000000000000000000000000000000000000000000000000000000000000000000000000000000000000000000000000000000000000000000000000000000000000000000000000000
310
00000000000000000000000000000000000000000028000000000000000000002800000000000000000000000000000028000000000000000000002800000000000000000000000000002800000000000000000000000000000000000000282800002800000000000000002800002800000000000000000000002800000000
310
00000000000000000000000000000000000000000000000000000000000000000000000000000000000000000000000000000000000000000000000000000000000000000000000000000000000000000000000000000000000000000000000000000000000000000000000000000000000000000000000000000000000000
310
00000000000000000000000000000000000000000000002800000000000000000000280000000000000000000000000000002800000000000000000000280000000000000000000000000000280000000000000000000000000000000000000028282828282828282828282828282828280000000000000000000000280000
310
00000000000000000000000000000000000000000000000000000000000000000000000000000000000000000000000000000000000000000000000000000000000000000000000000000000000000000000000000000000000000000000000000000000000000000000000000000000000000000000000000000000000000
310
00000000000000000000000000000000000000000000000000280000000000000000000028000000000000000000000000000000280000000000000000000028000000000000000000000000000028000000000000000000000000000000000000002828000028000000280000000028000028000000000000000000000028
310
00000000000000000000000000000000000000000000000000000000000000000000000000000000000000000000000000000000000000000000000000000000000000000000000000000000000000000000000000000000000000000000000000000000000000000000000000000000000000000000000000000000000000
310
00000000000000000000000000000000000000000000000000000028000000000000000000002800000000000000000000000000000028000000000000000000002800000000000000000000000000002800000000000000000000000000000000000000282800282800000028280000282800002800000000000000000000
310
00280000000000000000000000000000000000000000000000000000000000000000000000000000000000000000000000000000000000000000000000000000000000000000000000000000000000000000000000000000000000000000000000000000000000000000000000000000000000000000000000000000000000
310
00000000000000000000000000000000000000000000000000000000002800000000000000000000280000000000000000000000000000002800000000000000000000280000000000000000000000000000280000000000000000000000000000000000000028280028280000002828000028280000280000000000000000
310
00000028000000000000000000000000000000000000000000000000000000000000000000000000000000000000000000000000000000000000000000000000000000000000000000000000000000000000000000000000000000000000000000000000000000000000000000000000000000000000000000000000000000
310
00000000000000000000000000000000000000000000000000000000000000280000000000000000000028000000000000000000000000000000280000000000000000000028000000000000000000000000000028000000000000000000000000000000000000002828000000000000000000000000000028000000000000
310
00000000002800000000000000000000000000000000000000000000000000000000000000000000000000000000000000000000000000000000000000000000000000000000000000000000000000000000000000000000000000000000000000000000000000000000000000000000000000000000000000000000000000
310
00000000000000000000000000000000000000000000000000000000000000000028000000000000000000002800000000000000000000000000000028000000000000000000002800000000000000000000000000002800000000000000000000000000000000000000282800000000000000000000000000002800000000
310
00000000000000280000000000000000000000000000000000000000000000000000000000000000000000000000000000000000000000000000000000000000000000000000000000000000000000000000000000000000000000000000000000000000000000000000000000000000000000000000000000000000000000
310
00000000000000000000000000000000000000000000000000000000000000000000002800000000000000000000280000000000000000000000000000002800000000000000000000280000000000000000000000000000280000000000000000000000000000000000000028280000000000000000000000000000280000
310
00000000000000000028000000000000000000000000000000000000000000000000000000000000000000000000000000000000000000000000000000000000000000000000000000000000000000000000000000000000000000000000000000000000000000000000000000000000000000000000000000000000000000
310
00000000000000000000000000000000000000000000000000000000000000000000000000280000000000000000000028000000000000000000000000000000280000000000000000000028000000000000000000000000000028000000000000000000000000000000000000002828000000000000000000000000000028
310
00000000000000000000002800000000000000000000000000000000000000000000000000000000000000000000000000000000000000000000000000000000000000000000000000000000000000000000000000000000000000000000000000000000000000000000000000000000000000000000000000000000000000
310
00000000000000000000000000000000000000000000000000000000000000000000000000000028000000000000000000002800000000000000000000000000000028000000000000000000002800000000000000000000000000002828282828282828282828280000000000000000282828282828282828282828282828
310
28280000000000000000000000280000000000000000000000000000000000000000000000000000000000000000000000000000000000000000000000000000000000000000000000000000000000000000000000000000000000000000000000000000000000000000000000000000000000000000000000000000000000
310
00000000000000000000000000000000000000000000000000000000000000000000000000000000002800000000000000000000280000000000000000000000000000002800000000000000000000280000000000000000000000000000000000000000000000000028000000000000000028280000282828282828282828
310
2800002800000000000000000000002800000000000000000000000000000000000000000000000000000000000000000000000000000000000000000000000000000000
  0
XRECORD
  5
EB36
102
{ACAD_REACTORS
330
EB35
102
}
330
EB35
100
AcDbXrecord
280
     1
102
SHADEPLOT
 70
     0
102
SHADEPLOTRESLEVEL
 70
     2
102
SHADEPLOTCUSTOMDPI
 70
   300
  0
XRECORD
  5
EB01
102
{ACAD_REACTORS
330
DE85
102
}
330
DE85
100
AcDbXrecord
280
     1
102
MATERIAL
148
0.0
149
0.0
149
0.0
 93
        0
 94
      127
282
     0
 72
     0
 77
     0
171
     0
175
     0
179
     0
273
     0
  0
XRECORD
  5
DE87
102
{ACAD_REACTORS
330
DE85
102
}
330
DE85
100
AcDbXrecord
280
     1
270
     1
271
     1
  0
XRECORD
  5
DE86
102
{ACAD_REACTORS
330
DE85
102
}
330
DE85
100
AcDbXrecord
280
     1
270
     1
271
     1
  0
XRECORD
  5
DE8A
102
{ACAD_REACTORS
330
DE85
102
}
330
DE85
100
AcDbXrecord
280
     1
270
     1
271
     1
  0
XRECORD
  5
DE89
102
{ACAD_REACTORS
330
DE85
102
}
330
DE85
100
AcDbXrecord
280
     1
270
     1
271
     1
  0
XRECORD
  5
DE8B
102
{ACAD_REACTORS
330
DE85
102
}
330
DE85
100
AcDbXrecord
280
     1
270
     1
271
     1
  0
XRECORD
  5
DE88
102
{ACAD_REACTORS
330
DE85
102
}
330
DE85
100
AcDbXrecord
280
     1
270
     1
271
     1
  0
XRECORD
  5
EB00
102
{ACAD_REACTORS
330
DE7D
102
}
330
DE7D
100
AcDbXrecord
280
     1
102
MATERIAL
148
0.0
149
0.0
149
0.0
 93
        0
 94
      127
282
     0
 72
     0
 77
     0
171
     0
175
     0
179
     0
273
     0
  0
XRECORD
  5
DE7F
102
{ACAD_REACTORS
330
DE7D
102
}
330
DE7D
100
AcDbXrecord
280
     1
270
     1
271
     1
  0
XRECORD
  5
DE7E
102
{ACAD_REACTORS
330
DE7D
102
}
330
DE7D
100
AcDbXrecord
280
     1
270
     1
271
     1
  0
XRECORD
  5
DE82
102
{ACAD_REACTORS
330
DE7D
102
}
330
DE7D
100
AcDbXrecord
280
     1
270
     1
271
     1
  0
XRECORD
  5
DE81
102
{ACAD_REACTORS
330
DE7D
102
}
330
DE7D
100
AcDbXrecord
280
     1
270
     1
271
     1
  0
XRECORD
  5
DE83
102
{ACAD_REACTORS
330
DE7D
102
}
330
DE7D
100
AcDbXrecord
280
     1
270
     1
271
     1
  0
XRECORD
  5
DE80
102
{ACAD_REACTORS
330
DE7D
102
}
330
DE7D
100
AcDbXrecord
280
     1
270
     1
271
     1
  0
XRECORD
  5
EB02
102
{ACAD_REACTORS
330
DE8D
102
}
330
DE8D
100
AcDbXrecord
280
     1
102
MATERIAL
148
0.0
149
0.0
149
0.0
 93
        0
 94
      127
282
     0
 72
     0
 77
     0
171
     0
175
     0
179
     0
273
     0
  0
XRECORD
  5
DE8F
102
{ACAD_REACTORS
330
DE8D
102
}
330
DE8D
100
AcDbXrecord
280
     1
270
     1
271
     1
  0
XRECORD
  5
DE8E
102
{ACAD_REACTORS
330
DE8D
102
}
330
DE8D
100
AcDbXrecord
280
     1
270
     1
271
     1
  0
XRECORD
  5
DE92
102
{ACAD_REACTORS
330
DE8D
102
}
330
DE8D
100
AcDbXrecord
280
     1
270
     1
271
     1
  0
XRECORD
  5
DE91
102
{ACAD_REACTORS
330
DE8D
102
}
330
DE8D
100
AcDbXrecord
280
     1
270
     1
271
     1
  0
XRECORD
  5
DE93
102
{ACAD_REACTORS
330
DE8D
102
}
330
DE8D
100
AcDbXrecord
280
     1
270
     1
271
     1
  0
XRECORD
  5
DE90
102
{ACAD_REACTORS
330
DE8D
102
}
330
DE8D
100
AcDbXrecord
280
     1
270
     1
271
     1
  0
XRECORD
  5
EAFD
102
{ACAD_REACTORS
330
EAFC
102
}
330
EAFC
100
AcDbXrecord
280
     1
102
ACAD_ROUNDTRIP_2012_MLEADER_STYLE
298
     1
  0
CELLSTYLEMAP
  5
EAFB
102
{ACAD_REACTORS
330
EA31
102
}
330
EA31
100
AcDbCellStyleMap
 90
        3
300
CELLSTYLE
  1
TABLEFORMAT_BEGIN
 90
        5
170
     1
 91
        0
 92
    32768
 62
   257
 93
        1
300
CONTENTFORMAT
  1
CONTENTFORMAT_BEGIN
 90
        0
 91
        0
 92
      512
 93
        0
300

 40
0.0
140
1.0
 94
        5
 62
     0
340
F
144
6.0
309
CONTENTFORMAT_END
171
     1
301
MARGIN
  1
CELLMARGIN_BEGIN
 40
1.5
 40
1.5
 40
1.5
 40
1.5
 40
4.5
 40
4.5
309
CELLMARGIN_END
 94
        6
 95
        1
302
GRIDFORMAT
  1
GRIDFORMAT_BEGIN
 90
        0
 91
        1
 62
     0
 92
       -2
340
0
 93
        0
 40
1.125
309
GRIDFORMAT_END
 95
        2
302
GRIDFORMAT
  1
GRIDFORMAT_BEGIN
 90
        0
 91
        1
 62
     0
 92
       -2
340
0
 93
        0
 40
1.125
309
GRIDFORMAT_END
 95
        4
302
GRIDFORMAT
  1
GRIDFORMAT_BEGIN
 90
        0
 91
        1
 62
     0
 92
       -2
340
0
 93
        0
 40
1.125
309
GRIDFORMAT_END
 95
        8
302
GRIDFORMAT
  1
GRIDFORMAT_BEGIN
 90
        0
 91
        1
 62
     0
 92
       -2
340
0
 93
        0
 40
1.125
309
GRIDFORMAT_END
 95
       16
302
GRIDFORMAT
  1
GRIDFORMAT_BEGIN
 90
        0
 91
        1
 62
     0
 92
       -2
340
0
 93
        0
 40
1.125
309
GRIDFORMAT_END
 95
       32
302
GRIDFORMAT
  1
GRIDFORMAT_BEGIN
 90
        0
 91
        1
 62
     0
 92
       -2
340
0
 93
        0
 40
1.125
309
GRIDFORMAT_END
309
TABLEFORMAT_END
  1
CELLSTYLE_BEGIN
 90
        1
 91
        1
300
_TITLE
309
CELLSTYLE_END
300
CELLSTYLE
  1
TABLEFORMAT_BEGIN
 90
        5
170
     1
 91
        0
 92
        0
 62
   257
 93
        1
300
CONTENTFORMAT
  1
CONTENTFORMAT_BEGIN
 90
        0
 91
        0
 92
      512
 93
        0
300

 40
0.0
140
1.0
 94
        5
 62
     0
340
F
144
4.5
309
CONTENTFORMAT_END
171
     1
301
MARGIN
  1
CELLMARGIN_BEGIN
 40
1.5
 40
1.5
 40
1.5
 40
1.5
 40
4.5
 40
4.5
309
CELLMARGIN_END
 94
        6
 95
        1
302
GRIDFORMAT
  1
GRIDFORMAT_BEGIN
 90
        0
 91
        1
 62
     0
 92
       -2
340
0
 93
        0
 40
1.125
309
GRIDFORMAT_END
 95
        2
302
GRIDFORMAT
  1
GRIDFORMAT_BEGIN
 90
        0
 91
        1
 62
     0
 92
       -2
340
0
 93
        0
 40
1.125
309
GRIDFORMAT_END
 95
        4
302
GRIDFORMAT
  1
GRIDFORMAT_BEGIN
 90
        0
 91
        1
 62
     0
 92
       -2
340
0
 93
        0
 40
1.125
309
GRIDFORMAT_END
 95
        8
302
GRIDFORMAT
  1
GRIDFORMAT_BEGIN
 90
        0
 91
        1
 62
     0
 92
       -2
340
0
 93
        0
 40
1.125
309
GRIDFORMAT_END
 95
       16
302
GRIDFORMAT
  1
GRIDFORMAT_BEGIN
 90
        0
 91
        1
 62
     0
 92
       -2
340
0
 93
        0
 40
1.125
309
GRIDFORMAT_END
 95
       32
302
GRIDFORMAT
  1
GRIDFORMAT_BEGIN
 90
        0
 91
        1
 62
     0
 92
       -2
340
0
 93
        0
 40
1.125
309
GRIDFORMAT_END
309
TABLEFORMAT_END
  1
CELLSTYLE_BEGIN
 90
        2
 91
        1
300
_HEADER
309
CELLSTYLE_END
300
CELLSTYLE
  1
TABLEFORMAT_BEGIN
 90
        5
170
     1
 91
        0
 92
        0
 62
   257
 93
        1
300
CONTENTFORMAT
  1
CONTENTFORMAT_BEGIN
 90
        0
 91
        0
 92
      512
 93
        0
300

 40
0.0
140
1.0
 94
        2
 62
     0
340
F
144
4.5
309
CONTENTFORMAT_END
171
     1
301
MARGIN
  1
CELLMARGIN_BEGIN
 40
1.5
 40
1.5
 40
1.5
 40
1.5
 40
4.5
 40
4.5
309
CELLMARGIN_END
 94
        6
 95
        1
302
GRIDFORMAT
  1
GRIDFORMAT_BEGIN
 90
        0
 91
        1
 62
     0
 92
       -2
340
0
 93
        0
 40
1.125
309
GRIDFORMAT_END
 95
        2
302
GRIDFORMAT
  1
GRIDFORMAT_BEGIN
 90
        0
 91
        1
 62
     0
 92
       -2
340
0
 93
        0
 40
1.125
309
GRIDFORMAT_END
 95
        4
302
GRIDFORMAT
  1
GRIDFORMAT_BEGIN
 90
        0
 91
        1
 62
     0
 92
       -2
340
0
 93
        0
 40
1.125
309
GRIDFORMAT_END
 95
        8
302
GRIDFORMAT
  1
GRIDFORMAT_BEGIN
 90
        0
 91
        1
 62
     0
 92
       -2
340
0
 93
        0
 40
1.125
309
GRIDFORMAT_END
 95
       16
302
GRIDFORMAT
  1
GRIDFORMAT_BEGIN
 90
        0
 91
        1
 62
     0
 92
       -2
340
0
 93
        0
 40
1.125
309
GRIDFORMAT_END
 95
       32
302
GRIDFORMAT
  1
GRIDFORMAT_BEGIN
 90
        0
 91
        1
 62
     0
 92
       -2
340
0
 93
        0
 40
1.125
309
GRIDFORMAT_END
309
TABLEFORMAT_END
  1
CELLSTYLE_BEGIN
 90
        3
 91
        2
300
_DATA
309
CELLSTYLE_END
  0
XRECORD
  5
EB33
102
{ACAD_REACTORS
330
EA31
102
}
330
EA31
100
AcDbXrecord
280
     1
102
ACAD_ROUNDTRIP_PRE2007_TABLESTYLE
 90
      512
 91
        0
  1

 92
      512
 93
        0
  2

 94
      512
 95
        0
  3

  0
XRECORD
  5
EB0E
102
{ACAD_REACTORS
330
EB0D
102
}
330
EB0D
100
AcDbXrecord
280
     1
102
RTVSPropertyOp0
 70
     1
102
RTVSPropertyOp1
 70
     1
102
RTVSPropertyOp2
 70
     1
102
RTVSPropertyOp3
 70
     1
102
RTVSPropertyOp4
 70
     1
102
RTVSPropertyOp5
 70
     1
102
RTVSPropertyOp6
 70
     1
102
RTVSPropertyOp7
 70
     1
102
RTVSPropertyOp8
 70
     1
102
RTVSPropertyOp9
 70
     1
102
RTVSPropertyOp10
 70
     1
102
RTVSPropertyOp11
 70
     1
102
RTVSPropertyOp12
 70
     1
102
RTVSPropertyOp13
 70
     1
102
RTVSPropertyOp14
 70
     1
102
RTVSPropertyOp15
 70
     1
102
RTVSPropertyOp16
 70
     1
102
RTVSPropertyOp17
 70
     1
102
RTVSPropertyOp18
 70
     1
102
RTVSPropertyOp19
 70
     1
102
RTVSPropertyOp20
 70
     1
102
RTVSPropertyOp21
 70
     1
102
RTVSPropertyOp22
 70
     1
102
RTVSPropertyOp23
 70
     1
102
RTVSPropertyOp24
 70
     1
102
RTVSPropertyOp25
 70
     1
102
RTVSPropertyOp26
 70
     1
102
RTVSPropertyOp27
 70
     1
102
RTVSPropertyOp28
 70
     1
102
RTVSPropertyOp29
 70
     1
102
RTVSPropertyOp30
 70
     1
102
RTVSPropertyOp31
 70
     1
102
RTVSPropertyOp32
 70
     1
  0
XRECORD
  5
EB0C
102
{ACAD_REACTORS
330
EB0B
102
}
330
EB0B
100
AcDbXrecord
280
     1
102
RTVSPropertyOp0
 70
     1
102
RTVSPropertyOp1
 70
     1
102
RTVSPropertyOp2
 70
     1
102
RTVSPropertyOp3
 70
     1
102
RTVSPropertyOp4
 70
     1
102
RTVSPropertyOp5
 70
     1
102
RTVSPropertyOp6
 70
     1
102
RTVSPropertyOp7
 70
     1
102
RTVSPropertyOp8
 70
     1
102
RTVSPropertyOp9
 70
     1
102
RTVSPropertyOp10
 70
     1
102
RTVSPropertyOp11
 70
     1
102
RTVSPropertyOp12
 70
     1
102
RTVSPropertyOp13
 70
     1
102
RTVSPropertyOp14
 70
     1
102
RTVSPropertyOp15
 70
     1
102
RTVSPropertyOp16
 70
     1
102
RTVSPropertyOp17
 70
     1
102
RTVSPropertyOp18
 70
     1
102
RTVSPropertyOp19
 70
     1
102
RTVSPropertyOp20
 70
     1
102
RTVSPropertyOp21
 70
     1
102
RTVSPropertyOp22
 70
     1
102
RTVSPropertyOp23
 70
     1
102
RTVSPropertyOp24
 70
     1
102
RTVSPropertyOp25
 70
     1
102
RTVSPropertyOp26
 70
     1
102
RTVSPropertyOp27
 70
     1
102
RTVSPropertyOp28
 70
     1
102
RTVSPropertyOp29
 70
     1
102
RTVSPropertyOp30
 70
     1
102
RTVSPropertyOp31
 70
     1
102
RTVSPropertyOp32
 70
     1
  0
XRECORD
  5
EB1A
102
{ACAD_REACTORS
330
EB19
102
}
330
EB19
100
AcDbXrecord
280
     1
102
RTVSPropertyOp0
 70
     1
102
RTVSPropertyOp1
 70
     1
102
RTVSPropertyOp2
 70
     1
102
RTVSPropertyOp3
 70
     1
102
RTVSPropertyOp4
 70
     1
102
RTVSPropertyOp5
 70
     1
102
RTVSPropertyOp6
 70
     1
102
RTVSPropertyOp7
 70
     1
102
RTVSPropertyOp8
 70
     1
102
RTVSPropertyOp9
 70
     1
102
RTVSPropertyOp10
 70
     1
102
RTVSPropertyOp11
 70
     1
102
RTVSPropertyOp12
 70
     1
102
RTVSPropertyOp13
 70
     1
102
RTVSPropertyOp14
 70
     1
102
RTVSPropertyOp15
 70
     1
102
RTVSPropertyOp16
 70
     1
102
RTVSPropertyOp17
 70
     1
102
RTVSPropertyOp18
 70
     1
102
RTVSPropertyOp19
 70
     1
102
RTVSPropertyOp20
 70
     1
102
RTVSPropertyOp21
 70
     1
102
RTVSPropertyOp22
 70
     1
102
RTVSPropertyOp23
 70
     1
102
RTVSPropertyOp24
 70
     1
102
RTVSPropertyOp25
 70
     1
102
RTVSPropertyOp26
 70
     1
102
RTVSPropertyOp27
 70
     1
102
RTVSPropertyOp28
 70
     1
102
RTVSPropertyOp29
 70
     1
102
RTVSPropertyOp30
 70
     1
102
RTVSPropertyOp31
 70
     1
102
RTVSPropertyOp32
 70
     1
  0
XRECORD
  5
EB22
102
{ACAD_REACTORS
330
EB21
102
}
330
EB21
100
AcDbXrecord
280
     1
102
RTVSPropertyOp0
 70
     1
102
RTVSPropertyOp1
 70
     1
102
RTVSPropertyOp2
 70
     1
102
RTVSPropertyOp3
 70
     1
102
RTVSPropertyOp4
 70
     1
102
RTVSPropertyOp5
 70
     1
102
RTVSPropertyOp6
 70
     1
102
RTVSPropertyOp7
 70
     1
102
RTVSPropertyOp8
 70
     1
102
RTVSPropertyOp9
 70
     1
102
RTVSPropertyOp10
 70
     1
102
RTVSPropertyOp11
 70
     1
102
RTVSPropertyOp12
 70
     1
102
RTVSPropertyOp13
 70
     1
102
RTVSPropertyOp14
 70
     1
102
RTVSPropertyOp15
 70
     1
102
RTVSPropertyOp16
 70
     1
102
RTVSPropertyOp17
 70
     1
102
RTVSPropertyOp18
 70
     1
102
RTVSPropertyOp19
 70
     1
102
RTVSPropertyOp20
 70
     1
102
RTVSPropertyOp21
 70
     1
102
RTVSPropertyOp22
 70
     1
102
RTVSPropertyOp23
 70
     1
102
RTVSPropertyOp24
 70
     1
102
RTVSPropertyOp25
 70
     1
102
RTVSPropertyOp26
 70
     1
102
RTVSPropertyOp27
 70
     1
102
RTVSPropertyOp28
 70
     1
102
RTVSPropertyOp29
 70
     1
102
RTVSPropertyOp30
 70
     1
102
RTVSPropertyOp31
 70
     1
102
RTVSPropertyOp32
 70
     1
  0
XRECORD
  5
EB14
102
{ACAD_REACTORS
330
EB13
102
}
330
EB13
100
AcDbXrecord
280
     1
102
RTVSPropertyOp0
 70
     1
102
RTVSPropertyOp1
 70
     1
102
RTVSPropertyOp2
 70
     1
102
RTVSPropertyOp3
 70
     1
102
RTVSPropertyOp4
 70
     1
102
RTVSPropertyOp5
 70
     1
102
RTVSPropertyOp6
 70
     1
102
RTVSPropertyOp7
 70
     1
102
RTVSPropertyOp8
 70
     1
102
RTVSPropertyOp9
 70
     1
102
RTVSPropertyOp10
 70
     1
102
RTVSPropertyOp11
 70
     1
102
RTVSPropertyOp12
 70
     1
102
RTVSPropertyOp13
 70
     1
102
RTVSPropertyOp14
 70
     1
102
RTVSPropertyOp15
 70
     1
102
RTVSPropertyOp16
 70
     1
102
RTVSPropertyOp17
 70
     1
102
RTVSPropertyOp18
 70
     1
102
RTVSPropertyOp19
 70
     1
102
RTVSPropertyOp20
 70
     1
102
RTVSPropertyOp21
 70
     1
102
RTVSPropertyOp22
 70
     1
102
RTVSPropertyOp23
 70
     1
102
RTVSPropertyOp24
 70
     1
102
RTVSPropertyOp25
 70
     1
102
RTVSPropertyOp26
 70
     1
102
RTVSPropertyOp27
 70
     1
102
RTVSPropertyOp28
 70
     1
102
RTVSPropertyOp29
 70
     1
102
RTVSPropertyOp30
 70
     1
102
RTVSPropertyOp31
 70
     1
102
RTVSPropertyOp32
 70
     1
  0
XRECORD
  5
EB18
102
{ACAD_REACTORS
330
EB17
102
}
330
EB17
100
AcDbXrecord
280
     1
102
RTVSPropertyOp0
 70
     1
102
RTVSPropertyOp1
 70
     1
102
RTVSPropertyOp2
 70
     1
102
RTVSPropertyOp3
 70
     1
102
RTVSPropertyOp4
 70
     1
102
RTVSPropertyOp5
 70
     1
102
RTVSPropertyOp6
 70
     1
102
RTVSPropertyOp7
 70
     1
102
RTVSPropertyOp8
 70
     1
102
RTVSPropertyOp9
 70
     1
102
RTVSPropertyOp10
 70
     1
102
RTVSPropertyOp11
 70
     1
102
RTVSPropertyOp12
 70
     1
102
RTVSPropertyOp13
 70
     1
102
RTVSPropertyOp14
 70
     1
102
RTVSPropertyOp15
 70
     1
102
RTVSPropertyOp16
 70
     1
102
RTVSPropertyOp17
 70
     1
102
RTVSPropertyOp18
 70
     1
102
RTVSPropertyOp19
 70
     1
102
RTVSPropertyOp20
 70
     1
102
RTVSPropertyOp21
 70
     1
102
RTVSPropertyOp22
 70
     1
102
RTVSPropertyOp23
 70
     1
102
RTVSPropertyOp24
 70
     1
102
RTVSPropertyOp25
 70
     1
102
RTVSPropertyOp26
 70
     1
102
RTVSPropertyOp27
 70
     1
102
RTVSPropertyOp28
 70
     1
102
RTVSPropertyOp29
 70
     1
102
RTVSPropertyOp30
 70
     1
102
RTVSPropertyOp31
 70
     1
102
RTVSPropertyOp32
 70
     1
  0
XRECORD
  5
EB32
102
{ACAD_REACTORS
330
EB31
102
}
330
EB31
100
AcDbXrecord
280
     1
102
RTVSPropertyOp0
 70
     0
102
RTVSPropertyOp1
 70
     0
102
RTVSPropertyOp2
 70
     0
102
RTVSPropertyOp3
 70
     0
102
RTVSPropertyOp4
 70
     0
102
RTVSPropertyOp5
 70
     0
102
RTVSPropertyOp6
 70
     0
102
RTVSPropertyOp7
 70
     0
102
RTVSPropertyOp8
 70
     0
102
RTVSPropertyOp9
 70
     0
102
RTVSPropertyOp10
 70
     0
102
RTVSPropertyOp11
 70
     0
102
RTVSPropertyOp12
 70
     0
102
RTVSPropertyOp13
 70
     0
102
RTVSPropertyOp14
 70
     2
102
RTVSPropertyOp15
 70
     0
102
RTVSPropertyOp16
 70
     0
102
RTVSPropertyOp17
 70
     0
102
RTVSPropertyOp18
 70
     0
102
RTVSPropertyOp19
 70
     0
102
RTVSPropertyOp20
 70
     0
102
RTVSPropertyOp21
 70
     0
102
RTVSPropertyOp22
 70
     0
102
RTVSPropertyOp23
 70
     0
102
RTVSPropertyOp24
 70
     0
102
RTVSPropertyOp25
 70
     0
102
RTVSPropertyOp26
 70
     0
102
RTVSPropertyOp27
 70
     0
102
RTVSPropertyOp28
 70
     1
102
RTVSPropertyOp29
 70
     1
102
RTVSPropertyOp30
 70
     1
102
RTVSPropertyOp31
 70
     1
102
RTVSPropertyOp32
 70
     1
  0
XRECORD
  5
EB20
102
{ACAD_REACTORS
330
EB1F
102
}
330
EB1F
100
AcDbXrecord
280
     1
102
RTVSPropertyOp0
 70
     1
102
RTVSPropertyOp1
 70
     1
102
RTVSPropertyOp2
 70
     1
102
RTVSPropertyOp3
 70
     1
102
RTVSPropertyOp4
 70
     1
102
RTVSPropertyOp5
 70
     1
102
RTVSPropertyOp6
 70
     1
102
RTVSPropertyOp7
 70
     1
102
RTVSPropertyOp8
 70
     1
102
RTVSPropertyOp9
 70
     1
102
RTVSPropertyOp10
 70
     1
102
RTVSPropertyOp11
 70
     1
102
RTVSPropertyOp12
 70
     1
102
RTVSPropertyOp13
 70
     1
102
RTVSPropertyOp14
 70
     1
102
RTVSPropertyOp15
 70
     1
102
RTVSPropertyOp16
 70
     1
102
RTVSPropertyOp17
 70
     1
102
RTVSPropertyOp18
 70
     1
102
RTVSPropertyOp19
 70
     1
102
RTVSPropertyOp20
 70
     1
102
RTVSPropertyOp21
 70
     1
102
RTVSPropertyOp22
 70
     1
102
RTVSPropertyOp23
 70
     1
102
RTVSPropertyOp24
 70
     1
102
RTVSPropertyOp25
 70
     1
102
RTVSPropertyOp26
 70
     1
102
RTVSPropertyOp27
 70
     1
102
RTVSPropertyOp28
 70
     1
102
RTVSPropertyOp29
 70
     1
102
RTVSPropertyOp30
 70
     1
102
RTVSPropertyOp31
 70
     1
102
RTVSPropertyOp32
 70
     1
  0
XRECORD
  5
EB04
102
{ACAD_REACTORS
330
EB03
102
}
330
EB03
100
AcDbXrecord
280
     1
102
RTVSPropertyOp0
 70
     1
102
RTVSPropertyOp1
 70
     1
102
RTVSPropertyOp2
 70
     1
102
RTVSPropertyOp3
 70
     1
102
RTVSPropertyOp4
 70
     1
102
RTVSPropertyOp5
 70
     1
102
RTVSPropertyOp6
 70
     1
102
RTVSPropertyOp7
 70
     1
102
RTVSPropertyOp8
 70
     1
102
RTVSPropertyOp9
 70
     1
102
RTVSPropertyOp10
 70
     1
102
RTVSPropertyOp11
 70
     1
102
RTVSPropertyOp12
 70
     1
102
RTVSPropertyOp13
 70
     1
102
RTVSPropertyOp14
 70
     1
102
RTVSPropertyOp15
 70
     1
102
RTVSPropertyOp16
 70
     1
102
RTVSPropertyOp17
 70
     1
102
RTVSPropertyOp18
 70
     1
102
RTVSPropertyOp19
 70
     1
102
RTVSPropertyOp20
 70
     1
102
RTVSPropertyOp21
 70
     1
102
RTVSPropertyOp22
 70
     1
102
RTVSPropertyOp23
 70
     1
102
RTVSPropertyOp24
 70
     1
102
RTVSPropertyOp25
 70
     1
102
RTVSPropertyOp26
 70
     1
102
RTVSPropertyOp27
 70
     1
102
RTVSPropertyOp28
 70
     1
102
RTVSPropertyOp29
 70
     1
102
RTVSPropertyOp30
 70
     1
102
RTVSPropertyOp31
 70
     1
102
RTVSPropertyOp32
 70
     1
  0
XRECORD
  5
EB06
102
{ACAD_REACTORS
330
EB05
102
}
330
EB05
100
AcDbXrecord
280
     1
102
RTVSPropertyOp0
 70
     1
102
RTVSPropertyOp1
 70
     1
102
RTVSPropertyOp2
 70
     1
102
RTVSPropertyOp3
 70
     1
102
RTVSPropertyOp4
 70
     1
102
RTVSPropertyOp5
 70
     1
102
RTVSPropertyOp6
 70
     1
102
RTVSPropertyOp7
 70
     1
102
RTVSPropertyOp8
 70
     1
102
RTVSPropertyOp9
 70
     1
102
RTVSPropertyOp10
 70
     1
102
RTVSPropertyOp11
 70
     1
102
RTVSPropertyOp12
 70
     1
102
RTVSPropertyOp13
 70
     1
102
RTVSPropertyOp14
 70
     1
102
RTVSPropertyOp15
 70
     1
102
RTVSPropertyOp16
 70
     1
102
RTVSPropertyOp17
 70
     1
102
RTVSPropertyOp18
 70
     1
102
RTVSPropertyOp19
 70
     1
102
RTVSPropertyOp20
 70
     1
102
RTVSPropertyOp21
 70
     1
102
RTVSPropertyOp22
 70
     1
102
RTVSPropertyOp23
 70
     1
102
RTVSPropertyOp24
 70
     1
102
RTVSPropertyOp25
 70
     1
102
RTVSPropertyOp26
 70
     1
102
RTVSPropertyOp27
 70
     1
102
RTVSPropertyOp28
 70
     1
102
RTVSPropertyOp29
 70
     1
102
RTVSPropertyOp30
 70
     1
102
RTVSPropertyOp31
 70
     1
102
RTVSPropertyOp32
 70
     1
  0
XRECORD
  5
EB08
102
{ACAD_REACTORS
330
EB07
102
}
330
EB07
100
AcDbXrecord
280
     1
102
RTVSPropertyOp0
 70
     1
102
RTVSPropertyOp1
 70
     1
102
RTVSPropertyOp2
 70
     1
102
RTVSPropertyOp3
 70
     1
102
RTVSPropertyOp4
 70
     1
102
RTVSPropertyOp5
 70
     1
102
RTVSPropertyOp6
 70
     1
102
RTVSPropertyOp7
 70
     1
102
RTVSPropertyOp8
 70
     1
102
RTVSPropertyOp9
 70
     1
102
RTVSPropertyOp10
 70
     1
102
RTVSPropertyOp11
 70
     1
102
RTVSPropertyOp12
 70
     1
102
RTVSPropertyOp13
 70
     1
102
RTVSPropertyOp14
 70
     1
102
RTVSPropertyOp15
 70
     1
102
RTVSPropertyOp16
 70
     1
102
RTVSPropertyOp17
 70
     1
102
RTVSPropertyOp18
 70
     1
102
RTVSPropertyOp19
 70
     1
102
RTVSPropertyOp20
 70
     1
102
RTVSPropertyOp21
 70
     1
102
RTVSPropertyOp22
 70
     1
102
RTVSPropertyOp23
 70
     1
102
RTVSPropertyOp24
 70
     1
102
RTVSPropertyOp25
 70
     1
102
RTVSPropertyOp26
 70
     1
102
RTVSPropertyOp27
 70
     1
102
RTVSPropertyOp28
 70
     1
102
RTVSPropertyOp29
 70
     1
102
RTVSPropertyOp30
 70
     1
102
RTVSPropertyOp31
 70
     1
102
RTVSPropertyOp32
 70
     1
  0
XRECORD
  5
EB0A
102
{ACAD_REACTORS
330
EB09
102
}
330
EB09
100
AcDbXrecord
280
     1
102
RTVSPropertyOp0
 70
     1
102
RTVSPropertyOp1
 70
     1
102
RTVSPropertyOp2
 70
     1
102
RTVSPropertyOp3
 70
     1
102
RTVSPropertyOp4
 70
     1
102
RTVSPropertyOp5
 70
     1
102
RTVSPropertyOp6
 70
     1
102
RTVSPropertyOp7
 70
     1
102
RTVSPropertyOp8
 70
     1
102
RTVSPropertyOp9
 70
     1
102
RTVSPropertyOp10
 70
     1
102
RTVSPropertyOp11
 70
     1
102
RTVSPropertyOp12
 70
     1
102
RTVSPropertyOp13
 70
     1
102
RTVSPropertyOp14
 70
     1
102
RTVSPropertyOp15
 70
     1
102
RTVSPropertyOp16
 70
     1
102
RTVSPropertyOp17
 70
     1
102
RTVSPropertyOp18
 70
     1
102
RTVSPropertyOp19
 70
     1
102
RTVSPropertyOp20
 70
     1
102
RTVSPropertyOp21
 70
     1
102
RTVSPropertyOp22
 70
     1
102
RTVSPropertyOp23
 70
     1
102
RTVSPropertyOp24
 70
     1
102
RTVSPropertyOp25
 70
     1
102
RTVSPropertyOp26
 70
     1
102
RTVSPropertyOp27
 70
     1
102
RTVSPropertyOp28
 70
     1
102
RTVSPropertyOp29
 70
     1
102
RTVSPropertyOp30
 70
     1
102
RTVSPropertyOp31
 70
     1
102
RTVSPropertyOp32
 70
     1
  0
XRECORD
  5
EB12
102
{ACAD_REACTORS
330
EB11
102
}
330
EB11
100
AcDbXrecord
280
     1
102
RTVSPropertyOp0
 70
     1
102
RTVSPropertyOp1
 70
     1
102
RTVSPropertyOp2
 70
     1
102
RTVSPropertyOp3
 70
     1
102
RTVSPropertyOp4
 70
     1
102
RTVSPropertyOp5
 70
     1
102
RTVSPropertyOp6
 70
     1
102
RTVSPropertyOp7
 70
     1
102
RTVSPropertyOp8
 70
     1
102
RTVSPropertyOp9
 70
     1
102
RTVSPropertyOp10
 70
     1
102
RTVSPropertyOp11
 70
     1
102
RTVSPropertyOp12
 70
     1
102
RTVSPropertyOp13
 70
     1
102
RTVSPropertyOp14
 70
     1
102
RTVSPropertyOp15
 70
     1
102
RTVSPropertyOp16
 70
     1
102
RTVSPropertyOp17
 70
     1
102
RTVSPropertyOp18
 70
     1
102
RTVSPropertyOp19
 70
     1
102
RTVSPropertyOp20
 70
     1
102
RTVSPropertyOp21
 70
     1
102
RTVSPropertyOp22
 70
     1
102
RTVSPropertyOp23
 70
     1
102
RTVSPropertyOp24
 70
     1
102
RTVSPropertyOp25
 70
     1
102
RTVSPropertyOp26
 70
     1
102
RTVSPropertyOp27
 70
     1
102
RTVSPropertyOp28
 70
     1
102
RTVSPropertyOp29
 70
     1
102
RTVSPropertyOp30
 70
     1
102
RTVSPropertyOp31
 70
     1
102
RTVSPropertyOp32
 70
     1
  0
XRECORD
  5
EB2E
102
{ACAD_REACTORS
330
EB2D
102
}
330
EB2D
100
AcDbXrecord
280
     1
102
RTVSPropertyOp0
 70
     0
102
RTVSPropertyOp1
 70
     0
102
RTVSPropertyOp2
 70
     0
102
RTVSPropertyOp3
 70
     0
102
RTVSPropertyOp4
 70
     0
102
RTVSPropertyOp5
 70
     0
102
RTVSPropertyOp6
 70
     0
102
RTVSPropertyOp7
 70
     0
102
RTVSPropertyOp8
 70
     0
102
RTVSPropertyOp9
 70
     0
102
RTVSPropertyOp10
 70
     0
102
RTVSPropertyOp11
 70
     0
102
RTVSPropertyOp12
 70
     0
102
RTVSPropertyOp13
 70
     0
102
RTVSPropertyOp14
 70
     2
102
RTVSPropertyOp15
 70
     0
102
RTVSPropertyOp16
 70
     0
102
RTVSPropertyOp17
 70
     0
102
RTVSPropertyOp18
 70
     0
102
RTVSPropertyOp19
 70
     0
102
RTVSPropertyOp20
 70
     0
102
RTVSPropertyOp21
 70
     0
102
RTVSPropertyOp22
 70
     0
102
RTVSPropertyOp23
 70
     0
102
RTVSPropertyOp24
 70
     0
102
RTVSPropertyOp25
 70
     0
102
RTVSPropertyOp26
 70
     0
102
RTVSPropertyOp27
 70
     0
102
RTVSPropertyOp28
 70
     1
102
RTVSPropertyOp29
 70
     1
102
RTVSPropertyOp30
 70
     1
102
RTVSPropertyOp31
 70
     1
102
RTVSPropertyOp32
 70
     1
  0
XRECORD
  5
EB1E
102
{ACAD_REACTORS
330
EB1D
102
}
330
EB1D
100
AcDbXrecord
280
     1
102
RTVSPropertyOp0
 70
     1
102
RTVSPropertyOp1
 70
     1
102
RTVSPropertyOp2
 70
     1
102
RTVSPropertyOp3
 70
     1
102
RTVSPropertyOp4
 70
     1
102
RTVSPropertyOp5
 70
     1
102
RTVSPropertyOp6
 70
     1
102
RTVSPropertyOp7
 70
     1
102
RTVSPropertyOp8
 70
     1
102
RTVSPropertyOp9
 70
     1
102
RTVSPropertyOp10
 70
     1
102
RTVSPropertyOp11
 70
     1
102
RTVSPropertyOp12
 70
     1
102
RTVSPropertyOp13
 70
     1
102
RTVSPropertyOp14
 70
     1
102
RTVSPropertyOp15
 70
     1
102
RTVSPropertyOp16
 70
     1
102
RTVSPropertyOp17
 70
     1
102
RTVSPropertyOp18
 70
     1
102
RTVSPropertyOp19
 70
     1
102
RTVSPropertyOp20
 70
     1
102
RTVSPropertyOp21
 70
     1
102
RTVSPropertyOp22
 70
     1
102
RTVSPropertyOp23
 70
     1
102
RTVSPropertyOp24
 70
     1
102
RTVSPropertyOp25
 70
     1
102
RTVSPropertyOp26
 70
     1
102
RTVSPropertyOp27
 70
     1
102
RTVSPropertyOp28
 70
     1
102
RTVSPropertyOp29
 70
     1
102
RTVSPropertyOp30
 70
     1
102
RTVSPropertyOp31
 70
     1
102
RTVSPropertyOp32
 70
     1
  0
XRECORD
  5
EB30
102
{ACAD_REACTORS
330
EB2F
102
}
330
EB2F
100
AcDbXrecord
280
     1
102
RTVSPropertyOp0
 70
     0
102
RTVSPropertyOp1
 70
     0
102
RTVSPropertyOp2
 70
     0
102
RTVSPropertyOp3
 70
     0
102
RTVSPropertyOp4
 70
     0
102
RTVSPropertyOp5
 70
     0
102
RTVSPropertyOp6
 70
     0
102
RTVSPropertyOp7
 70
     0
102
RTVSPropertyOp8
 70
     0
102
RTVSPropertyOp9
 70
     0
102
RTVSPropertyOp10
 70
     0
102
RTVSPropertyOp11
 70
     0
102
RTVSPropertyOp12
 70
     0
102
RTVSPropertyOp13
 70
     0
102
RTVSPropertyOp14
 70
     2
102
RTVSPropertyOp15
 70
     0
102
RTVSPropertyOp16
 70
     0
102
RTVSPropertyOp17
 70
     0
102
RTVSPropertyOp18
 70
     0
102
RTVSPropertyOp19
 70
     0
102
RTVSPropertyOp20
 70
     0
102
RTVSPropertyOp21
 70
     0
102
RTVSPropertyOp22
 70
     0
102
RTVSPropertyOp23
 70
     0
102
RTVSPropertyOp24
 70
     0
102
RTVSPropertyOp25
 70
     0
102
RTVSPropertyOp26
 70
     0
102
RTVSPropertyOp27
 70
     0
102
RTVSPropertyOp28
 70
     1
102
RTVSPropertyOp29
 70
     1
102
RTVSPropertyOp30
 70
     1
102
RTVSPropertyOp31
 70
     1
102
RTVSPropertyOp32
 70
     1
  0
XRECORD
  5
EB16
102
{ACAD_REACTORS
330
EB15
102
}
330
EB15
100
AcDbXrecord
280
     1
102
RTVSPropertyOp0
 70
     1
102
RTVSPropertyOp1
 70
     1
102
RTVSPropertyOp2
 70
     1
102
RTVSPropertyOp3
 70
     1
102
RTVSPropertyOp4
 70
     1
102
RTVSPropertyOp5
 70
     1
102
RTVSPropertyOp6
 70
     1
102
RTVSPropertyOp7
 70
     1
102
RTVSPropertyOp8
 70
     1
102
RTVSPropertyOp9
 70
     1
102
RTVSPropertyOp10
 70
     1
102
RTVSPropertyOp11
 70
     1
102
RTVSPropertyOp12
 70
     1
102
RTVSPropertyOp13
 70
     1
102
RTVSPropertyOp14
 70
     1
102
RTVSPropertyOp15
 70
     1
102
RTVSPropertyOp16
 70
     1
102
RTVSPropertyOp17
 70
     1
102
RTVSPropertyOp18
 70
     1
102
RTVSPropertyOp19
 70
     1
102
RTVSPropertyOp20
 70
     1
102
RTVSPropertyOp21
 70
     1
102
RTVSPropertyOp22
 70
     1
102
RTVSPropertyOp23
 70
     1
102
RTVSPropertyOp24
 70
     1
102
RTVSPropertyOp25
 70
     1
102
RTVSPropertyOp26
 70
     1
102
RTVSPropertyOp27
 70
     1
102
RTVSPropertyOp28
 70
     1
102
RTVSPropertyOp29
 70
     1
102
RTVSPropertyOp30
 70
     1
102
RTVSPropertyOp31
 70
     1
102
RTVSPropertyOp32
 70
     1
  0
XRECORD
  5
EB2C
102
{ACAD_REACTORS
330
EB2B
102
}
330
EB2B
100
AcDbXrecord
280
     1
102
RTVSPropertyOp0
 70
     1
102
RTVSPropertyOp1
 70
     1
102
RTVSPropertyOp2
 70
     1
102
RTVSPropertyOp3
 70
     1
102
RTVSPropertyOp4
 70
     1
102
RTVSPropertyOp5
 70
     1
102
RTVSPropertyOp6
 70
     1
102
RTVSPropertyOp7
 70
     1
102
RTVSPropertyOp8
 70
     1
102
RTVSPropertyOp9
 70
     1
102
RTVSPropertyOp10
 70
     1
102
RTVSPropertyOp11
 70
     1
102
RTVSPropertyOp12
 70
     1
102
RTVSPropertyOp13
 70
     1
102
RTVSPropertyOp14
 70
     1
102
RTVSPropertyOp15
 70
     1
102
RTVSPropertyOp16
 70
     1
102
RTVSPropertyOp17
 70
     1
102
RTVSPropertyOp18
 70
     1
102
RTVSPropertyOp19
 70
     1
102
RTVSPropertyOp20
 70
     1
102
RTVSPropertyOp21
 70
     1
102
RTVSPropertyOp22
 70
     1
102
RTVSPropertyOp23
 70
     1
102
RTVSPropertyOp24
 70
     1
102
RTVSPropertyOp25
 70
     1
102
RTVSPropertyOp26
 70
     1
102
RTVSPropertyOp27
 70
     1
102
RTVSPropertyOp28
 70
     1
102
RTVSPropertyOp29
 70
     1
102
RTVSPropertyOp30
 70
     1
102
RTVSPropertyOp31
 70
     1
102
RTVSPropertyOp32
 70
     1
  0
XRECORD
  5
EB2A
102
{ACAD_REACTORS
330
EB29
102
}
330
EB29
100
AcDbXrecord
280
     1
102
RTVSPropertyOp0
 70
     1
102
RTVSPropertyOp1
 70
     1
102
RTVSPropertyOp2
 70
     1
102
RTVSPropertyOp3
 70
     1
102
RTVSPropertyOp4
 70
     1
102
RTVSPropertyOp5
 70
     1
102
RTVSPropertyOp6
 70
     1
102
RTVSPropertyOp7
 70
     1
102
RTVSPropertyOp8
 70
     1
102
RTVSPropertyOp9
 70
     1
102
RTVSPropertyOp10
 70
     1
102
RTVSPropertyOp11
 70
     1
102
RTVSPropertyOp12
 70
     1
102
RTVSPropertyOp13
 70
     1
102
RTVSPropertyOp14
 70
     1
102
RTVSPropertyOp15
 70
     1
102
RTVSPropertyOp16
 70
     1
102
RTVSPropertyOp17
 70
     1
102
RTVSPropertyOp18
 70
     1
102
RTVSPropertyOp19
 70
     1
102
RTVSPropertyOp20
 70
     1
102
RTVSPropertyOp21
 70
     1
102
RTVSPropertyOp22
 70
     1
102
RTVSPropertyOp23
 70
     1
102
RTVSPropertyOp24
 70
     1
102
RTVSPropertyOp25
 70
     1
102
RTVSPropertyOp26
 70
     1
102
RTVSPropertyOp27
 70
     1
102
RTVSPropertyOp28
 70
     1
102
RTVSPropertyOp29
 70
     1
102
RTVSPropertyOp30
 70
     1
102
RTVSPropertyOp31
 70
     1
102
RTVSPropertyOp32
 70
     1
  0
XRECORD
  5
EB24
102
{ACAD_REACTORS
330
EB23
102
}
330
EB23
100
AcDbXrecord
280
     1
102
RTVSPropertyOp0
 70
     1
102
RTVSPropertyOp1
 70
     1
102
RTVSPropertyOp2
 70
     1
102
RTVSPropertyOp3
 70
     1
102
RTVSPropertyOp4
 70
     1
102
RTVSPropertyOp5
 70
     1
102
RTVSPropertyOp6
 70
     1
102
RTVSPropertyOp7
 70
     1
102
RTVSPropertyOp8
 70
     1
102
RTVSPropertyOp9
 70
     1
102
RTVSPropertyOp10
 70
     1
102
RTVSPropertyOp11
 70
     1
102
RTVSPropertyOp12
 70
     1
102
RTVSPropertyOp13
 70
     1
102
RTVSPropertyOp14
 70
     1
102
RTVSPropertyOp15
 70
     1
102
RTVSPropertyOp16
 70
     1
102
RTVSPropertyOp17
 70
     1
102
RTVSPropertyOp18
 70
     1
102
RTVSPropertyOp19
 70
     1
102
RTVSPropertyOp20
 70
     1
102
RTVSPropertyOp21
 70
     1
102
RTVSPropertyOp22
 70
     1
102
RTVSPropertyOp23
 70
     1
102
RTVSPropertyOp24
 70
     1
102
RTVSPropertyOp25
 70
     1
102
RTVSPropertyOp26
 70
     1
102
RTVSPropertyOp27
 70
     1
102
RTVSPropertyOp28
 70
     1
102
RTVSPropertyOp29
 70
     1
102
RTVSPropertyOp30
 70
     1
102
RTVSPropertyOp31
 70
     1
102
RTVSPropertyOp32
 70
     1
  0
XRECORD
  5
EB26
102
{ACAD_REACTORS
330
EB25
102
}
330
EB25
100
AcDbXrecord
280
     1
102
RTVSPropertyOp0
 70
     1
102
RTVSPropertyOp1
 70
     1
102
RTVSPropertyOp2
 70
     1
102
RTVSPropertyOp3
 70
     1
102
RTVSPropertyOp4
 70
     1
102
RTVSPropertyOp5
 70
     1
102
RTVSPropertyOp6
 70
     1
102
RTVSPropertyOp7
 70
     1
102
RTVSPropertyOp8
 70
     1
102
RTVSPropertyOp9
 70
     1
102
RTVSPropertyOp10
 70
     1
102
RTVSPropertyOp11
 70
     1
102
RTVSPropertyOp12
 70
     1
102
RTVSPropertyOp13
 70
     1
102
RTVSPropertyOp14
 70
     1
102
RTVSPropertyOp15
 70
     1
102
RTVSPropertyOp16
 70
     1
102
RTVSPropertyOp17
 70
     1
102
RTVSPropertyOp18
 70
     1
102
RTVSPropertyOp19
 70
     1
102
RTVSPropertyOp20
 70
     1
102
RTVSPropertyOp21
 70
     1
102
RTVSPropertyOp22
 70
     1
102
RTVSPropertyOp23
 70
     1
102
RTVSPropertyOp24
 70
     1
102
RTVSPropertyOp25
 70
     1
102
RTVSPropertyOp26
 70
     1
102
RTVSPropertyOp27
 70
     1
102
RTVSPropertyOp28
 70
     1
102
RTVSPropertyOp29
 70
     1
102
RTVSPropertyOp30
 70
     1
102
RTVSPropertyOp31
 70
     1
102
RTVSPropertyOp32
 70
     1
  0
XRECORD
  5
EB1C
102
{ACAD_REACTORS
330
EB1B
102
}
330
EB1B
100
AcDbXrecord
280
     1
102
RTVSPropertyOp0
 70
     1
102
RTVSPropertyOp1
 70
     1
102
RTVSPropertyOp2
 70
     1
102
RTVSPropertyOp3
 70
     1
102
RTVSPropertyOp4
 70
     1
102
RTVSPropertyOp5
 70
     1
102
RTVSPropertyOp6
 70
     1
102
RTVSPropertyOp7
 70
     1
102
RTVSPropertyOp8
 70
     1
102
RTVSPropertyOp9
 70
     1
102
RTVSPropertyOp10
 70
     1
102
RTVSPropertyOp11
 70
     1
102
RTVSPropertyOp12
 70
     1
102
RTVSPropertyOp13
 70
     1
102
RTVSPropertyOp14
 70
     1
102
RTVSPropertyOp15
 70
     1
102
RTVSPropertyOp16
 70
     1
102
RTVSPropertyOp17
 70
     1
102
RTVSPropertyOp18
 70
     1
102
RTVSPropertyOp19
 70
     1
102
RTVSPropertyOp20
 70
     1
102
RTVSPropertyOp21
 70
     1
102
RTVSPropertyOp22
 70
     1
102
RTVSPropertyOp23
 70
     1
102
RTVSPropertyOp24
 70
     1
102
RTVSPropertyOp25
 70
     1
102
RTVSPropertyOp26
 70
     1
102
RTVSPropertyOp27
 70
     1
102
RTVSPropertyOp28
 70
     1
102
RTVSPropertyOp29
 70
     1
102
RTVSPropertyOp30
 70
     1
102
RTVSPropertyOp31
 70
     1
102
RTVSPropertyOp32
 70
     1
  0
XRECORD
  5
EB10
102
{ACAD_REACTORS
330
EB0F
102
}
330
EB0F
100
AcDbXrecord
280
     1
102
RTVSPropertyOp0
 70
     1
102
RTVSPropertyOp1
 70
     1
102
RTVSPropertyOp2
 70
     1
102
RTVSPropertyOp3
 70
     1
102
RTVSPropertyOp4
 70
     1
102
RTVSPropertyOp5
 70
     1
102
RTVSPropertyOp6
 70
     1
102
RTVSPropertyOp7
 70
     1
102
RTVSPropertyOp8
 70
     1
102
RTVSPropertyOp9
 70
     1
102
RTVSPropertyOp10
 70
     1
102
RTVSPropertyOp11
 70
     1
102
RTVSPropertyOp12
 70
     1
102
RTVSPropertyOp13
 70
     1
102
RTVSPropertyOp14
 70
     1
102
RTVSPropertyOp15
 70
     1
102
RTVSPropertyOp16
 70
     1
102
RTVSPropertyOp17
 70
     1
102
RTVSPropertyOp18
 70
     1
102
RTVSPropertyOp19
 70
     1
102
RTVSPropertyOp20
 70
     1
102
RTVSPropertyOp21
 70
     1
102
RTVSPropertyOp22
 70
     1
102
RTVSPropertyOp23
 70
     1
102
RTVSPropertyOp24
 70
     1
102
RTVSPropertyOp25
 70
     1
102
RTVSPropertyOp26
 70
     1
102
RTVSPropertyOp27
 70
     1
102
RTVSPropertyOp28
 70
     1
102
RTVSPropertyOp29
 70
     1
102
RTVSPropertyOp30
 70
     1
102
RTVSPropertyOp31
 70
     1
102
RTVSPropertyOp32
 70
     1
  0
XRECORD
  5
EB28
102
{ACAD_REACTORS
330
EB27
102
}
330
EB27
100
AcDbXrecord
280
     1
102
RTVSPropertyOp0
 70
     1
102
RTVSPropertyOp1
 70
     1
102
RTVSPropertyOp2
 70
     1
102
RTVSPropertyOp3
 70
     1
102
RTVSPropertyOp4
 70
     1
102
RTVSPropertyOp5
 70
     1
102
RTVSPropertyOp6
 70
     1
102
RTVSPropertyOp7
 70
     1
102
RTVSPropertyOp8
 70
     1
102
RTVSPropertyOp9
 70
     1
102
RTVSPropertyOp10
 70
     1
102
RTVSPropertyOp11
 70
     1
102
RTVSPropertyOp12
 70
     1
102
RTVSPropertyOp13
 70
     1
102
RTVSPropertyOp14
 70
     1
102
RTVSPropertyOp15
 70
     1
102
RTVSPropertyOp16
 70
     1
102
RTVSPropertyOp17
 70
     1
102
RTVSPropertyOp18
 70
     1
102
RTVSPropertyOp19
 70
     1
102
RTVSPropertyOp20
 70
     1
102
RTVSPropertyOp21
 70
     1
102
RTVSPropertyOp22
 70
     1
102
RTVSPropertyOp23
 70
     1
102
RTVSPropertyOp24
 70
     1
102
RTVSPropertyOp25
 70
     1
102
RTVSPropertyOp26
 70
     1
102
RTVSPropertyOp27
 70
     1
102
RTVSPropertyOp28
 70
     1
102
RTVSPropertyOp29
 70
     1
102
RTVSPropertyOp30
 70
     1
102
RTVSPropertyOp31
 70
     1
102
RTVSPropertyOp32
 70
     1
  0
ENDSEC
  0
EOF
