  0
SECTION
  2
HEADER
  9
$ACADVER
  1
AC1015
  9
$ACADMAINTVER
 70
    20
  9
$DWGCODEPAGE
  3
ANSI_932
  9
$INSBASE
 10
0.0
 20
0.0
 30
0.0
  9
$EXTMIN
 10
416.7583029764771
 20
24.75037142061713
 30
0.0
  9
$EXTMAX
 10
1163.403024038815
 20
344.529988412035
 30
0.0
  9
$LIMMIN
 10
0.0
 20
0.0
  9
$LIMMAX
 10
420.0
 20
297.0
  9
$ORTHOMODE
 70
     0
  9
$REGENMODE
 70
     1
  9
$FILLMODE
 70
     1
  9
$QTEXTMODE
 70
     0
  9
$MIRRTEXT
 70
     1
  9
$LTSCALE
 40
1.0
  9
$ATTMODE
 70
     1
  9
$TEXTSIZE
 40
2.5
  9
$TRACEWID
 40
1.0
  9
$TEXTSTYLE
  7
STANDARD
  9
$CLAYER
  8
0
  9
$CELTYPE
  6
ByLayer
  9
$CECOLOR
 62
   256
  9
$CELTSCALE
 40
1.0
  9
$DISPSILH
 70
     0
  9
$DIMSCALE
 40
1.0
  9
$DIMASZ
 40
2.5
  9
$DIMEXO
 40
0.625
  9
$DIMDLI
 40
3.75
  9
$DIMRND
 40
0.0
  9
$DIMDLE
 40
0.0
  9
$DIMEXE
 40
1.25
  9
$DIMTP
 40
0.0
  9
$DIMTM
 40
0.0
  9
$DIMTXT
 40
2.5
  9
$DIMCEN
 40
2.5
  9
$DIMTSZ
 40
0.0
  9
$DIMTOL
 70
     0
  9
$DIMLIM
 70
     0
  9
$DIMTIH
 70
     0
  9
$DIMTOH
 70
     0
  9
$DIMSE1
 70
     0
  9
$DIMSE2
 70
     0
  9
$DIMTAD
 70
     1
  9
$DIMZIN
 70
     8
  9
$DIMBLK
  1

  9
$DIMASO
 70
     1
  9
$DIMSHO
 70
     1
  9
$DIMPOST
  1

  9
$DIMAPOST
  1

  9
$DIMALT
 70
     0
  9
$DIMALTD
 70
     3
  9
$DIMALTF
 40
0.03937007874016
  9
$DIMLFAC
 40
1.0
  9
$DIMTOFL
 70
     1
  9
$DIMTVP
 40
0.0
  9
$DIMTIX
 70
     0
  9
$DIMSOXD
 70
     0
  9
$DIMSAH
 70
     0
  9
$DIMBLK1
  1

  9
$DIMBLK2
  1

  9
$DIMSTYLE
  2
ISO-25
  9
$DIMCLRD
 70
     0
  9
$DIMCLRE
 70
     0
  9
$DIMCLRT
 70
     0
  9
$DIMTFAC
 40
1.0
  9
$DIMGAP
 40
0.625
  9
$DIMJUST
 70
     0
  9
$DIMSD1
 70
     0
  9
$DIMSD2
 70
     0
  9
$DIMTOLJ
 70
     1
  9
$DIMTZIN
 70
     0
  9
$DIMALTZ
 70
     0
  9
$DIMALTTZ
 70
     0
  9
$DIMUPT
 70
     0
  9
$DIMDEC
 70
     4
  9
$DIMTDEC
 70
     4
  9
$DIMALTU
 70
     2
  9
$DIMALTTD
 70
     2
  9
$DIMTXSTY
  7
STANDARD
  9
$DIMAUNIT
 70
     0
  9
$DIMADEC
 70
     0
  9
$DIMALTRND
 40
0.0
  9
$DIMAZIN
 70
     0
  9
$DIMDSEP
 70
    46
  9
$DIMATFIT
 70
     3
  9
$DIMFRAC
 70
     0
  9
$DIMLDRBLK
  1

  9
$DIMLUNIT
 70
     2
  9
$DIMLWD
 70
    -2
  9
$DIMLWE
 70
    -2
  9
$DIMTMOVE
 70
     0
  9
$LUNITS
 70
     2
  9
$LUPREC
 70
     4
  9
$SKETCHINC
 40
1.0
  9
$FILLETRAD
 40
10.0
  9
$AUNITS
 70
     0
  9
$AUPREC
 70
     0
  9
$MENU
  1
.
  9
$ELEVATION
 40
0.0
  9
$PELEVATION
 40
0.0
  9
$THICKNESS
 40
0.0
  9
$LIMCHECK
 70
     0
  9
$CHAMFERA
 40
10.0
  9
$CHAMFERB
 40
10.0
  9
$CHAMFERC
 40
0.0
  9
$CHAMFERD
 40
0.0
  9
$SKPOLY
 70
     0
  9
$TDCREATE
 40
2452048.587870371
  9
$TDUCREATE
 40
2452048.212870371
  9
$TDUPDATE
 40
2459734.708611112
  9
$TDUUPDATE
 40
2459734.333611111
  9
$TDINDWG
 40
0.0231009144
  9
$TDUSRTIMER
 40
0.0231009144
  9
$USRTIMER
 70
     1
  9
$ANGBASE
 50
0.0
  9
$ANGDIR
 70
     0
  9
$PDMODE
 70
     0
  9
$PDSIZE
 40
0.0
  9
$PLINEWID
 40
0.0
  9
$SPLFRAME
 70
     0
  9
$SPLINETYPE
 70
     6
  9
$SPLINESEGS
 70
     8
  9
$HANDSEED
  5
598D
  9
$SURFTAB1
 70
     6
  9
$SURFTAB2
 70
     6
  9
$SURFTYPE
 70
     6
  9
$SURFU
 70
     6
  9
$SURFV
 70
     6
  9
$UCSBASE
  2

  9
$UCSNAME
  2

  9
$UCSORG
 10
0.0
 20
0.0
 30
0.0
  9
$UCSXDIR
 10
1.0
 20
0.0
 30
0.0
  9
$UCSYDIR
 10
0.0
 20
1.0
 30
0.0
  9
$UCSORTHOREF
  2

  9
$UCSORTHOVIEW
 70
     0
  9
$UCSORGTOP
 10
0.0
 20
0.0
 30
0.0
  9
$UCSORGBOTTOM
 10
0.0
 20
0.0
 30
0.0
  9
$UCSORGLEFT
 10
0.0
 20
0.0
 30
0.0
  9
$UCSORGRIGHT
 10
0.0
 20
0.0
 30
0.0
  9
$UCSORGFRONT
 10
0.0
 20
0.0
 30
0.0
  9
$UCSORGBACK
 10
0.0
 20
0.0
 30
0.0
  9
$PUCSBASE
  2

  9
$PUCSNAME
  2

  9
$PUCSORG
 10
0.0
 20
0.0
 30
0.0
  9
$PUCSXDIR
 10
1.0
 20
0.0
 30
0.0
  9
$PUCSYDIR
 10
0.0
 20
1.0
 30
0.0
  9
$PUCSORTHOREF
  2

  9
$PUCSORTHOVIEW
 70
     0
  9
$PUCSORGTOP
 10
0.0
 20
0.0
 30
0.0
  9
$PUCSORGBOTTOM
 10
0.0
 20
0.0
 30
0.0
  9
$PUCSORGLEFT
 10
0.0
 20
0.0
 30
0.0
  9
$PUCSORGRIGHT
 10
0.0
 20
0.0
 30
0.0
  9
$PUCSORGFRONT
 10
0.0
 20
0.0
 30
0.0
  9
$PUCSORGBACK
 10
0.0
 20
0.0
 30
0.0
  9
$USERI1
 70
     0
  9
$USERI2
 70
     0
  9
$USERI3
 70
     0
  9
$USERI4
 70
     0
  9
$USERI5
 70
     0
  9
$USERR1
 40
0.0
  9
$USERR2
 40
0.0
  9
$USERR3
 40
0.0
  9
$USERR4
 40
0.0
  9
$USERR5
 40
0.0
  9
$WORLDVIEW
 70
     1
  9
$SHADEDGE
 70
     3
  9
$SHADEDIF
 70
    70
  9
$TILEMODE
 70
     1
  9
$MAXACTVP
 70
    64
  9
$PINSBASE
 10
0.0
 20
0.0
 30
0.0
  9
$PLIMCHECK
 70
     0
  9
$PEXTMIN
 10
1.000000000000000E+20
 20
1.000000000000000E+20
 30
1.000000000000000E+20
  9
$PEXTMAX
 10
-1.000000000000000E+20
 20
-1.000000000000000E+20
 30
-1.000000000000000E+20
  9
$PLIMMIN
 10
0.0
 20
0.0
  9
$PLIMMAX
 10
420.0
 20
297.0
  9
$UNITMODE
 70
     0
  9
$VISRETAIN
 70
     1
  9
$PLINEGEN
 70
     0
  9
$PSLTSCALE
 70
     1
  9
$TREEDEPTH
 70
  3020
  9
$CMLSTYLE
  2
Standard
  9
$CMLJUST
 70
     0
  9
$CMLSCALE
 40
1.0
  9
$PROXYGRAPHICS
 70
     1
  9
$MEASUREMENT
 70
     0
  9
$CELWEIGHT
370
    -1
  9
$ENDCAPS
280
     0
  9
$JOINSTYLE
280
     0
  9
$LWDISPLAY
290
     0
  9
$INSUNITS
 70
     0
  9
$HYPERLINKBASE
  1

  9
$STYLESHEET
  1

  9
$XEDIT
290
     1
  9
$CEPSNTYPE
380
     0
  9
$PSTYLEMODE
290
     1
  9
$FINGERPRINTGUID
  2
{45C864D6-7543-A44D-B3BA-D0B75E813457}
  9
$VERSIONGUID
  2
{D375E670-EF9F-E745-B61A-C57F4493EE42}
  9
$EXTNAMES
290
     1
  9
$PSVPSCALE
 40
0.0
  9
$OLESTARTUP
290
     0
  0
ENDSEC
  0
SECTION
  2
CLASSES
  0
CLASS
  1
ACDBDICTIONARYWDFLT
  2
AcDbDictionaryWithDefault
  3
ObjectDBX Classes
 90
        0
280
     0
281
     0
  0
CLASS
  1
MATERIAL
  2
AcDbMaterial
  3
ObjectDBX Classes
 90
     1153
280
     0
281
     0
  0
CLASS
  1
VISUALSTYLE
  2
AcDbVisualStyle
  3
ObjectDBX Classes
 90
     4095
280
     0
281
     0
  0
CLASS
  1
SCALE
  2
AcDbScale
  3
ObjectDBX Classes
 90
     1153
280
     0
281
     0
  0
CLASS
  1
TABLESTYLE
  2
AcDbTableStyle
  3
ObjectDBX Classes
 90
     4095
280
     0
281
     0
  0
CLASS
  1
MLEADERSTYLE
  2
AcDbMLeaderStyle
  3
ACDB_MLEADERSTYLE_CLASS
 90
     4095
280
     0
281
     0
  0
CLASS
  1
ACDBSECTIONVIEWSTYLE
  2
AcDbSectionViewStyle
  3
ObjectDBX Classes
 90
     1025
280
     0
281
     0
  0
CLASS
  1
ACDBDETAILVIEWSTYLE
  2
AcDbDetailViewStyle
  3
ObjectDBX Classes
 90
     1025
280
     0
281
     0
  0
CLASS
  1
SORTENTSTABLE
  2
AcDbSortentsTable
  3
ObjectDBX Classes
 90
    32768
280
     0
281
     0
  0
CLASS
  1
DICTIONARYVAR
  2
AcDbDictionaryVar
  3
ObjectDBX Classes
 90
        0
280
     0
281
     0
  0
CLASS
  1
CELLSTYLEMAP
  2
AcDbCellStyleMap
  3
ObjectDBX Classes
 90
     1152
280
     0
281
     0
  0
CLASS
  1
ACDBPLACEHOLDER
  2
AcDbPlaceHolder
  3
ObjectDBX Classes
 90
        0
280
     0
281
     0
  0
CLASS
  1
LAYOUT
  2
AcDbLayout
  3
ObjectDBX Classes
 90
        0
280
     0
281
     0
  0
ENDSEC
  0
SECTION
  2
TABLES
  0
TABLE
  2
VPORT
  5
4EA0
330
0
100
AcDbSymbolTable
 70
     1
  0
VPORT
  5
4F0B
330
4EA0
100
AcDbSymbolTableRecord
100
AcDbViewportTableRecord
  2
*ACTIVE
 70
     0
 10
0.0
 20
0.0
 11
1.0
 21
1.0
 12
985.8193009336078
 22
187.4281931824796
 13
0.0
 23
0.0
 14
10.0
 24
10.0
 15
10.0
 25
10.0
 16
0.0
 26
0.0
 36
1.0
 17
0.0
 27
0.0
 37
0.0
 40
301.3697380376921
 41
2.018518518518518
 42
50.0
 43
0.0
 44
0.0
 50
0.0
 51
0.0
 71
     0
 72
   100
 73
     1
 74
     3
 75
     0
 76
     0
 77
     0
 78
     0
281
     0
 65
     1
110
0.0
120
0.0
130
0.0
111
1.0
121
0.0
131
0.0
112
0.0
122
1.0
132
0.0
 79
     0
146
0.0
1001
ACAD_NAV_VCDISPLAY
1070
     3
  0
ENDTAB
  0
TABLE
  2
LTYPE
  5
4E9D
330
0
100
AcDbSymbolTable
 70
     4
  0
LTYPE
  5
4EF2
330
4E9D
100
AcDbSymbolTableRecord
100
AcDbLinetypeTableRecord
  2
ByBlock
 70
     0
  3

 72
    65
 73
     0
 40
0.0
  0
LTYPE
  5
4EF3
330
4E9D
100
AcDbSymbolTableRecord
100
AcDbLinetypeTableRecord
  2
ByLayer
 70
     0
  3

 72
    65
 73
     0
 40
0.0
  0
LTYPE
  5
4EF4
330
4E9D
100
AcDbSymbolTableRecord
100
AcDbLinetypeTableRecord
  2
CONTINUOUS
 70
     0
  3
Solid line
 72
    65
 73
     0
 40
0.0
  0
LTYPE
  5
4FE2
330
4E9D
100
AcDbSymbolTableRecord
100
AcDbLinetypeTableRecord
  2
CENTER
 70
     0
  3
____ _ ____ _ ____ _ ____ _ ____ _ ____ _ ____ 
 72
    65
 73
     4
 40
2.0
 49
1.25
 74
     0
 49
-0.25
 74
     0
 49
0.25
 74
     0
 49
-0.25
 74
     0
  0
LTYPE
  5
4FE3
330
4E9D
100
AcDbSymbolTableRecord
100
AcDbLinetypeTableRecord
  2
PHANTOM2
 70
     0
  3
Phantom (.5x) ___ _ _ ___ _ _ ___ _ _ ___ _ _
 72
    65
 73
     6
 40
31.75
 49
15.875
 74
     0
 49
-3.174999999999998
 74
     0
 49
3.174999999999998
 74
     0
 49
-3.174999999999998
 74
     0
 49
3.174999999999998
 74
     0
 49
-3.174999999999998
 74
     0
  0
LTYPE
  5
4FE4
330
4E9D
100
AcDbSymbolTableRecord
100
AcDbLinetypeTableRecord
  2
PHANTOM
 70
     0
  3
______  __  __  ______  __  __  ______  __  __ 
 72
    65
 73
     6
 40
2.5
 49
1.25
 74
     0
 49
-0.25
 74
     0
 49
0.25
 74
     0
 49
-0.25
 74
     0
 49
0.25
 74
     0
 49
-0.25
 74
     0
  0
ENDTAB
  0
TABLE
  2
LAYER
  5
4E9A
102
{ACAD_XDICTIONARY
360
4FED
102
}
330
0
100
AcDbSymbolTable
 70
     7
  0
LAYER
  5
4EEC
102
{ACAD_XDICTIONARY
360
5823
102
}
330
4E9A
100
AcDbSymbolTableRecord
100
AcDbLayerTableRecord
  2
0
 70
     0
 62
     7
  6
CONTINUOUS
370
    -3
390
4EA7
  0
LAYER
  5
4F0C
102
{ACAD_XDICTIONARY
360
5825
102
}
330
4E9A
100
AcDbSymbolTableRecord
100
AcDbLayerTableRecord
  2
1外形線
 70
     0
 62
     3
  6
CONTINUOUS
370
    -3
390
4EA7
  0
LAYER
  5
4FE5
102
{ACAD_XDICTIONARY
360
4FE6
102
}
330
4E9A
100
AcDbSymbolTableRecord
100
AcDbLayerTableRecord
  2
4寸法線
 70
     0
 62
     2
  6
CONTINUOUS
370
    -3
390
4EA7
  0
LAYER
  5
4FE7
330
4E9A
100
AcDbSymbolTableRecord
100
AcDbLayerTableRecord
  2
DEFPOINTS
 70
     0
 62
     7
  6
CONTINUOUS
290
     0
370
    -3
390
4EA7
  0
LAYER
  5
4FE8
102
{ACAD_XDICTIONARY
360
4FE9
102
}
330
4E9A
100
AcDbSymbolTableRecord
100
AcDbLayerTableRecord
  2
2\U+FF8D\U+FF9E\U+FF70\U+FF7D
 70
     0
 62
     7
  6
CONTINUOUS
370
    -3
390
4EA7
  0
LAYER
  5
5434
102
{ACAD_XDICTIONARY
360
5435
102
}
330
4E9A
100
AcDbSymbolTableRecord
100
AcDbLayerTableRecord
  2
2\U+FF76\U+FF8A\U+FF9E\U+FF70
 70
     0
 62
     3
  6
CONTINUOUS
370
    -3
390
4EA7
  0
LAYER
  5
5436
102
{ACAD_XDICTIONARY
360
5437
102
}
330
4E9A
100
AcDbSymbolTableRecord
100
AcDbLayerTableRecord
  2
6図枠
 70
     0
 62
     7
  6
CONTINUOUS
370
    -3
390
4EA7
  0
ENDTAB
  0
TABLE
  2
STYLE
  5
4E9B
330
0
100
AcDbSymbolTable
 70
     3
  0
STYLE
  5
4EED
330
4E9B
100
AcDbSymbolTableRecord
100
AcDbTextStyleTableRecord
  2
STANDARD
 70
     0
 40
0.0
 41
1.0
 50
0.0
 71
     0
 42
2.5
  3
txt
  4

  0
STYLE
  5
4EF1
330
4E9B
100
AcDbSymbolTableRecord
100
AcDbTextStyleTableRecord
  2
Annotative
 70
     0
 40
0.0
 41
1.0
 50
0.0
 71
     0
 42
0.2
  3
txt
  4

1001
AcadAnnotative
1000
AnnotativeData
1002
{
1070
     1
1070
     1
1002
}
  0
STYLE
  5
4F0D
330
4E9B
100
AcDbSymbolTableRecord
100
AcDbTextStyleTableRecord
  2
KANJI
 70
     0
 40
0.0
 41
1.0
 50
0.0
 71
     0
 42
10.0
  3
simplex
  4
bigfont
  0
ENDTAB
  0
TABLE
  2
VIEW
  5
4E9E
330
0
100
AcDbSymbolTable
 70
     0
  0
ENDTAB
  0
TABLE
  2
UCS
  5
4E9F
330
0
100
AcDbSymbolTable
 70
     0
  0
ENDTAB
  0
TABLE
  2
APPID
  5
4EA1
330
0
100
AcDbSymbolTable
 70
     7
  0
APPID
  5
4EEE
330
4EA1
100
AcDbSymbolTableRecord
100
AcDbRegAppTableRecord
  2
ACAD
 70
     0
  0
APPID
  5
4EF5
330
4EA1
100
AcDbSymbolTableRecord
100
AcDbRegAppTableRecord
  2
AcadAnnotative
 70
     0
  0
APPID
  5
4FEA
330
4EA1
100
AcDbSymbolTableRecord
100
AcDbRegAppTableRecord
  2
ACAD_PSEXT
 70
     0
  0
APPID
  5
4FEB
330
4EA1
100
AcDbSymbolTableRecord
100
AcDbRegAppTableRecord
  2
ACAD_NAV_VCDISPLAY
 70
     0
  0
APPID
  5
4FEC
330
4EA1
100
AcDbSymbolTableRecord
100
AcDbRegAppTableRecord
  2
Acad_TC
 70
     0
  0
APPID
  5
57E9
330
4EA1
100
AcDbSymbolTableRecord
100
AcDbRegAppTableRecord
  2
ACAD_EXEMPT_FROM_CAD_STANDARDS
 70
     0
  0
APPID
  5
597D
330
4EA1
100
AcDbSymbolTableRecord
100
AcDbRegAppTableRecord
  2
ACAD_MLEADERVER
 70
     0
  0
ENDTAB
  0
TABLE
  2
DIMSTYLE
  5
4EA2
330
0
100
AcDbSymbolTable
 70
     3
100
AcDbDimStyleTable
 71
     0
  0
DIMSTYLE
105
4EEF
330
4EA2
100
AcDbSymbolTableRecord
100
AcDbDimStyleTableRecord
  2
STANDARD
 70
     0
 41
1.0
 42
1.0
 43
6.0
 44
1.0
 73
     0
 74
     0
 77
     1
 78
     8
140
2.5
141
0.0
147
0.5
172
     1
173
     1
274
     3
279
     2
284
     8
285
     8
286
     8
340
4EED
  0
DIMSTYLE
105
4EF0
330
4EA2
100
AcDbSymbolTableRecord
100
AcDbDimStyleTableRecord
  2
Annotative
 70
     0
340
4EED
1001
AcadAnnotative
1000
AnnotativeData
1002
{
1070
     1
1070
     1
1002
}
  0
DIMSTYLE
105
4F0E
330
4EA2
100
AcDbSymbolTableRecord
100
AcDbDimStyleTableRecord
  2
ISO-25
 70
     0
 41
2.5
 42
0.625
 43
3.75
 44
1.25
 73
     0
 74
     0
 77
     1
 78
     8
140
2.5
141
2.5
143
0.03937007874016
147
0.625
171
     3
172
     1
274
     3
279
     2
284
     8
285
     8
286
     8
340
4EED
  0
ENDTAB
  0
TABLE
  2
BLOCK_RECORD
  5
4E99
330
0
100
AcDbSymbolTable
 70
    83
  0
BLOCK_RECORD
  5
4F07
330
4E99
100
AcDbSymbolTableRecord
100
AcDbBlockTableRecord
  2
*Model_Space
340
4F0A
  0
BLOCK_RECORD
  5
4F03
330
4E99
100
AcDbSymbolTableRecord
100
AcDbBlockTableRecord
  2
*Paper_Space
340
4F06
  0
BLOCK_RECORD
  5
4F12
330
4E99
100
AcDbSymbolTableRecord
100
AcDbBlockTableRecord
  2
$MODEL_SPACE
340
0
  0
BLOCK_RECORD
  5
4F14
330
4E99
100
AcDbSymbolTableRecord
100
AcDbBlockTableRecord
  2
$PAPER_SPACE
340
0
  0
BLOCK_RECORD
  5
4F16
330
4E99
100
AcDbSymbolTableRecord
100
AcDbBlockTableRecord
  2
1
340
0
102
{BLKREFS
331
5421
331
5422
331
542D
331
542E
331
574E
331
5755
331
5756
331
575C
331
5761
331
5767
331
5768
331
5771
331
577A
331
577B
331
5782
331
5783
331
578C
331
578D
331
5795
331
5796
331
579D
331
57A3
331
57AB
331
57AC
331
57B4
331
57BC
331
57BD
331
5395
331
539E
331
53A7
331
53A8
331
53B2
331
53BB
331
53C4
331
53C5
331
53D2
331
53D3
331
53DE
331
53DF
331
53E9
331
53EA
331
53F7
331
53F8
331
5403
331
540B
331
5415
331
5416
331
5718
331
571E
331
571F
331
572A
331
572B
331
5732
331
5733
331
573A
331
573B
331
5746
331
5747
331
4F53
331
4F54
331
4F62
331
4F77
331
4F80
331
4F87
331
4F92
331
4F93
331
4F9E
331
4FA9
331
4FAA
331
4FB5
331
4FBC
331
4FBD
331
5389
331
538A
331
4FC8
331
4FD1
331
4FDB
331
4FDC
331
4F2D
331
4F2E
331
4F3A
331
4F3B
331
4F47
331
4F48
331
52B7
331
52B8
331
52C1
331
52C2
331
52CB
331
52CC
331
52D3
331
52D4
331
52DB
331
52E1
331
52E2
331
52E7
331
52EC
331
52F4
331
52F5
331
5300
331
530E
331
5313
331
5319
331
5322
331
5323
331
5329
331
5332
331
5333
331
5355
331
5356
331
5361
331
5362
331
536C
331
5374
331
537D
331
537E
102
}
  0
BLOCK_RECORD
  5
4F19
330
4E99
100
AcDbSymbolTableRecord
100
AcDbBlockTableRecord
  2
Y2
340
0
  0
BLOCK_RECORD
  5
4F1D
330
4E99
100
AcDbSymbolTableRecord
100
AcDbBlockTableRecord
  2
Y1
340
0
102
{BLKREFS
331
4F6C
331
5307
102
}
  0
BLOCK_RECORD
  5
4F22
330
4E99
100
AcDbSymbolTableRecord
100
AcDbBlockTableRecord
  2
_DOT
340
0
102
{BLKREFS
331
52FF
331
4F61
102
}
  0
BLOCK_RECORD
  5
4F27
330
4E99
100
AcDbSymbolTableRecord
100
AcDbBlockTableRecord
  2
*D6
340
0
  0
BLOCK_RECORD
  5
4F34
330
4E99
100
AcDbSymbolTableRecord
100
AcDbBlockTableRecord
  2
*D7
340
0
  0
BLOCK_RECORD
  5
4F41
330
4E99
100
AcDbSymbolTableRecord
100
AcDbBlockTableRecord
  2
*D8
340
0
  0
BLOCK_RECORD
  5
4F4E
330
4E99
100
AcDbSymbolTableRecord
100
AcDbBlockTableRecord
  2
*D9
340
0
  0
BLOCK_RECORD
  5
4F5A
330
4E99
100
AcDbSymbolTableRecord
100
AcDbBlockTableRecord
  2
*D10
340
0
  0
BLOCK_RECORD
  5
4F68
330
4E99
100
AcDbSymbolTableRecord
100
AcDbBlockTableRecord
  2
*D11
340
0
  0
BLOCK_RECORD
  5
4F72
330
4E99
100
AcDbSymbolTableRecord
100
AcDbBlockTableRecord
  2
*D12
340
0
  0
BLOCK_RECORD
  5
4F7B
330
4E99
100
AcDbSymbolTableRecord
100
AcDbBlockTableRecord
  2
*D13
340
0
  0
BLOCK_RECORD
  5
4F84
330
4E99
100
AcDbSymbolTableRecord
100
AcDbBlockTableRecord
  2
*D14
340
0
  0
BLOCK_RECORD
  5
4F8D
330
4E99
100
AcDbSymbolTableRecord
100
AcDbBlockTableRecord
  2
*D15
340
0
  0
BLOCK_RECORD
  5
4F99
330
4E99
100
AcDbSymbolTableRecord
100
AcDbBlockTableRecord
  2
*D16
340
0
  0
BLOCK_RECORD
  5
4FA2
330
4E99
100
AcDbSymbolTableRecord
100
AcDbBlockTableRecord
  2
*D17
340
0
  0
BLOCK_RECORD
  5
4FB0
330
4E99
100
AcDbSymbolTableRecord
100
AcDbBlockTableRecord
  2
*D18
340
0
  0
BLOCK_RECORD
  5
4FB9
330
4E99
100
AcDbSymbolTableRecord
100
AcDbBlockTableRecord
  2
*D19
340
0
  0
BLOCK_RECORD
  5
4FC3
330
4E99
100
AcDbSymbolTableRecord
100
AcDbBlockTableRecord
  2
*D20
340
0
  0
BLOCK_RECORD
  5
4FCC
330
4E99
100
AcDbSymbolTableRecord
100
AcDbBlockTableRecord
  2
*D21
340
0
  0
BLOCK_RECORD
  5
4FD5
330
4E99
100
AcDbSymbolTableRecord
100
AcDbBlockTableRecord
  2
*D22
340
0
  0
BLOCK_RECORD
  5
51FB
330
4E99
100
AcDbSymbolTableRecord
100
AcDbBlockTableRecord
  2
*D23
340
0
  0
BLOCK_RECORD
  5
5208
330
4E99
100
AcDbSymbolTableRecord
100
AcDbBlockTableRecord
  2
*D24
340
0
  0
BLOCK_RECORD
  5
5215
330
4E99
100
AcDbSymbolTableRecord
100
AcDbBlockTableRecord
  2
*D25
340
0
  0
BLOCK_RECORD
  5
5222
330
4E99
100
AcDbSymbolTableRecord
100
AcDbBlockTableRecord
  2
*D26
340
0
  0
BLOCK_RECORD
  5
522E
330
4E99
100
AcDbSymbolTableRecord
100
AcDbBlockTableRecord
  2
*D27
340
0
  0
BLOCK_RECORD
  5
5236
330
4E99
100
AcDbSymbolTableRecord
100
AcDbBlockTableRecord
  2
*D28
340
0
  0
BLOCK_RECORD
  5
5240
330
4E99
100
AcDbSymbolTableRecord
100
AcDbBlockTableRecord
  2
*D29
340
0
  0
BLOCK_RECORD
  5
5248
330
4E99
100
AcDbSymbolTableRecord
100
AcDbBlockTableRecord
  2
*D30
340
0
  0
BLOCK_RECORD
  5
5250
330
4E99
100
AcDbSymbolTableRecord
100
AcDbBlockTableRecord
  2
*D31
340
0
  0
BLOCK_RECORD
  5
525D
330
4E99
100
AcDbSymbolTableRecord
100
AcDbBlockTableRecord
  2
*D32
340
0
  0
BLOCK_RECORD
  5
526B
330
4E99
100
AcDbSymbolTableRecord
100
AcDbBlockTableRecord
  2
*D33
340
0
  0
BLOCK_RECORD
  5
5275
330
4E99
100
AcDbSymbolTableRecord
100
AcDbBlockTableRecord
  2
*D34
340
0
  0
BLOCK_RECORD
  5
527E
330
4E99
100
AcDbSymbolTableRecord
100
AcDbBlockTableRecord
  2
*D35
340
0
  0
BLOCK_RECORD
  5
5286
330
4E99
100
AcDbSymbolTableRecord
100
AcDbBlockTableRecord
  2
*D36
340
0
  0
BLOCK_RECORD
  5
528F
330
4E99
100
AcDbSymbolTableRecord
100
AcDbBlockTableRecord
  2
*D37
340
0
  0
BLOCK_RECORD
  5
529C
330
4E99
100
AcDbSymbolTableRecord
100
AcDbBlockTableRecord
  2
*D38
340
0
  0
BLOCK_RECORD
  5
52A4
330
4E99
100
AcDbSymbolTableRecord
100
AcDbBlockTableRecord
  2
*D39
340
0
  0
BLOCK_RECORD
  5
5350
330
4E99
100
AcDbSymbolTableRecord
100
AcDbBlockTableRecord
  2
*D40
340
0
  0
BLOCK_RECORD
  5
535C
330
4E99
100
AcDbSymbolTableRecord
100
AcDbBlockTableRecord
  2
*D41
340
0
  0
BLOCK_RECORD
  5
5368
330
4E99
100
AcDbSymbolTableRecord
100
AcDbBlockTableRecord
  2
*D42
340
0
  0
BLOCK_RECORD
  5
5370
330
4E99
100
AcDbSymbolTableRecord
100
AcDbBlockTableRecord
  2
*D43
340
0
  0
BLOCK_RECORD
  5
5378
330
4E99
100
AcDbSymbolTableRecord
100
AcDbBlockTableRecord
  2
*D44
340
0
  0
BLOCK_RECORD
  5
5384
330
4E99
100
AcDbSymbolTableRecord
100
AcDbBlockTableRecord
  2
*D45
340
0
  0
BLOCK_RECORD
  5
5390
330
4E99
100
AcDbSymbolTableRecord
100
AcDbBlockTableRecord
  2
*D46
340
0
  0
BLOCK_RECORD
  5
5399
330
4E99
100
AcDbSymbolTableRecord
100
AcDbBlockTableRecord
  2
*D47
340
0
  0
BLOCK_RECORD
  5
53A2
330
4E99
100
AcDbSymbolTableRecord
100
AcDbBlockTableRecord
  2
*D48
340
0
  0
BLOCK_RECORD
  5
53AE
330
4E99
100
AcDbSymbolTableRecord
100
AcDbBlockTableRecord
  2
*D49
340
0
  0
BLOCK_RECORD
  5
53B8
330
4E99
100
AcDbSymbolTableRecord
100
AcDbBlockTableRecord
  2
*D50
340
0
  0
BLOCK_RECORD
  5
53C0
330
4E99
100
AcDbSymbolTableRecord
100
AcDbBlockTableRecord
  2
*D51
340
0
  0
BLOCK_RECORD
  5
53CB
330
4E99
100
AcDbSymbolTableRecord
100
AcDbBlockTableRecord
  2
*D52
340
0
  0
BLOCK_RECORD
  5
53D9
330
4E99
100
AcDbSymbolTableRecord
100
AcDbBlockTableRecord
  2
*D53
340
0
  0
BLOCK_RECORD
  5
53E5
330
4E99
100
AcDbSymbolTableRecord
100
AcDbBlockTableRecord
  2
*D54
340
0
  0
BLOCK_RECORD
  5
53F0
330
4E99
100
AcDbSymbolTableRecord
100
AcDbBlockTableRecord
  2
*D55
340
0
  0
BLOCK_RECORD
  5
53FE
330
4E99
100
AcDbSymbolTableRecord
100
AcDbBlockTableRecord
  2
*D56
340
0
  0
BLOCK_RECORD
  5
5407
330
4E99
100
AcDbSymbolTableRecord
100
AcDbBlockTableRecord
  2
*D57
340
0
  0
BLOCK_RECORD
  5
5411
330
4E99
100
AcDbSymbolTableRecord
100
AcDbBlockTableRecord
  2
*D58
340
0
  0
BLOCK_RECORD
  5
541C
330
4E99
100
AcDbSymbolTableRecord
100
AcDbBlockTableRecord
  2
*D59
340
0
  0
BLOCK_RECORD
  5
5428
330
4E99
100
AcDbSymbolTableRecord
100
AcDbBlockTableRecord
  2
*D60
340
0
  0
BLOCK_RECORD
  5
5630
330
4E99
100
AcDbSymbolTableRecord
100
AcDbBlockTableRecord
  2
*D61
340
0
  0
BLOCK_RECORD
  5
5638
330
4E99
100
AcDbSymbolTableRecord
100
AcDbBlockTableRecord
  2
*D62
340
0
  0
BLOCK_RECORD
  5
5643
330
4E99
100
AcDbSymbolTableRecord
100
AcDbBlockTableRecord
  2
*D63
340
0
  0
BLOCK_RECORD
  5
5651
330
4E99
100
AcDbSymbolTableRecord
100
AcDbBlockTableRecord
  2
*D64
340
0
  0
BLOCK_RECORD
  5
565D
330
4E99
100
AcDbSymbolTableRecord
100
AcDbBlockTableRecord
  2
*D65
340
0
  0
BLOCK_RECORD
  5
5668
330
4E99
100
AcDbSymbolTableRecord
100
AcDbBlockTableRecord
  2
*D66
340
0
  0
BLOCK_RECORD
  5
5676
330
4E99
100
AcDbSymbolTableRecord
100
AcDbBlockTableRecord
  2
*D67
340
0
  0
BLOCK_RECORD
  5
567F
330
4E99
100
AcDbSymbolTableRecord
100
AcDbBlockTableRecord
  2
*D68
340
0
  0
BLOCK_RECORD
  5
568B
330
4E99
100
AcDbSymbolTableRecord
100
AcDbBlockTableRecord
  2
*D69
340
0
  0
BLOCK_RECORD
  5
5693
330
4E99
100
AcDbSymbolTableRecord
100
AcDbBlockTableRecord
  2
*D70
340
0
  0
BLOCK_RECORD
  5
569B
330
4E99
100
AcDbSymbolTableRecord
100
AcDbBlockTableRecord
  2
*D71
340
0
  0
BLOCK_RECORD
  5
56A7
330
4E99
100
AcDbSymbolTableRecord
100
AcDbBlockTableRecord
  2
*D72
340
0
  0
BLOCK_RECORD
  5
56B1
330
4E99
100
AcDbSymbolTableRecord
100
AcDbBlockTableRecord
  2
*D73
340
0
  0
BLOCK_RECORD
  5
56BE
330
4E99
100
AcDbSymbolTableRecord
100
AcDbBlockTableRecord
  2
*D74
340
0
  0
BLOCK_RECORD
  5
56CA
330
4E99
100
AcDbSymbolTableRecord
100
AcDbBlockTableRecord
  2
*D75
340
0
  0
BLOCK_RECORD
  5
56D6
330
4E99
100
AcDbSymbolTableRecord
100
AcDbBlockTableRecord
  2
*D76
340
0
  0
BLOCK_RECORD
  5
56E2
330
4E99
100
AcDbSymbolTableRecord
100
AcDbBlockTableRecord
  2
*D77
340
0
  0
BLOCK_RECORD
  5
56EB
330
4E99
100
AcDbSymbolTableRecord
100
AcDbBlockTableRecord
  2
*D78
340
0
  0
BLOCK_RECORD
  5
56F4
330
4E99
100
AcDbSymbolTableRecord
100
AcDbBlockTableRecord
  2
*D79
340
0
  0
BLOCK_RECORD
  5
5701
330
4E99
100
AcDbSymbolTableRecord
100
AcDbBlockTableRecord
  2
*D80
340
0
  0
BLOCK_RECORD
  5
570B
330
4E99
100
AcDbSymbolTableRecord
100
AcDbBlockTableRecord
  2
*D81
340
0
  0
ENDTAB
  0
ENDSEC
  0
SECTION
  2
BLOCKS
  0
BLOCK
  5
4F08
330
4F07
100
AcDbEntity
  8
0
100
AcDbBlockBegin
  2
*Model_Space
 70
     0
 10
0.0
 20
0.0
 30
0.0
  3
*Model_Space
  1

  0
ENDBLK
  5
4F09
330
4F07
100
AcDbEntity
  8
0
100
AcDbBlockEnd
  0
BLOCK
  5
4F04
330
4F03
100
AcDbEntity
 67
     1
  8
0
100
AcDbBlockBegin
  2
*Paper_Space
 70
     0
 10
0.0
 20
0.0
 30
0.0
  3
*Paper_Space
  1

  0
ENDBLK
  5
4F05
330
4F03
100
AcDbEntity
 67
     1
  8
0
100
AcDbBlockEnd
  0
BLOCK
  5
4F13
330
4F12
100
AcDbEntity
  8
0
100
AcDbBlockBegin
  2
$MODEL_SPACE
 70
     0
 10
0.0
 20
0.0
 30
0.0
  3
$MODEL_SPACE
  1

  0
ENDBLK
  5
21
330
4F12
100
AcDbEntity
  8
0
100
AcDbBlockEnd
  0
BLOCK
  5
4F15
330
4F14
100
AcDbEntity
  8
0
100
AcDbBlockBegin
  2
$PAPER_SPACE
 70
     0
 10
0.0
 20
0.0
 30
0.0
  3
$PAPER_SPACE
  1

  0
ENDBLK
  5
1D
330
4F14
100
AcDbEntity
  8
0
100
AcDbBlockEnd
  0
BLOCK
  5
4F17
330
4F16
100
AcDbEntity
  8
0
100
AcDbBlockBegin
  2
1
 70
     0
 10
0.0
 20
0.0
 30
0.0
  3
1
  1

  0
SOLID
  5
2C
330
4F16
100
AcDbEntity
  8
0
  6
ByBlock
 62
     0
100
AcDbTrace
 10
-1.81111092429205
 20
0.4852857095671653
 30
0.0
 11
-1.81111092429205
 21
-0.4852857095673643
 31
0.0
 12
0.0
 22
0.0
 32
0.0
 13
0.0
 23
0.0
 33
0.0
  0
ENDBLK
  5
2E
330
4F16
100
AcDbEntity
  8
0
100
AcDbBlockEnd
  0
BLOCK
  5
4F1A
330
4F19
100
AcDbEntity
  8
0
 48
2.0
100
AcDbBlockBegin
  2
Y2
 70
     0
 10
0.0
 20
0.0
 30
0.0
  3
Y2
  1

  0
SOLID
  5
4F1B
330
4F19
100
AcDbEntity
  8
0
  6
ByBlock
 62
     0
100
AcDbTrace
 10
-1.811110924292108
 20
0.485285709567151
 30
0.0
 11
-1.811110924292108
 21
-0.4852857095673784
 31
0.0
 12
-0.0000000000000568
 22
-0.0000000000000142
 32
0.0
 13
-0.0000000000000568
 23
-0.0000000000000142
 33
0.0
  0
ENDBLK
  5
4F1C
330
4F19
100
AcDbEntity
  8
0
 48
2.0
100
AcDbBlockEnd
  0
BLOCK
  5
4F1E
330
4F1D
100
AcDbEntity
  8
0
 48
2.0
100
AcDbBlockBegin
  2
Y1
 70
     0
 10
0.0
 20
0.0
 30
0.0
  3
Y1
  1

  0
LINE
  5
4F1F
330
4F1D
100
AcDbEntity
  8
0
  6
ByBlock
 62
     0
 48
2.0
100
AcDbLine
 10
-4.000000000000055
 20
-0.0000000000000142
 30
0.0
 11
-0.0000000000000568
 21
0.0
 31
0.0
  0
SOLID
  5
4F20
330
4F1D
100
AcDbEntity
  8
0
  6
ByBlock
 62
     0
100
AcDbTrace
 10
-1.811110924292108
 20
0.485285709567151
 30
0.0
 11
-1.811110924292108
 21
-0.4852857095673784
 31
0.0
 12
-0.0000000000000568
 22
-0.0000000000000142
 32
0.0
 13
-0.0000000000000568
 23
-0.0000000000000142
 33
0.0
  0
ENDBLK
  5
4F21
330
4F1D
100
AcDbEntity
  8
0
 48
2.0
100
AcDbBlockEnd
  0
BLOCK
  5
4F23
330
4F22
100
AcDbEntity
  8
0
 48
2.0
100
AcDbBlockBegin
  2
_DOT
 70
     0
 10
0.0
 20
0.0
 30
0.0
  3
_DOT
  1

  0
LWPOLYLINE
  5
4F24
330
4F22
100
AcDbEntity
  8
0
  6
ByBlock
 62
     0
 48
2.0
100
AcDbPolyline
 90
        2
 70
     1
 43
0.5
 10
-0.25
 20
0.0
 42
1.0
 10
0.25
 20
0.0
 42
1.0
  0
LINE
  5
4F25
330
4F22
100
AcDbEntity
  8
0
  6
ByBlock
 62
     0
 48
2.0
100
AcDbLine
 10
-0.5
 20
0.0
 30
0.0
 11
-1.0
 21
0.0
 31
0.0
  0
ENDBLK
  5
4F26
330
4F22
100
AcDbEntity
  8
0
 48
2.0
100
AcDbBlockEnd
  0
BLOCK
  5
4F28
330
4F27
100
AcDbEntity
  8
0
 48
2.0
100
AcDbBlockBegin
  2
*D6
 70
     1
 10
0.0
 20
0.0
 30
0.0
  3
*D6
  1

  0
LINE
  5
4F29
330
4F27
100
AcDbEntity
  8
4寸法線
 62
     0
 48
2.0
370
    -2
100
AcDbLine
 10
196.1117254467858
 20
-576.1682433036942
 30
0.0
 11
208.7400460639789
 21
-576.1682433036942
 31
0.0
  0
LINE
  5
4F2A
330
4F27
100
AcDbEntity
  8
4寸法線
 62
     0
 48
2.0
370
    -2
100
AcDbLine
 10
207.7400460639789
 20
-573.6682433036942
 30
0.0
 11
207.7400460639789
 21
-572.6682433036942
 31
0.0
  0
LINE
  5
4F2B
330
4F27
100
AcDbEntity
  8
4寸法線
 62
     0
 48
2.0
370
    -2
100
AcDbLine
 10
207.7400460639789
 20
-577.1682433036942
 30
0.0
 11
207.7400460639789
 21
-583.9301480655989
 31
0.0
  0
LINE
  5
4F2C
330
4F27
100
AcDbEntity
  8
4寸法線
 62
     0
 48
2.0
370
    -2
100
AcDbLine
 10
207.7400460639789
 20
-574.6682433036942
 30
0.0
 11
207.7400460639789
 21
-576.1682433036942
 31
0.0
  0
INSERT
  5
4F2D
330
4F27
100
AcDbEntity
  8
4寸法線
 62
     0
 48
2.0
370
    -2
100
AcDbBlockReference
  2
1
 10
207.7400460639789
 20
-574.6682433036942
 30
0.0
 50
270.0
  0
INSERT
  5
4F2E
330
4F27
100
AcDbEntity
  8
4寸法線
 62
     0
 48
2.0
370
    -2
100
AcDbBlockReference
  2
1
 10
207.7400460639789
 20
-576.1682433036942
 30
0.0
 50
90.0
  0
MTEXT
  5
4F2F
330
4F27
100
AcDbEntity
  8
4寸法線
 62
     0
 48
2.0
100
AcDbMText
 10
205.9900460639791
 20
-581.0491956846466
 30
0.0
 40
2.5
 41
0.0
 71
     5
 72
     1
  1
\A1;1.5
  7
KANJI
 11
0.0000000000000001
 21
1.0
 31
0.0
 73
     1
 44
1.0
1001
ACAD
1000
MTEXTBEGIN
1070
    73
1070
     1
1070
    44
1040
1.0
1070
    74
1070
     0
1000
MTEXTEND
  0
POINT
  5
4F30
330
4F27
100
AcDbEntity
  8
DEFPOINTS
 62
     0
 48
2.0
100
AcDbPoint
 10
195.1117254467858
 20
-576.1682433036942
 30
0.0
  0
POINT
  5
4F31
330
4F27
100
AcDbEntity
  8
DEFPOINTS
 62
     0
 48
2.0
100
AcDbPoint
 10
207.740046063979
 20
-574.6682433036942
 30
0.0
  0
POINT
  5
4F32
330
4F27
100
AcDbEntity
  8
DEFPOINTS
 62
     0
 48
2.0
100
AcDbPoint
 10
207.7400460639789
 20
-574.6682433036942
 30
0.0
  0
ENDBLK
  5
4F33
330
4F27
100
AcDbEntity
  8
0
 48
2.0
100
AcDbBlockEnd
  0
BLOCK
  5
4F35
330
4F34
100
AcDbEntity
  8
0
 48
2.0
100
AcDbBlockBegin
  2
*D7
 70
     1
 10
0.0
 20
0.0
 30
0.0
  3
*D7
  1

  0
LINE
  5
4F36
330
4F34
100
AcDbEntity
  8
4寸法線
 62
     0
 48
2.0
370
    -2
100
AcDbLine
 10
80.34432102822846
 20
-633.1661130372761
 30
0.0
 11
80.34432102822846
 21
-644.9224287137441
 31
0.0
  0
LINE
  5
4F37
330
4F34
100
AcDbEntity
  8
4寸法線
 62
     0
 48
2.0
370
    -2
100
AcDbLine
 10
81.34432102822847
 20
-643.9224287137441
 30
0.0
 11
82.34432102822848
 21
-643.9224287137441
 31
0.0
  0
LINE
  5
4F38
330
4F34
100
AcDbEntity
  8
4寸法線
 62
     0
 48
2.0
370
    -2
100
AcDbLine
 10
77.84432102822846
 20
-643.9224287137441
 30
0.0
 11
71.08241626632369
 21
-643.9224287137441
 31
0.0
  0
LINE
  5
4F39
330
4F34
100
AcDbEntity
  8
4寸法線
 62
     0
 48
2.0
370
    -2
100
AcDbLine
 10
80.34432102822846
 20
-643.9224287137441
 30
0.0
 11
78.84432102822848
 21
-643.9224287137441
 31
0.0
  0
INSERT
  5
4F3A
330
4F34
100
AcDbEntity
  8
4寸法線
 62
     0
 48
2.0
370
    -2
100
AcDbBlockReference
  2
1
 10
80.34432102822846
 20
-643.9224287137441
 30
0.0
 50
180.0
  0
INSERT
  5
4F3B
330
4F34
100
AcDbEntity
  8
4寸法線
 62
     0
 48
2.0
370
    -2
100
AcDbBlockReference
  2
1
 10
78.84432102822848
 20
-643.9224287137441
 30
0.0
  0
MTEXT
  5
4F3C
330
4F34
100
AcDbEntity
  8
4寸法線
 62
     0
 48
2.0
100
AcDbMText
 10
73.96336864727605
 20
-642.1724287137441
 30
0.0
 40
2.5
 41
0.0
 71
     5
 72
     1
  1
\A1;1.5
  7
KANJI
 73
     1
 44
1.0
1001
ACAD
1000
MTEXTBEGIN
1070
    73
1070
     1
1070
    44
1040
1.0
1070
    74
1070
     0
1000
MTEXTEND
  0
POINT
  5
4F3D
330
4F34
100
AcDbEntity
  8
DEFPOINTS
 62
     0
 48
2.0
100
AcDbPoint
 10
80.34432102822846
 20
-632.1661130372762
 30
0.0
  0
POINT
  5
4F3E
330
4F34
100
AcDbEntity
  8
DEFPOINTS
 62
     0
 48
2.0
100
AcDbPoint
 10
78.84432102822848
 20
-643.9224287137441
 30
0.0
  0
POINT
  5
4F3F
330
4F34
100
AcDbEntity
  8
DEFPOINTS
 62
     0
 48
2.0
100
AcDbPoint
 10
78.84432102822848
 20
-643.9224287137441
 30
0.0
  0
ENDBLK
  5
4F40
330
4F34
100
AcDbEntity
  8
0
 48
2.0
100
AcDbBlockEnd
  0
BLOCK
  5
4F42
330
4F41
100
AcDbEntity
  8
0
 48
2.0
100
AcDbBlockBegin
  2
*D8
 70
     1
 10
0.0
 20
0.0
 30
0.0
  3
*D8
  1

  0
LINE
  5
4F43
330
4F41
100
AcDbEntity
  8
4寸法線
 62
     0
 48
2.0
370
    -2
100
AcDbLine
 10
119.3443210282294
 20
-633.1661130372761
 30
0.0
 11
119.3443210282294
 21
-644.9224287137441
 31
0.0
  0
LINE
  5
4F44
330
4F41
100
AcDbEntity
  8
4寸法線
 62
     0
 48
2.0
370
    -2
100
AcDbLine
 10
118.3443210282294
 20
-643.9224287137441
 30
0.0
 11
117.3443210282294
 21
-643.9224287137441
 31
0.0
  0
LINE
  5
4F45
330
4F41
100
AcDbEntity
  8
4寸法線
 62
     0
 48
2.0
370
    -2
100
AcDbLine
 10
121.8443210282294
 20
-643.9224287137441
 30
0.0
 11
128.6062257901342
 21
-643.9224287137441
 31
0.0
  0
LINE
  5
4F46
330
4F41
100
AcDbEntity
  8
4寸法線
 62
     0
 48
2.0
370
    -2
100
AcDbLine
 10
119.3443210282294
 20
-643.9224287137441
 30
0.0
 11
120.8443210282294
 21
-643.9224287137441
 31
0.0
  0
INSERT
  5
4F47
330
4F41
100
AcDbEntity
  8
4寸法線
 62
     0
 48
2.0
370
    -2
100
AcDbBlockReference
  2
1
 10
119.3443210282294
 20
-643.9224287137441
 30
0.0
  0
INSERT
  5
4F48
330
4F41
100
AcDbEntity
  8
4寸法線
 62
     0
 48
2.0
370
    -2
100
AcDbBlockReference
  2
1
 10
120.8443210282294
 20
-643.9224287137441
 30
0.0
 50
180.0
  0
MTEXT
  5
4F49
330
4F41
100
AcDbEntity
  8
4寸法線
 62
     0
 48
2.0
100
AcDbMText
 10
125.7252734091818
 20
-642.1724287137441
 30
0.0
 40
2.5
 41
0.0
 71
     5
 72
     1
  1
\A1;1.5
  7
KANJI
 73
     1
 44
1.0
1001
ACAD
1000
MTEXTBEGIN
1070
    73
1070
     1
1070
    44
1040
1.0
1070
    74
1070
     0
1000
MTEXTEND
  0
POINT
  5
4F4A
330
4F41
100
AcDbEntity
  8
DEFPOINTS
 62
     0
 48
2.0
100
AcDbPoint
 10
119.3443210282294
 20
-632.1661130372762
 30
0.0
  0
POINT
  5
4F4B
330
4F41
100
AcDbEntity
  8
DEFPOINTS
 62
     0
 48
2.0
100
AcDbPoint
 10
120.8443210282294
 20
-643.9224287137441
 30
0.0
  0
POINT
  5
4F4C
330
4F41
100
AcDbEntity
  8
DEFPOINTS
 62
     0
 48
2.0
100
AcDbPoint
 10
120.8443210282294
 20
-643.9224287137441
 30
0.0
  0
ENDBLK
  5
4F4D
330
4F41
100
AcDbEntity
  8
0
 48
2.0
100
AcDbBlockEnd
  0
BLOCK
  5
4F4F
330
4F4E
100
AcDbEntity
  8
0
 48
2.0
100
AcDbBlockBegin
  2
*D9
 70
     1
 10
0.0
 20
0.0
 30
0.0
  3
*D9
  1

  0
LINE
  5
4F50
330
4F4E
100
AcDbEntity
  8
4寸法線
 62
     0
 48
2.0
370
    -2
100
AcDbLine
 10
120.8443210282294
 20
-635.1661130372762
 30
0.0
 11
120.8443210282294
 21
-649.8171631909189
 31
0.0
  0
LINE
  5
4F51
330
4F4E
100
AcDbEntity
  8
4寸法線
 62
     0
 48
2.0
370
    -2
100
AcDbLine
 10
78.84432102823542
 20
-635.1661130372762
 30
0.0
 11
78.84432102823542
 21
-649.8171631909189
 31
0.0
  0
LINE
  5
4F52
330
4F4E
100
AcDbEntity
  8
4寸法線
 62
     0
 48
2.0
370
    -2
100
AcDbLine
 10
119.8443210282294
 20
-648.8171631909189
 30
0.0
 11
79.84432102823541
 21
-648.8171631909189
 31
0.0
  0
INSERT
  5
4F53
330
4F4E
100
AcDbEntity
  8
4寸法線
 62
     0
 48
2.0
370
    -2
100
AcDbBlockReference
  2
1
 10
120.8443210282294
 20
-648.8171631909189
 30
0.0
  0
INSERT
  5
4F54
330
4F4E
100
AcDbEntity
  8
4寸法線
 62
     0
 48
2.0
370
    -2
100
AcDbBlockReference
  2
1
 10
78.84432102823542
 20
-648.8171631909189
 30
0.0
 50
180.0
  0
MTEXT
  5
4F55
330
4F4E
100
AcDbEntity
  8
4寸法線
 62
     0
 48
2.0
100
AcDbMText
 10
99.84432102823241
 20
-647.0671631909189
 30
0.0
 40
2.5
 41
0.0
 71
     5
 72
     1
  1
\A1;42
  7
KANJI
 73
     1
 44
1.0
1001
ACAD
1000
MTEXTBEGIN
1070
    73
1070
     1
1070
    44
1040
1.0
1070
    74
1070
     0
1000
MTEXTEND
  0
POINT
  5
4F56
330
4F4E
100
AcDbEntity
  8
DEFPOINTS
 62
     0
 48
2.0
100
AcDbPoint
 10
120.8443210282294
 20
-634.1661130372762
 30
0.0
  0
POINT
  5
4F57
330
4F4E
100
AcDbEntity
  8
DEFPOINTS
 62
     0
 48
2.0
100
AcDbPoint
 10
78.84432102823542
 20
-634.1661130372762
 30
0.0
  0
POINT
  5
4F58
330
4F4E
100
AcDbEntity
  8
DEFPOINTS
 62
     0
 48
2.0
100
AcDbPoint
 10
78.84432102823542
 20
-648.8171631909189
 30
0.0
  0
ENDBLK
  5
4F59
330
4F4E
100
AcDbEntity
  8
0
 48
2.0
100
AcDbBlockEnd
  0
BLOCK
  5
4F5B
330
4F5A
100
AcDbEntity
  8
0
 48
2.0
100
AcDbBlockBegin
  2
*D10
 70
     1
 10
0.0
 20
0.0
 30
0.0
  3
*D10
  1

  0
LINE
  5
4F5C
330
4F5A
100
AcDbEntity
  8
4寸法線
 62
     0
 48
2.0
370
    -2
100
AcDbLine
 10
192.611725446784
 20
-591.1682433036942
 30
0.0
 11
192.611725446784
 21
-602.8523707025174
 31
0.0
  0
LINE
  5
4F5D
330
4F5A
100
AcDbEntity
  8
4寸法線
 62
     0
 48
2.0
370
    -2
100
AcDbLine
 10
195.111725446786
 20
-577.1682433036942
 30
0.0
 11
195.111725446786
 21
-602.8523707025174
 31
0.0
  0
LINE
  5
4F5E
330
4F5A
100
AcDbEntity
  8
4寸法線
 62
     0
 48
2.0
370
    -2
100
AcDbLine
 10
191.611725446784
 20
-601.8523707025174
 30
0.0
 11
190.6117254467839
 21
-601.8523707025174
 31
0.0
  0
LINE
  5
4F5F
330
4F5A
100
AcDbEntity
  8
4寸法線
 62
     0
 48
2.0
370
    -2
100
AcDbLine
 10
196.111725446786
 20
-601.8523707025174
 30
0.0
 11
203.3498206848812
 21
-601.8523707025174
 31
0.0
  0
LINE
  5
4F60
330
4F5A
100
AcDbEntity
  8
4寸法線
 62
     0
 48
2.0
370
    -2
100
AcDbLine
 10
192.611725446784
 20
-601.8523707025174
 30
0.0
 11
195.111725446786
 21
-601.8523707025174
 31
0.0
  0
INSERT
  5
4F61
330
4F5A
100
AcDbEntity
  8
4寸法線
 62
     0
 48
2.0
370
    -2
100
AcDbBlockReference
  2
_DOT
 10
192.611725446784
 20
-601.8523707025174
 30
0.0
  0
INSERT
  5
4F62
330
4F5A
100
AcDbEntity
  8
4寸法線
 62
     0
 48
2.0
370
    -2
100
AcDbBlockReference
  2
1
 10
195.111725446786
 20
-601.8523707025174
 30
0.0
 50
180.0
  0
MTEXT
  5
4F63
330
4F5A
100
AcDbEntity
  8
4寸法線
 62
     0
 48
2.0
100
AcDbMText
 10
200.2307730658337
 20
-600.1023707025174
 30
0.0
 40
2.5
 41
0.0
 71
     5
 72
     1
  1
\A1;2.5
  7
KANJI
 73
     1
 44
1.0
1001
ACAD
1000
MTEXTBEGIN
1070
    73
1070
     1
1070
    44
1040
1.0
1070
    74
1070
     0
1000
MTEXTEND
  0
POINT
  5
4F64
330
4F5A
100
AcDbEntity
  8
DEFPOINTS
 62
     0
 48
2.0
100
AcDbPoint
 10
192.611725446784
 20
-590.1682433036942
 30
0.0
  0
POINT
  5
4F65
330
4F5A
100
AcDbEntity
  8
DEFPOINTS
 62
     0
 48
2.0
100
AcDbPoint
 10
195.111725446786
 20
-576.1682433036942
 30
0.0
  0
POINT
  5
4F66
330
4F5A
100
AcDbEntity
  8
DEFPOINTS
 62
     0
 48
2.0
100
AcDbPoint
 10
195.111725446786
 20
-601.8523707025174
 30
0.0
  0
ENDBLK
  5
4F67
330
4F5A
100
AcDbEntity
  8
0
 48
2.0
100
AcDbBlockEnd
  0
BLOCK
  5
4F69
330
4F68
100
AcDbEntity
  8
0
 48
2.0
100
AcDbBlockBegin
  2
*D11
 70
     1
 10
0.0
 20
0.0
 30
0.0
  3
*D11
  1

  0
LINE
  5
4F6A
330
4F68
100
AcDbEntity
  8
4寸法線
 62
     0
 48
2.0
370
    -2
100
AcDbLine
 10
189.1117254467839
 20
-592.168243303694
 30
0.0
 11
189.1117254467839
 21
-602.8523707025174
 31
0.0
  0
LINE
  5
4F6B
330
4F68
100
AcDbEntity
  8
4寸法線
 62
     0
 48
2.0
370
    -2
100
AcDbLine
 10
188.1117254467839
 20
-601.8523707025174
 30
0.0
 11
180.8736302086887
 21
-601.8523707025174
 31
0.0
  0
INSERT
  5
4F6C
330
4F68
100
AcDbEntity
  8
4寸法線
 62
     0
 48
2.0
370
    -2
100
AcDbBlockReference
  2
Y1
 10
189.1117254467839
 20
-601.8523707025174
 30
0.0
  0
MTEXT
  5
4F6D
330
4F68
100
AcDbEntity
  8
4寸法線
 62
     0
 48
2.0
100
AcDbMText
 10
183.9926778277363
 20
-600.1023707025174
 30
0.0
 40
2.5
 41
0.0
 71
     5
 72
     1
  1
\A1;3.5
  7
KANJI
 73
     1
 44
1.0
1001
ACAD
1000
MTEXTBEGIN
1070
    73
1070
     1
1070
    44
1040
1.0
1070
    74
1070
     0
1000
MTEXTEND
  0
POINT
  5
4F6E
330
4F68
100
AcDbEntity
  8
DEFPOINTS
 62
     0
 48
2.0
100
AcDbPoint
 10
192.611725446784
 20
-590.1682433036942
 30
0.0
  0
POINT
  5
4F6F
330
4F68
100
AcDbEntity
  8
DEFPOINTS
 62
     0
 48
2.0
100
AcDbPoint
 10
189.1117254467839
 20
-591.168243303694
 30
0.0
  0
POINT
  5
4F70
330
4F68
100
AcDbEntity
  8
DEFPOINTS
 62
     0
 48
2.0
100
AcDbPoint
 10
189.1117254467839
 20
-601.8523707025174
 30
0.0
  0
ENDBLK
  5
4F71
330
4F68
100
AcDbEntity
  8
0
 48
2.0
100
AcDbBlockEnd
  0
BLOCK
  5
4F73
330
4F72
100
AcDbEntity
  8
0
 48
2.0
100
AcDbBlockBegin
  2
*D12
 70
     1
 10
0.0
 20
0.0
 30
0.0
  3
*D12
  1

  0
LINE
  5
4F74
330
4F72
100
AcDbEntity
  8
4寸法線
 62
     0
 48
2.0
370
    -2
100
AcDbLine
 10
178.6738868269724
 20
-578.5434204374138
 30
0.0
 11
182.2691249222105
 21
-578.5434204374138
 31
0.0
  0
LINE
  5
4F75
330
4F72
100
AcDbEntity
  8
4寸法線
 62
     0
 48
2.0
370
    -2
100
AcDbLine
 10
182.2691249222105
 20
-578.5434204374138
 30
0.0
 11
185.0325979833019
 21
-576.3955804432287
 31
0.0
  0
MTEXT
  5
4F76
330
4F72
100
AcDbEntity
  8
4寸法線
 62
     0
 48
2.0
100
AcDbMText
 10
180.2215058745915
 20
-576.7934204374138
 30
0.0
 40
2.5
 41
0.0
 71
     5
 72
     1
  1
\A1;R1
  7
KANJI
 73
     1
 44
1.0
1001
ACAD
1000
MTEXTBEGIN
1070
    73
1070
     1
1070
    44
1040
1.0
1070
    74
1070
     0
1000
MTEXTEND
  0
INSERT
  5
4F77
330
4F72
100
AcDbEntity
  8
4寸法線
 62
     0
 48
2.0
370
    -2
100
AcDbBlockReference
  2
1
 10
185.8221617150423
 20
-575.7819118734613
 30
0.0
 50
37.85523977753586
  0
POINT
  5
4F78
330
4F72
100
AcDbEntity
  8
DEFPOINTS
 62
     0
 48
2.0
100
AcDbPoint
 10
185.8221617150423
 20
-575.7819118734613
 30
0.0
  0
POINT
  5
4F79
330
4F72
100
AcDbEntity
  8
DEFPOINTS
 62
     0
 48
2.0
100
AcDbPoint
 10
186.6117254467825
 20
-575.1682433036943
 30
0.0
  0
ENDBLK
  5
4F7A
330
4F72
100
AcDbEntity
  8
0
 48
2.0
100
AcDbBlockEnd
  0
BLOCK
  5
4F7C
330
4F7B
100
AcDbEntity
  8
0
 48
2.0
100
AcDbBlockBegin
  2
*D13
 70
     1
 10
0.0
 20
0.0
 30
0.0
  3
*D13
  1

  0
LINE
  5
4F7D
330
4F7B
100
AcDbEntity
  8
4寸法線
 62
     0
 48
2.0
370
    -2
100
AcDbLine
 10
179.0310704199018
 20
-541.0706781420108
 30
0.0
 11
182.6263085151404
 21
-541.0706781420109
 31
0.0
  0
LINE
  5
4F7E
330
4F7B
100
AcDbEntity
  8
4寸法線
 62
     0
 48
2.0
370
    -2
100
AcDbLine
 10
182.6263085151404
 20
-541.0706781420109
 30
0.0
 11
185.0325979833021
 21
-542.9409061641595
 31
0.0
  0
MTEXT
  5
4F7F
330
4F7B
100
AcDbEntity
  8
4寸法線
 62
     0
 48
2.0
100
AcDbMText
 10
180.5786894675209
 20
-539.3206781420109
 30
0.0
 40
2.5
 41
0.0
 71
     5
 72
     1
  1
\A1;R1
  7
KANJI
 73
     1
 44
1.0
1001
ACAD
1000
MTEXTBEGIN
1070
    73
1070
     1
1070
    44
1040
1.0
1070
    74
1070
     0
1000
MTEXTEND
  0
INSERT
  5
4F80
330
4F7B
100
AcDbEntity
  8
4寸法線
 62
     0
 48
2.0
370
    -2
100
AcDbBlockReference
  2
1
 10
185.8221617150425
 20
-543.5545747339268
 30
0.0
 50
322.144760222456
  0
POINT
  5
4F81
330
4F7B
100
AcDbEntity
  8
DEFPOINTS
 62
     0
 48
2.0
100
AcDbPoint
 10
185.8221617150425
 20
-543.5545747339268
 30
0.0
  0
POINT
  5
4F82
330
4F7B
100
AcDbEntity
  8
DEFPOINTS
 62
     0
 48
2.0
100
AcDbPoint
 10
186.6117254467825
 20
-544.1682433036938
 30
0.0
  0
ENDBLK
  5
4F83
330
4F7B
100
AcDbEntity
  8
0
 48
2.0
100
AcDbBlockEnd
  0
BLOCK
  5
4F85
330
4F84
100
AcDbEntity
  8
0
 48
2.0
100
AcDbBlockBegin
  2
*D14
 70
     1
 10
0.0
 20
0.0
 30
0.0
  3
*D14
  1

  0
LINE
  5
4F86
330
4F84
100
AcDbEntity
  8
4寸法線
 62
     0
 48
2.0
370
    -2
100
AcDbLine
 10
111.5106411879113
 20
-592.1682433036965
 30
0.0
 11
111.5106411879113
 21
-595.8349099703631
 31
0.0
  0
INSERT
  5
4F87
330
4F84
100
AcDbEntity
  8
4寸法線
 62
     0
 48
2.0
370
    -2
100
AcDbBlockReference
  2
1
 10
111.5106411879113
 20
-591.1682433036965
 30
0.0
 50
90.0
  0
MTEXT
  5
4F88
330
4F84
100
AcDbEntity
  8
4寸法線
 62
     0
 48
2.0
100
AcDbMText
 10
109.7606411879114
 20
-594.5015766370297
 30
0.0
 40
2.5
 41
0.0
 71
     5
 72
     1
  1
\A1;2
  7
KANJI
 11
0.0000000000000001
 21
1.0
 31
0.0
 73
     1
 44
1.0
1001
ACAD
1000
MTEXTBEGIN
1070
    73
1070
     1
1070
    44
1040
1.0
1070
    74
1070
     0
1000
MTEXTEND
  0
POINT
  5
4F89
330
4F84
100
AcDbEntity
  8
DEFPOINTS
 62
     0
 48
2.0
100
AcDbPoint
 10
99.84432102822882
 20
-589.1682433036963
 30
0.0
  0
POINT
  5
4F8A
330
4F84
100
AcDbEntity
  8
DEFPOINTS
 62
     0
 48
2.0
100
AcDbPoint
 10
111.5106411879113
 20
-591.1682433036965
 30
0.0
  0
POINT
  5
4F8B
330
4F84
100
AcDbEntity
  8
DEFPOINTS
 62
     0
 48
2.0
100
AcDbPoint
 10
111.5106411879113
 20
-591.1682433036965
 30
0.0
  0
ENDBLK
  5
4F8C
330
4F84
100
AcDbEntity
  8
0
 48
2.0
100
AcDbBlockEnd
  0
BLOCK
  5
4F8E
330
4F8D
100
AcDbEntity
  8
0
 48
2.0
100
AcDbBlockBegin
  2
*D15
 70
     1
 10
0.0
 20
0.0
 30
0.0
  3
*D15
  1

  0
LINE
  5
4F8F
330
4F8D
100
AcDbEntity
  8
4寸法線
 62
     0
 48
2.0
370
    -2
100
AcDbLine
 10
100.8443210282288
 20
-589.1682433036963
 30
0.0
 11
112.5106411879112
 21
-589.1682433036963
 31
0.0
  0
LINE
  5
4F90
330
4F8D
100
AcDbEntity
  8
4寸法線
 62
     0
 48
2.0
370
    -2
100
AcDbLine
 10
100.8443210282288
 20
-576.1682433036964
 30
0.0
 11
112.5106411879112
 21
-576.1682433036964
 31
0.0
  0
LINE
  5
4F91
330
4F8D
100
AcDbEntity
  8
4寸法線
 62
     0
 48
2.0
370
    -2
100
AcDbLine
 10
111.5106411879112
 20
-588.1682433036965
 30
0.0
 11
111.5106411879112
 21
-577.1682433036963
 31
0.0
  0
INSERT
  5
4F92
330
4F8D
100
AcDbEntity
  8
4寸法線
 62
     0
 48
2.0
370
    -2
100
AcDbBlockReference
  2
1
 10
111.5106411879112
 20
-589.1682433036963
 30
0.0
 50
270.0
  0
INSERT
  5
4F93
330
4F8D
100
AcDbEntity
  8
4寸法線
 62
     0
 48
2.0
370
    -2
100
AcDbBlockReference
  2
1
 10
111.5106411879112
 20
-576.1682433036964
 30
0.0
 50
90.0
  0
MTEXT
  5
4F94
330
4F8D
100
AcDbEntity
  8
4寸法線
 62
     0
 48
2.0
100
AcDbMText
 10
109.7606411879113
 20
-582.6682433036965
 30
0.0
 40
2.5
 41
0.0
 71
     5
 72
     1
  1
\A1;13
  7
KANJI
 11
0.0000000000000001
 21
1.0
 31
0.0
 73
     1
 44
1.0
1001
ACAD
1000
MTEXTBEGIN
1070
    73
1070
     1
1070
    44
1040
1.0
1070
    74
1070
     0
1000
MTEXTEND
  0
POINT
  5
4F95
330
4F8D
100
AcDbEntity
  8
DEFPOINTS
 62
     0
 48
2.0
100
AcDbPoint
 10
99.84432102822882
 20
-589.1682433036963
 30
0.0
  0
POINT
  5
4F96
330
4F8D
100
AcDbEntity
  8
DEFPOINTS
 62
     0
 48
2.0
100
AcDbPoint
 10
99.84432102822882
 20
-576.1682433036964
 30
0.0
  0
POINT
  5
4F97
330
4F8D
100
AcDbEntity
  8
DEFPOINTS
 62
     0
 48
2.0
100
AcDbPoint
 10
111.5106411879112
 20
-576.1682433036964
 30
0.0
  0
ENDBLK
  5
4F98
330
4F8D
100
AcDbEntity
  8
0
 48
2.0
100
AcDbBlockEnd
  0
BLOCK
  5
4F9A
330
4F99
100
AcDbEntity
  8
0
 48
2.0
100
AcDbBlockBegin
  2
*D16
 70
     1
 10
0.0
 20
0.0
 30
0.0
  3
*D16
  1

  0
LINE
  5
4F9B
330
4F99
100
AcDbEntity
  8
4寸法線
 62
     0
 48
2.0
370
    -2
100
AcDbLine
 10
75.27491234941487
 20
-602.882626464839
 30
0.0
 11
89.36539798851105
 21
-602.882626464839
 31
0.0
  0
LINE
  5
4F9C
330
4F99
100
AcDbEntity
  8
4寸法線
 62
     0
 48
2.0
370
    -2
100
AcDbLine
 10
89.36539798851105
 20
-602.882626464839
 30
0.0
 11
98.95423804545679
 21
-589.8756174312067
 31
0.0
  0
MTEXT
  5
4F9D
330
4F99
100
AcDbEntity
  8
4寸法線
 62
     0
 48
2.0
100
AcDbMText
 10
81.8820552065577
 20
-601.132626464839
 30
0.0
 40
2.5
 41
0.0
 71
     5
 72
     1
  1
\A1;2-R0.5
  7
KANJI
 73
     1
 44
1.0
1001
ACAD
1000
MTEXTBEGIN
1070
    73
1070
     1
1070
    44
1040
1.0
1070
    74
1070
     0
1000
MTEXTEND
  0
INSERT
  5
4F9E
330
4F99
100
AcDbEntity
  8
4寸法線
 62
     0
 48
2.0
370
    -2
100
AcDbBlockReference
  2
1
 10
99.54762670063765
 20
-589.0707013461998
 30
0.0
 50
53.60215197204918
  0
POINT
  5
4F9F
330
4F99
100
AcDbEntity
  8
DEFPOINTS
 62
     0
 48
2.0
100
AcDbPoint
 10
99.54762670063765
 20
-589.0707013461998
 30
0.0
  0
POINT
  5
4FA0
330
4F99
100
AcDbEntity
  8
DEFPOINTS
 62
     0
 48
2.0
100
AcDbPoint
 10
99.84432102822815
 20
-588.6682433036964
 30
0.0
  0
ENDBLK
  5
4FA1
330
4F99
100
AcDbEntity
  8
0
 48
2.0
100
AcDbBlockEnd
  0
BLOCK
  5
4FA3
330
4FA2
100
AcDbEntity
  8
0
 48
2.0
100
AcDbBlockBegin
  2
*D17
 70
     1
 10
0.0
 20
0.0
 30
0.0
  3
*D17
  1

  0
LINE
  5
4FA4
330
4FA2
100
AcDbEntity
  8
4寸法線
 62
     0
 48
2.0
370
    -2
100
AcDbLine
 10
68.1443210282286
 20
-574.1682433036967
 30
0.0
 11
60.21712831301671
 21
-574.1682433036967
 31
0.0
  0
LINE
  5
4FA5
330
4FA2
100
AcDbEntity
  8
4寸法線
 62
     0
 48
2.0
370
    -2
100
AcDbLine
 10
64.44432102822872
 20
-576.1682433036964
 30
0.0
 11
60.21712831301671
 21
-576.1682433036964
 31
0.0
  0
LINE
  5
4FA6
330
4FA2
100
AcDbEntity
  8
4寸法線
 62
     0
 48
2.0
370
    -2
100
AcDbLine
 10
61.21712831301671
 20
-573.1682433036967
 30
0.0
 11
61.21712831301671
 21
-572.1682433036967
 31
0.0
  0
LINE
  5
4FA7
330
4FA2
100
AcDbEntity
  8
4寸法線
 62
     0
 48
2.0
370
    -2
100
AcDbLine
 10
61.21712831301671
 20
-577.1682433036963
 30
0.0
 11
61.21712831301671
 21
-580.8349099703631
 31
0.0
  0
LINE
  5
4FA8
330
4FA2
100
AcDbEntity
  8
4寸法線
 62
     0
 48
2.0
370
    -2
100
AcDbLine
 10
61.21712831301671
 20
-574.1682433036967
 30
0.0
 11
61.21712831301671
 21
-576.1682433036964
 31
0.0
  0
INSERT
  5
4FA9
330
4FA2
100
AcDbEntity
  8
4寸法線
 62
     0
 48
2.0
370
    -2
100
AcDbBlockReference
  2
1
 10
61.21712831301671
 20
-574.1682433036967
 30
0.0
 50
270.0
  0
INSERT
  5
4FAA
330
4FA2
100
AcDbEntity
  8
4寸法線
 62
     0
 48
2.0
370
    -2
100
AcDbBlockReference
  2
1
 10
61.21712831301671
 20
-576.1682433036964
 30
0.0
 50
90.0
  0
MTEXT
  5
4FAB
330
4FA2
100
AcDbEntity
  8
4寸法線
 62
     0
 48
2.0
100
AcDbMText
 10
59.46712831301679
 20
-579.5015766370299
 30
0.0
 40
2.5
 41
0.0
 71
     5
 72
     1
  1
\A1;2
  7
KANJI
 11
0.0000000000000001
 21
1.0
 31
0.0
 73
     1
 44
1.0
1001
ACAD
1000
MTEXTBEGIN
1070
    73
1070
     1
1070
    44
1040
1.0
1070
    74
1070
     0
1000
MTEXTEND
  0
POINT
  5
4FAC
330
4FA2
100
AcDbEntity
  8
DEFPOINTS
 62
     0
 48
2.0
100
AcDbPoint
 10
69.14432102822861
 20
-574.1682433036967
 30
0.0
  0
POINT
  5
4FAD
330
4FA2
100
AcDbEntity
  8
DEFPOINTS
 62
     0
 48
2.0
100
AcDbPoint
 10
65.44432102822873
 20
-576.1682433036964
 30
0.0
  0
POINT
  5
4FAE
330
4FA2
100
AcDbEntity
  8
DEFPOINTS
 62
     0
 48
2.0
100
AcDbPoint
 10
61.21712831301671
 20
-576.1682433036964
 30
0.0
  0
ENDBLK
  5
4FAF
330
4FA2
100
AcDbEntity
  8
0
 48
2.0
100
AcDbBlockEnd
  0
BLOCK
  5
4FB1
330
4FB0
100
AcDbEntity
  8
0
 48
2.0
100
AcDbBlockBegin
  2
*D18
 70
     1
 10
0.0
 20
0.0
 30
0.0
  3
*D18
  1

  0
LINE
  5
4FB2
330
4FB0
100
AcDbEntity
  8
4寸法線
 62
     0
 48
2.0
370
    -2
100
AcDbLine
 10
69.13771971976763
 20
-597.2540950486286
 30
0.0
 11
73.87810365975723
 21
-597.2540950486286
 31
0.0
  0
LINE
  5
4FB3
330
4FB0
100
AcDbEntity
  8
4寸法線
 62
     0
 48
2.0
370
    -2
100
AcDbLine
 10
73.87810365975723
 20
-597.2540950486286
 30
0.0
 11
78.5561525818473
 21
-591.6981524688906
 31
0.0
  0
MTEXT
  5
4FB4
330
4FB0
100
AcDbEntity
  8
4寸法線
 62
     0
 48
2.0
100
AcDbMText
 10
70.68533876738666
 20
-595.5040950486286
 30
0.0
 40
2.5
 41
0.0
 71
     5
 72
     1
  1
\A1;R1
  7
KANJI
 73
     1
 44
1.0
1001
ACAD
1000
MTEXTBEGIN
1070
    73
1070
     1
1070
    44
1040
1.0
1070
    74
1070
     0
1000
MTEXTEND
  0
INSERT
  5
4FB5
330
4FB0
100
AcDbEntity
  8
4寸法線
 62
     0
 48
2.0
370
    -2
100
AcDbBlockReference
  2
1
 10
79.20023680503851
 20
-590.9331978862934
 30
0.0
 50
49.902951651217
  0
POINT
  5
4FB6
330
4FB0
100
AcDbEntity
  8
DEFPOINTS
 62
     0
 48
2.0
100
AcDbPoint
 10
79.20023680503851
 20
-590.9331978862934
 30
0.0
  0
POINT
  5
4FB7
330
4FB0
100
AcDbEntity
  8
DEFPOINTS
 62
     0
 48
2.0
100
AcDbPoint
 10
79.84432102822978
 20
-590.1682433036965
 30
0.0
  0
ENDBLK
  5
4FB8
330
4FB0
100
AcDbEntity
  8
0
 48
2.0
100
AcDbBlockEnd
  0
BLOCK
  5
4FBA
330
4FB9
100
AcDbEntity
  8
0
 48
2.0
100
AcDbBlockBegin
  2
*D19
 70
     1
 10
0.0
 20
0.0
 30
0.0
  3
*D19
  1

  0
LINE
  5
4FBB
330
4FB9
100
AcDbEntity
  8
4寸法線
 62
     0
 48
2.0
370
    -2
100
AcDbLine
 10
124.8100894209563
 20
-527.9232563013403
 30
0.0
 11
74.87855263550139
 21
-498.4132303060489
 31
0.0
  0
INSERT
  5
4FBC
330
4FB9
100
AcDbEntity
  8
4寸法線
 62
     0
 48
2.0
370
    -2
100
AcDbBlockReference
  2
1
 10
125.6709779862228
 20
-528.4320498529831
 30
0.0
 50
329.4164978099408
  0
INSERT
  5
4FBD
330
4FB9
100
AcDbEntity
  8
4寸法線
 62
     0
 48
2.0
370
    -2
100
AcDbBlockReference
  2
1
 10
74.01766407023491
 20
-497.904436754406
 30
0.0
 50
149.4164978099407
  0
MTEXT
  5
4FBE
102
{ACAD_XDICTIONARY
360
4FBF
102
}
330
4FB9
100
AcDbEntity
  8
4寸法線
 62
     0
 48
2.0
100
AcDbMText
 10
90.82433181869262
 20
-505.8045581515531
 30
0.0
 40
2.5
 41
0.0
 71
     5
 72
     1
  1
\A1;\U+220560
  7
KANJI
 11
0.8608885652664634
 21
-0.508793551642953
 31
0.0
 73
     1
 44
1.0
1001
ACAD
1000
MTEXTBEGIN
1070
    73
1070
     1
1070
    44
1040
1.0
1070
    74
1070
     0
1000
MTEXTEND
  0
POINT
  5
4FC0
330
4FB9
100
AcDbEntity
  8
DEFPOINTS
 62
     0
 48
2.0
100
AcDbPoint
 10
74.01766407023491
 20
-497.904436754406
 30
0.0
  0
POINT
  5
4FC1
330
4FB9
100
AcDbEntity
  8
DEFPOINTS
 62
     0
 48
2.0
100
AcDbPoint
 10
125.6709779862228
 20
-528.4320498529831
 30
0.0
  0
ENDBLK
  5
4FC2
330
4FB9
100
AcDbEntity
  8
0
 48
2.0
100
AcDbBlockEnd
  0
BLOCK
  5
4FC4
330
4FC3
100
AcDbEntity
  8
0
 48
2.0
100
AcDbBlockBegin
  2
*D20
 70
     1
 10
0.0
 20
0.0
 30
0.0
  3
*D20
  1

  0
LINE
  5
4FC5
330
4FC3
100
AcDbEntity
  8
4寸法線
 62
     0
 48
2.0
370
    -2
100
AcDbLine
 10
142.6452499728934
 20
-582.5837426153559
 30
0.0
 11
130.0023928300356
 21
-582.5837426153559
 31
0.0
  0
LINE
  5
4FC6
330
4FC3
100
AcDbEntity
  8
4寸法線
 62
     0
 48
2.0
370
    -2
100
AcDbLine
 10
130.0023928300356
 20
-582.5837426153559
 30
0.0
 11
121.5813420272372
 21
-570.1358799697726
 31
0.0
  0
MTEXT
  5
4FC7
330
4FC3
100
AcDbEntity
  8
4寸法線
 62
     0
 48
2.0
100
AcDbMText
 10
136.5738214014648
 20
-580.8337426153559
 30
0.0
 40
2.5
 41
0.0
 71
     5
 72
     1
  1
\A1;2-R2.1
  7
KANJI
 73
     1
 44
1.0
1001
ACAD
1000
MTEXTBEGIN
1070
    73
1070
     1
1070
    44
1040
1.0
1070
    74
1070
     0
1000
MTEXTEND
  0
INSERT
  5
4FC8
330
4FC3
100
AcDbEntity
  8
4寸法線
 62
     0
 48
2.0
370
    -2
100
AcDbBlockReference
  2
1
 10
121.0210126727176
 20
-569.307610077489
 30
0.0
 50
124.0785778618651
  0
POINT
  5
4FC9
330
4FC3
100
AcDbEntity
  8
DEFPOINTS
 62
     0
 48
2.0
100
AcDbPoint
 10
121.0210126727176
 20
-569.307610077489
 30
0.0
  0
POINT
  5
4FCA
330
4FC3
100
AcDbEntity
  8
DEFPOINTS
 62
     0
 48
2.0
100
AcDbPoint
 10
119.8443210282263
 20
-567.5682433036932
 30
0.0
  0
ENDBLK
  5
4FCB
330
4FC3
100
AcDbEntity
  8
0
 48
2.0
100
AcDbBlockEnd
  0
BLOCK
  5
4FCD
330
4FCC
100
AcDbEntity
  8
0
 48
2.0
100
AcDbBlockBegin
  2
*D21
 70
     1
 10
0.0
 20
0.0
 30
0.0
  3
*D21
  1

  0
LINE
  5
4FCE
330
4FCC
100
AcDbEntity
  8
4寸法線
 62
     0
 48
2.0
370
    -2
100
AcDbLine
 10
130.5509223366901
 20
-597.2540950486286
 30
0.0
 11
125.8105383967011
 21
-597.2540950486283
 31
0.0
  0
LINE
  5
4FCF
330
4FCC
100
AcDbEntity
  8
4寸法線
 62
     0
 48
2.0
370
    -2
100
AcDbLine
 10
125.8105383967011
 20
-597.2540950486283
 30
0.0
 11
121.1324894746106
 21
-591.6981524688906
 31
0.0
  0
MTEXT
  5
4FD0
330
4FCC
100
AcDbEntity
  8
4寸法線
 62
     0
 48
2.0
100
AcDbMText
 10
129.0033032890711
 20
-595.5040950486284
 30
0.0
 40
2.5
 41
0.0
 71
     5
 72
     1
  1
\A1;R1
  7
KANJI
 73
     1
 44
1.0
1001
ACAD
1000
MTEXTBEGIN
1070
    73
1070
     1
1070
    44
1040
1.0
1070
    74
1070
     0
1000
MTEXTEND
  0
INSERT
  5
4FD1
330
4FCC
100
AcDbEntity
  8
4寸法線
 62
     0
 48
2.0
370
    -2
100
AcDbBlockReference
  2
1
 10
120.4884052514193
 20
-590.9331978862936
 30
0.0
 50
130.0970483487861
  0
POINT
  5
4FD2
330
4FCC
100
AcDbEntity
  8
DEFPOINTS
 62
     0
 48
2.0
100
AcDbPoint
 10
120.4884052514193
 20
-590.9331978862936
 30
0.0
  0
POINT
  5
4FD3
330
4FCC
100
AcDbEntity
  8
DEFPOINTS
 62
     0
 48
2.0
100
AcDbPoint
 10
119.844321028228
 20
-590.1682433036966
 30
0.0
  0
ENDBLK
  5
4FD4
330
4FCC
100
AcDbEntity
  8
0
 48
2.0
100
AcDbBlockEnd
  0
BLOCK
  5
4FD6
330
4FD5
100
AcDbEntity
  8
0
 48
2.0
100
AcDbBlockBegin
  2
*D22
 70
     1
 10
0.0
 20
0.0
 30
0.0
  3
*D22
  1

  0
LINE
  5
4FD7
330
4FD5
100
AcDbEntity
  8
4寸法線
 62
     0
 48
2.0
370
    -2
100
AcDbLine
 10
196.1117254467859
 20
-544.6682433036936
 30
0.0
 11
208.740046063979
 21
-544.6682433036936
 31
0.0
  0
LINE
  5
4FD8
330
4FD5
100
AcDbEntity
  8
4寸法線
 62
     0
 48
2.0
370
    -2
100
AcDbLine
 10
207.740046063979
 20
-545.6682433036936
 30
0.0
 11
207.740046063979
 21
-546.6682433036936
 31
0.0
  0
LINE
  5
4FD9
330
4FD5
100
AcDbEntity
  8
4寸法線
 62
     0
 48
2.0
370
    -2
100
AcDbLine
 10
207.740046063979
 20
-542.1682433036936
 30
0.0
 11
207.740046063979
 21
-535.4063385417888
 31
0.0
  0
LINE
  5
4FDA
330
4FD5
100
AcDbEntity
  8
4寸法線
 62
     0
 48
2.0
370
    -2
100
AcDbLine
 10
207.740046063979
 20
-544.6682433036936
 30
0.0
 11
207.740046063979
 21
-543.1682433036939
 31
0.0
  0
INSERT
  5
4FDB
330
4FD5
100
AcDbEntity
  8
4寸法線
 62
     0
 48
2.0
370
    -2
100
AcDbBlockReference
  2
1
 10
207.740046063979
 20
-544.6682433036936
 30
0.0
 50
90.0
  0
INSERT
  5
4FDC
330
4FD5
100
AcDbEntity
  8
4寸法線
 62
     0
 48
2.0
370
    -2
100
AcDbBlockReference
  2
1
 10
207.740046063979
 20
-543.1682433036939
 30
0.0
 50
270.0
  0
MTEXT
  5
4FDD
330
4FD5
100
AcDbEntity
  8
4寸法線
 62
     0
 48
2.0
100
AcDbMText
 10
205.9900460639791
 20
-538.2872909227414
 30
0.0
 40
2.5
 41
0.0
 71
     5
 72
     1
  1
\A1;1.5
  7
KANJI
 11
0.0000000000000001
 21
1.0
 31
0.0
 73
     1
 44
1.0
1001
ACAD
1000
MTEXTBEGIN
1070
    73
1070
     1
1070
    44
1040
1.0
1070
    74
1070
     0
1000
MTEXTEND
  0
POINT
  5
4FDE
330
4FD5
100
AcDbEntity
  8
DEFPOINTS
 62
     0
 48
2.0
100
AcDbPoint
 10
195.1117254467859
 20
-544.6682433036936
 30
0.0
  0
POINT
  5
4FDF
330
4FD5
100
AcDbEntity
  8
DEFPOINTS
 62
     0
 48
2.0
100
AcDbPoint
 10
207.740046063979
 20
-543.1682433036939
 30
0.0
  0
POINT
  5
4FE0
330
4FD5
100
AcDbEntity
  8
DEFPOINTS
 62
     0
 48
2.0
100
AcDbPoint
 10
207.740046063979
 20
-543.1682433036939
 30
0.0
  0
ENDBLK
  5
4FE1
330
4FD5
100
AcDbEntity
  8
0
 48
2.0
100
AcDbBlockEnd
  0
BLOCK
  5
51FC
330
51FB
100
AcDbEntity
  8
0
100
AcDbBlockBegin
  2
*D23
 70
     1
 10
0.0
 20
0.0
 30
0.0
  3
*D23
  1

  0
LINE
  5
52B2
330
51FB
100
AcDbEntity
  8
4寸法線
 62
     0
 48
2.0
370
    -2
100
AcDbLine
 10
909.6038133303714
 20
164.5421470113026
 30
0.0
 11
922.2321339475646
 21
164.5421470113026
 31
0.0
  0
LINE
  5
52B3
330
51FB
100
AcDbEntity
  8
4寸法線
 62
     0
 48
2.0
370
    -2
100
AcDbLine
 10
921.2321339475646
 20
163.5421470113026
 30
0.0
 11
921.2321339475646
 21
162.5421470113026
 31
0.0
  0
LINE
  5
52B4
330
51FB
100
AcDbEntity
  8
4寸法線
 62
     0
 48
2.0
370
    -2
100
AcDbLine
 10
921.2321339475646
 20
167.0421470113025
 30
0.0
 11
921.2321339475646
 21
168.0421470113025
 31
0.0
  0
MTEXT
  5
52B5
330
51FB
100
AcDbEntity
  8
4寸法線
 62
     0
 48
2.0
100
AcDbMText
 10
921.2321339475639
 20
159.6611946303501
 30
0.0
 40
2.5
 41
0.0
 71
     5
 72
     1
  1
\A1;1.5
 11
0.0000000000000001
 21
1.0
 31
0.0
 73
     1
 44
1.0
1001
ACAD
1000
MTEXTBEGIN
1070
    73
1070
     1
1070
    44
1040
1.0
1070
    74
1070
     0
1000
MTEXTEND
  0
LINE
  5
52B6
330
51FB
100
AcDbEntity
  8
4寸法線
 62
     0
 48
2.0
370
    -2
100
AcDbLine
 10
921.2321339475646
 20
164.5421470113026
 30
0.0
 11
921.2321339475646
 21
166.0421470113026
 31
0.0
  0
INSERT
  5
52B7
330
51FB
100
AcDbEntity
  8
4寸法線
 62
     0
 48
2.0
370
    -2
100
AcDbBlockReference
  2
1
 10
921.2321339475646
 20
164.5421470113026
 30
0.0
 50
90.0
  0
INSERT
  5
52B8
330
51FB
100
AcDbEntity
  8
4寸法線
 62
     0
 48
2.0
370
    -2
100
AcDbBlockReference
  2
1
 10
921.2321339475646
 20
166.0421470113026
 30
0.0
 50
270.0
  0
POINT
  5
52B9
330
51FB
100
AcDbEntity
  8
DEFPOINTS
 62
     0
 48
2.0
100
AcDbPoint
 10
908.6038133303715
 20
164.5421470113026
 30
0.0
  0
POINT
  5
52BA
330
51FB
100
AcDbEntity
  8
DEFPOINTS
 62
     0
 48
2.0
100
AcDbPoint
 10
921.2321339475646
 20
166.0421470113026
 30
0.0
  0
POINT
  5
52BB
330
51FB
100
AcDbEntity
  8
DEFPOINTS
 62
     0
 48
2.0
100
AcDbPoint
 10
921.2321339475646
 20
166.0421470113026
 30
0.0
  0
ENDBLK
  5
51FD
330
51FB
100
AcDbEntity
  8
0
100
AcDbBlockEnd
  0
BLOCK
  5
5209
330
5208
100
AcDbEntity
  8
0
100
AcDbBlockBegin
  2
*D24
 70
     1
 10
0.0
 20
0.0
 30
0.0
  3
*D24
  1

  0
LINE
  5
52BC
330
5208
100
AcDbEntity
  8
4寸法線
 62
     0
 48
2.0
370
    -2
100
AcDbLine
 10
793.8364089118135
 20
107.5442772777206
 30
0.0
 11
793.8364089118135
 21
95.78796160125262
 31
0.0
  0
LINE
  5
52BD
330
5208
100
AcDbEntity
  8
4寸法線
 62
     0
 48
2.0
370
    -2
100
AcDbLine
 10
794.8364089118134
 20
96.78796160125264
 30
0.0
 11
795.8364089118134
 21
96.78796160125264
 31
0.0
  0
LINE
  5
52BE
330
5208
100
AcDbEntity
  8
4寸法線
 62
     0
 48
2.0
370
    -2
100
AcDbLine
 10
791.3364089118134
 20
96.78796160125264
 30
0.0
 11
790.3364089118134
 21
96.78796160125264
 31
0.0
  0
MTEXT
  5
52BF
330
5208
100
AcDbEntity
  8
4寸法線
 62
     0
 48
2.0
100
AcDbMText
 10
787.4554565308612
 20
96.78796160125264
 30
0.0
 40
2.5
 41
0.0
 71
     5
 72
     1
  1
\A1;1.5
 73
     1
 44
1.0
1001
ACAD
1000
MTEXTBEGIN
1070
    73
1070
     1
1070
    44
1040
1.0
1070
    74
1070
     0
1000
MTEXTEND
  0
LINE
  5
52C0
330
5208
100
AcDbEntity
  8
4寸法線
 62
     0
 48
2.0
370
    -2
100
AcDbLine
 10
793.8364089118135
 20
96.78796160125264
 30
0.0
 11
792.3364089118137
 21
96.78796160125264
 31
0.0
  0
INSERT
  5
52C1
330
5208
100
AcDbEntity
  8
4寸法線
 62
     0
 48
2.0
370
    -2
100
AcDbBlockReference
  2
1
 10
793.8364089118135
 20
96.78796160125264
 30
0.0
 50
180.0
  0
INSERT
  5
52C2
330
5208
100
AcDbEntity
  8
4寸法線
 62
     0
 48
2.0
370
    -2
100
AcDbBlockReference
  2
1
 10
792.3364089118137
 20
96.78796160125264
 30
0.0
  0
POINT
  5
52C3
330
5208
100
AcDbEntity
  8
DEFPOINTS
 62
     0
 48
2.0
100
AcDbPoint
 10
793.8364089118135
 20
108.5442772777206
 30
0.0
  0
POINT
  5
52C4
330
5208
100
AcDbEntity
  8
DEFPOINTS
 62
     0
 48
2.0
100
AcDbPoint
 10
792.3364089118137
 20
96.78796160125264
 30
0.0
  0
POINT
  5
52C5
330
5208
100
AcDbEntity
  8
DEFPOINTS
 62
     0
 48
2.0
100
AcDbPoint
 10
792.3364089118137
 20
96.78796160125264
 30
0.0
  0
ENDBLK
  5
520A
330
5208
100
AcDbEntity
  8
0
100
AcDbBlockEnd
  0
BLOCK
  5
5216
330
5215
100
AcDbEntity
  8
0
100
AcDbBlockBegin
  2
*D25
 70
     1
 10
0.0
 20
0.0
 30
0.0
  3
*D25
  1

  0
LINE
  5
52C6
330
5215
100
AcDbEntity
  8
4寸法線
 62
     0
 48
2.0
370
    -2
100
AcDbLine
 10
832.8364089118144
 20
107.5442772777206
 30
0.0
 11
832.8364089118144
 21
95.78796160125262
 31
0.0
  0
LINE
  5
52C7
330
5215
100
AcDbEntity
  8
4寸法線
 62
     0
 48
2.0
370
    -2
100
AcDbLine
 10
831.8364089118144
 20
96.78796160125264
 30
0.0
 11
830.8364089118143
 21
96.78796160125264
 31
0.0
  0
LINE
  5
52C8
330
5215
100
AcDbEntity
  8
4寸法線
 62
     0
 48
2.0
370
    -2
100
AcDbLine
 10
835.3364089118143
 20
96.78796160125264
 30
0.0
 11
836.3364089118144
 21
96.78796160125264
 31
0.0
  0
MTEXT
  5
52C9
330
5215
100
AcDbEntity
  8
4寸法線
 62
     0
 48
2.0
100
AcDbMText
 10
839.217361292767
 20
96.78796160125264
 30
0.0
 40
2.5
 41
0.0
 71
     5
 72
     1
  1
\A1;1.5
 73
     1
 44
1.0
1001
ACAD
1000
MTEXTBEGIN
1070
    73
1070
     1
1070
    44
1040
1.0
1070
    74
1070
     0
1000
MTEXTEND
  0
LINE
  5
52CA
330
5215
100
AcDbEntity
  8
4寸法線
 62
     0
 48
2.0
370
    -2
100
AcDbLine
 10
832.8364089118144
 20
96.78796160125264
 30
0.0
 11
834.3364089118146
 21
96.78796160125264
 31
0.0
  0
INSERT
  5
52CB
330
5215
100
AcDbEntity
  8
4寸法線
 62
     0
 48
2.0
370
    -2
100
AcDbBlockReference
  2
1
 10
832.8364089118144
 20
96.78796160125264
 30
0.0
  0
INSERT
  5
52CC
330
5215
100
AcDbEntity
  8
4寸法線
 62
     0
 48
2.0
370
    -2
100
AcDbBlockReference
  2
1
 10
834.3364089118146
 20
96.78796160125264
 30
0.0
 50
180.0
  0
POINT
  5
52CD
330
5215
100
AcDbEntity
  8
DEFPOINTS
 62
     0
 48
2.0
100
AcDbPoint
 10
832.8364089118144
 20
108.5442772777206
 30
0.0
  0
POINT
  5
52CE
330
5215
100
AcDbEntity
  8
DEFPOINTS
 62
     0
 48
2.0
100
AcDbPoint
 10
834.3364089118146
 20
96.78796160125264
 30
0.0
  0
POINT
  5
52CF
330
5215
100
AcDbEntity
  8
DEFPOINTS
 62
     0
 48
2.0
100
AcDbPoint
 10
834.3364089118146
 20
96.78796160125264
 30
0.0
  0
ENDBLK
  5
5217
330
5215
100
AcDbEntity
  8
0
100
AcDbBlockEnd
  0
BLOCK
  5
5223
330
5222
100
AcDbEntity
  8
0
100
AcDbBlockBegin
  2
*D26
 70
     1
 10
0.0
 20
0.0
 30
0.0
  3
*D26
  1

  0
LINE
  5
52D0
330
5222
100
AcDbEntity
  8
4寸法線
 62
     0
 48
2.0
370
    -2
100
AcDbLine
 10
834.3364089118146
 20
105.5442772777204
 30
0.0
 11
834.3364089118146
 21
90.89322712407783
 31
0.0
  0
LINE
  5
52D1
330
5222
100
AcDbEntity
  8
4寸法線
 62
     0
 48
2.0
370
    -2
100
AcDbLine
 10
792.3364089118206
 20
105.5442772777205
 30
0.0
 11
792.3364089118206
 21
90.89322712407783
 31
0.0
  0
LINE
  5
52D2
330
5222
100
AcDbEntity
  8
4寸法線
 62
     0
 48
2.0
370
    -2
100
AcDbLine
 10
833.3364089118145
 20
91.89322712407784
 30
0.0
 11
793.3364089118206
 21
91.89322712407784
 31
0.0
  0
INSERT
  5
52D3
330
5222
100
AcDbEntity
  8
4寸法線
 62
     0
 48
2.0
370
    -2
100
AcDbBlockReference
  2
1
 10
834.3364089118146
 20
91.89322712407784
 30
0.0
  0
INSERT
  5
52D4
330
5222
100
AcDbEntity
  8
4寸法線
 62
     0
 48
2.0
370
    -2
100
AcDbBlockReference
  2
1
 10
792.3364089118206
 20
91.89322712407784
 30
0.0
 50
180.0
  0
MTEXT
  5
52D5
330
5222
100
AcDbEntity
  8
4寸法線
 62
     0
 48
2.0
100
AcDbMText
 10
813.3364089118176
 20
93.64322712407783
 30
0.0
 40
2.5
 41
0.0
 71
     5
 72
     1
  1
\A1;42
 73
     1
 44
1.0
1001
ACAD
1000
MTEXTBEGIN
1070
    73
1070
     1
1070
    44
1040
1.0
1070
    74
1070
     0
1000
MTEXTEND
  0
POINT
  5
52D6
330
5222
100
AcDbEntity
  8
DEFPOINTS
 62
     0
 48
2.0
100
AcDbPoint
 10
834.3364089118146
 20
106.5442772777204
 30
0.0
  0
POINT
  5
52D7
330
5222
100
AcDbEntity
  8
DEFPOINTS
 62
     0
 48
2.0
100
AcDbPoint
 10
792.3364089118206
 20
106.5442772777205
 30
0.0
  0
POINT
  5
52D8
330
5222
100
AcDbEntity
  8
DEFPOINTS
 62
     0
 48
2.0
100
AcDbPoint
 10
792.3364089118206
 20
91.89322712407784
 30
0.0
  0
ENDBLK
  5
5224
330
5222
100
AcDbEntity
  8
0
100
AcDbBlockEnd
  0
BLOCK
  5
522F
330
522E
100
AcDbEntity
  8
0
100
AcDbBlockBegin
  2
*D27
 70
     1
 10
0.0
 20
0.0
 30
0.0
  3
*D27
  1

  0
LINE
  5
52D9
330
522E
100
AcDbEntity
  8
4寸法線
 62
     0
 48
2.0
370
    -2
100
AcDbLine
 10
792.0482404654324
 20
149.0122378461062
 30
0.0
 11
791.4041562422412
 21
148.2472832635092
 31
0.0
  0
MTEXT
  5
52DA
330
522E
100
AcDbEntity
  8
4寸法線
 62
     0
 48
2.0
100
AcDbMText
 10
784.1774266509717
 20
143.4562952663681
 30
0.0
 40
2.5
 41
0.0
 71
     5
 72
     1
  1
\A1;R1
 11
0.6440842231912259
 21
0.7649545825970032
 31
0.0
 73
     1
 44
1.0
1001
ACAD
1000
MTEXTBEGIN
1070
    73
1070
     1
1070
    44
1040
1.0
1070
    74
1070
     0
1000
MTEXTEND
  0
INSERT
  5
52DB
330
522E
100
AcDbEntity
  8
4寸法線
 62
     0
 48
2.0
370
    -2
100
AcDbBlockReference
  2
1
 10
792.6923246886238
 20
149.7771924287031
 30
0.0
 50
49.90295165121764
  0
POINT
  5
52DC
330
522E
100
AcDbEntity
  8
DEFPOINTS
 62
     0
 48
2.0
100
AcDbPoint
 10
792.6923246886238
 20
149.7771924287031
 30
0.0
  0
POINT
  5
52DD
330
522E
100
AcDbEntity
  8
DEFPOINTS
 62
     0
 48
2.0
100
AcDbPoint
 10
793.3364089118148
 20
150.5421470113003
 30
0.0
  0
ENDBLK
  5
5230
330
522E
100
AcDbEntity
  8
0
100
AcDbBlockEnd
  0
BLOCK
  5
5237
330
5236
100
AcDbEntity
  8
0
100
AcDbBlockBegin
  2
*D28
 70
     1
 10
0.0
 20
0.0
 30
0.0
  3
*D28
  1

  0
LINE
  5
52DE
330
5236
100
AcDbEntity
  8
4寸法線
 62
     0
 48
2.0
370
    -2
100
AcDbLine
 10
838.3021773045413
 20
212.7871340136564
 30
0.0
 11
806.5467520359932
 21
231.5549005495215
 31
0.0
  0
LINE
  5
52DF
330
5236
100
AcDbEntity
  8
4寸法線
 62
     0
 48
2.0
370
    -2
100
AcDbLine
 10
788.3706405190864
 20
242.2971600089477
 30
0.0
 11
800.3053099378114
 21
235.2436537989329
 31
0.0
  0
MTEXT
  5
52E0
102
{ACAD_XDICTIONARY
360
598B
102
}
330
5236
100
AcDbEntity
  8
4寸法線
 62
     0
 48
2.0
100
AcDbMText
 10
803.4260309869026
 20
233.3992771742272
 30
0.0
 40
2.5
 41
0.0
 71
     5
 72
     1
  1
\A1;\U+220560
 11
0.8608885652664639
 21
-0.5087935516429523
 31
0.0
 73
     1
 44
1.0
1001
ACAD
1000
MTEXTBEGIN
1070
    73
1070
     1
1070
    44
1040
1.0
1070
    74
1070
     0
1000
MTEXTEND
  0
INSERT
  5
52E1
330
5236
100
AcDbEntity
  8
4寸法線
 62
     0
 48
2.0
370
    -2
100
AcDbBlockReference
  2
1
 10
839.1630658698076
 20
212.2783404620135
 30
0.0
 50
329.4164978099408
  0
INSERT
  5
52E2
330
5236
100
AcDbEntity
  8
4寸法線
 62
     0
 48
2.0
370
    -2
100
AcDbBlockReference
  2
1
 10
787.5097519538199
 20
242.8059535605906
 30
0.0
 50
149.4164978099408
  0
POINT
  5
52E3
330
5236
100
AcDbEntity
  8
DEFPOINTS
 62
     0
 48
2.0
100
AcDbPoint
 10
787.5097519538199
 20
242.8059535605906
 30
0.0
  0
POINT
  5
52E4
330
5236
100
AcDbEntity
  8
DEFPOINTS
 62
     0
 48
2.0
100
AcDbPoint
 10
839.1630658698076
 20
212.2783404620135
 30
0.0
  0
ENDBLK
  5
5238
330
5236
100
AcDbEntity
  8
0
100
AcDbBlockEnd
  0
BLOCK
  5
5241
330
5240
100
AcDbEntity
  8
0
100
AcDbBlockBegin
  2
*D29
 70
     1
 10
0.0
 20
0.0
 30
0.0
  3
*D29
  1

  0
LINE
  5
52E5
330
5240
100
AcDbEntity
  8
4寸法線
 62
     0
 48
2.0
370
    -2
100
AcDbLine
 10
833.3364089118115
 20
173.1421470113034
 30
0.0
 11
833.9527712017831
 21
172.2310501297914
 31
0.0
  0
MTEXT
  5
52E6
330
5240
100
AcDbEntity
  8
4寸法線
 62
     0
 48
2.0
100
AcDbMText
 10
850.0659092850499
 20
158.1266476996408
 30
0.0
 40
2.5
 41
0.0
 71
     5
 72
     1
  1
\A1;2-R2.1
 11
0.5603293545196416
 21
-0.8282698922836699
 31
0.0
 73
     1
 44
1.0
1001
ACAD
1000
MTEXTBEGIN
1070
    73
1070
     1
1070
    44
1040
1.0
1070
    74
1070
     0
1000
MTEXTEND
  0
INSERT
  5
52E7
330
5240
100
AcDbEntity
  8
4寸法線
 62
     0
 48
2.0
370
    -2
100
AcDbBlockReference
  2
1
 10
834.5131005563027
 20
171.4027802375078
 30
0.0
 50
304.0785778618638
  0
POINT
  5
52E8
330
5240
100
AcDbEntity
  8
DEFPOINTS
 62
     0
 48
2.0
100
AcDbPoint
 10
834.5131005563027
 20
171.4027802375078
 30
0.0
  0
POINT
  5
52E9
330
5240
100
AcDbEntity
  8
DEFPOINTS
 62
     0
 48
2.0
100
AcDbPoint
 10
833.3364089118115
 20
173.1421470113034
 30
0.0
  0
ENDBLK
  5
5242
330
5240
100
AcDbEntity
  8
0
100
AcDbBlockEnd
  0
BLOCK
  5
5249
330
5248
100
AcDbEntity
  8
0
100
AcDbBlockBegin
  2
*D30
 70
     1
 10
0.0
 20
0.0
 30
0.0
  3
*D30
  1

  0
LINE
  5
52EA
330
5248
100
AcDbEntity
  8
4寸法線
 62
     0
 48
2.0
370
    -2
100
AcDbLine
 10
834.6245773581957
 20
149.0122378461061
 30
0.0
 11
835.2686615813871
 21
148.2472832635091
 31
0.0
  0
MTEXT
  5
52EB
330
5248
100
AcDbEntity
  8
4寸法線
 62
     0
 48
2.0
100
AcDbMText
 10
842.4953911726563
 20
143.4562952663681
 30
0.0
 40
2.5
 41
0.0
 71
     5
 72
     1
  1
\A1;R1
 11
0.6440842231912925
 21
-0.764954582596947
 31
0.0
 73
     1
 44
1.0
1001
ACAD
1000
MTEXTBEGIN
1070
    73
1070
     1
1070
    44
1040
1.0
1070
    74
1070
     0
1000
MTEXTEND
  0
INSERT
  5
52EC
330
5248
100
AcDbEntity
  8
4寸法線
 62
     0
 48
2.0
370
    -2
100
AcDbBlockReference
  2
1
 10
833.9804931350043
 20
149.777192428703
 30
0.0
 50
130.0970483487873
  0
POINT
  5
52ED
330
5248
100
AcDbEntity
  8
DEFPOINTS
 62
     0
 48
2.0
100
AcDbPoint
 10
833.9804931350043
 20
149.777192428703
 30
0.0
  0
POINT
  5
52EE
330
5248
100
AcDbEntity
  8
DEFPOINTS
 62
     0
 48
2.0
100
AcDbPoint
 10
833.3364089118131
 20
150.5421470113001
 30
0.0
  0
ENDBLK
  5
524A
330
5248
100
AcDbEntity
  8
0
100
AcDbBlockEnd
  0
BLOCK
  5
5251
330
5250
100
AcDbEntity
  8
0
100
AcDbBlockBegin
  2
*D31
 70
     1
 10
0.0
 20
0.0
 30
0.0
  3
*D31
  1

  0
LINE
  5
52EF
330
5250
100
AcDbEntity
  8
4寸法線
 62
     0
 48
2.0
370
    -2
100
AcDbLine
 10
909.6038133303714
 20
196.0421470113031
 30
0.0
 11
922.2321339475646
 21
196.0421470113031
 31
0.0
  0
LINE
  5
52F0
330
5250
100
AcDbEntity
  8
4寸法線
 62
     0
 48
2.0
370
    -2
100
AcDbLine
 10
921.2321339475646
 20
195.0421470113031
 30
0.0
 11
921.2321339475646
 21
194.0421470113031
 31
0.0
  0
LINE
  5
52F1
330
5250
100
AcDbEntity
  8
4寸法線
 62
     0
 48
2.0
370
    -2
100
AcDbLine
 10
921.2321339475646
 20
198.5421470113031
 30
0.0
 11
921.2321339475646
 21
199.5421470113031
 31
0.0
  0
MTEXT
  5
52F2
330
5250
100
AcDbEntity
  8
4寸法線
 62
     0
 48
2.0
100
AcDbMText
 10
926.7321339475644
 20
196.7921470113028
 30
0.0
 40
2.5
 41
0.0
 71
     5
 72
     1
  1
\A1;1.5
 11
0.0000000000000001
 21
1.0
 31
0.0
 73
     1
 44
1.0
1001
ACAD
1000
MTEXTBEGIN
1070
    73
1070
     1
1070
    44
1040
1.0
1070
    74
1070
     0
1000
MTEXTEND
  0
LINE
  5
52F3
330
5250
100
AcDbEntity
  8
4寸法線
 62
     0
 48
2.0
370
    -2
100
AcDbLine
 10
921.2321339475646
 20
196.0421470113031
 30
0.0
 11
921.2321339475646
 21
197.5421470113031
 31
0.0
  0
INSERT
  5
52F4
330
5250
100
AcDbEntity
  8
4寸法線
 62
     0
 48
2.0
370
    -2
100
AcDbBlockReference
  2
1
 10
921.2321339475646
 20
196.0421470113031
 30
0.0
 50
90.0
  0
INSERT
  5
52F5
330
5250
100
AcDbEntity
  8
4寸法線
 62
     0
 48
2.0
370
    -2
100
AcDbBlockReference
  2
1
 10
921.2321339475646
 20
197.5421470113031
 30
0.0
 50
270.0
  0
POINT
  5
52F6
330
5250
100
AcDbEntity
  8
DEFPOINTS
 62
     0
 48
2.0
100
AcDbPoint
 10
908.6038133303715
 20
196.0421470113031
 30
0.0
  0
POINT
  5
52F7
330
5250
100
AcDbEntity
  8
DEFPOINTS
 62
     0
 48
2.0
100
AcDbPoint
 10
921.2321339475646
 20
197.5421470113031
 30
0.0
  0
POINT
  5
52F8
330
5250
100
AcDbEntity
  8
DEFPOINTS
 62
     0
 48
2.0
100
AcDbPoint
 10
921.2321339475646
 20
197.5421470113031
 30
0.0
  0
ENDBLK
  5
5252
330
5250
100
AcDbEntity
  8
0
100
AcDbBlockEnd
  0
BLOCK
  5
525E
330
525D
100
AcDbEntity
  8
0
100
AcDbBlockBegin
  2
*D32
 70
     1
 10
0.0
 20
0.0
 30
0.0
  3
*D32
  1

  0
LINE
  5
52F9
330
525D
100
AcDbEntity
  8
4寸法線
 62
     0
 48
2.0
370
    -2
100
AcDbLine
 10
906.1038133303693
 20
149.5421470113025
 30
0.0
 11
906.1038133303693
 21
137.8580196124793
 31
0.0
  0
LINE
  5
52FA
330
525D
100
AcDbEntity
  8
4寸法線
 62
     0
 48
2.0
370
    -2
100
AcDbLine
 10
908.6038133303713
 20
163.5421470113025
 30
0.0
 11
908.6038133303713
 21
137.8580196124793
 31
0.0
  0
LINE
  5
52FB
330
525D
100
AcDbEntity
  8
4寸法線
 62
     0
 48
2.0
370
    -2
100
AcDbLine
 10
905.1038133303691
 20
138.8580196124793
 30
0.0
 11
904.1038133303691
 21
138.8580196124793
 31
0.0
  0
LINE
  5
52FC
330
525D
100
AcDbEntity
  8
4寸法線
 62
     0
 48
2.0
370
    -2
100
AcDbLine
 10
909.6038133303713
 20
138.8580196124793
 30
0.0
 11
910.6038133303712
 21
138.8580196124793
 31
0.0
  0
MTEXT
  5
52FD
330
525D
100
AcDbEntity
  8
4寸法線
 62
     0
 48
2.0
100
AcDbMText
 10
913.7228609494187
 20
138.8580196124793
 30
0.0
 40
2.5
 41
0.0
 71
     5
 72
     1
  1
\A1;2.5
 73
     1
 44
1.0
1001
ACAD
1000
MTEXTBEGIN
1070
    73
1070
     1
1070
    44
1040
1.0
1070
    74
1070
     0
1000
MTEXTEND
  0
LINE
  5
52FE
330
525D
100
AcDbEntity
  8
4寸法線
 62
     0
 48
2.0
370
    -2
100
AcDbLine
 10
906.1038133303693
 20
138.8580196124793
 30
0.0
 11
908.6038133303713
 21
138.8580196124793
 31
0.0
  0
INSERT
  5
52FF
330
525D
100
AcDbEntity
  8
4寸法線
 62
     0
 48
2.0
370
    -2
100
AcDbBlockReference
  2
_DOT
 10
906.1038133303693
 20
138.8580196124793
 30
0.0
  0
INSERT
  5
5300
330
525D
100
AcDbEntity
  8
4寸法線
 62
     0
 48
2.0
370
    -2
100
AcDbBlockReference
  2
1
 10
908.6038133303713
 20
138.8580196124793
 30
0.0
 50
180.0
  0
POINT
  5
5301
330
525D
100
AcDbEntity
  8
DEFPOINTS
 62
     0
 48
2.0
100
AcDbPoint
 10
906.1038133303693
 20
150.5421470113025
 30
0.0
  0
POINT
  5
5302
330
525D
100
AcDbEntity
  8
DEFPOINTS
 62
     0
 48
2.0
100
AcDbPoint
 10
908.6038133303713
 20
164.5421470113025
 30
0.0
  0
POINT
  5
5303
330
525D
100
AcDbEntity
  8
DEFPOINTS
 62
     0
 48
2.0
100
AcDbPoint
 10
908.6038133303713
 20
138.8580196124793
 30
0.0
  0
ENDBLK
  5
525F
330
525D
100
AcDbEntity
  8
0
100
AcDbBlockEnd
  0
BLOCK
  5
526C
330
526B
100
AcDbEntity
  8
0
100
AcDbBlockBegin
  2
*D33
 70
     1
 10
0.0
 20
0.0
 30
0.0
  3
*D33
  1

  0
LINE
  5
5304
330
526B
100
AcDbEntity
  8
4寸法線
 62
     0
 48
2.0
370
    -2
100
AcDbLine
 10
902.6038133303693
 20
148.5421470113027
 30
0.0
 11
902.6038133303693
 21
137.8580196124793
 31
0.0
  0
LINE
  5
5305
330
526B
100
AcDbEntity
  8
4寸法線
 62
     0
 48
2.0
370
    -2
100
AcDbLine
 10
901.6038133303693
 20
138.8580196124793
 30
0.0
 11
900.6038133303691
 21
138.8580196124793
 31
0.0
  0
MTEXT
  5
5306
330
526B
100
AcDbEntity
  8
4寸法線
 62
     0
 48
2.0
100
AcDbMText
 10
897.4847657113215
 20
138.8580196124793
 30
0.0
 40
2.5
 41
0.0
 71
     5
 72
     1
  1
\A1;3.5
 73
     1
 44
1.0
1001
ACAD
1000
MTEXTBEGIN
1070
    73
1070
     1
1070
    44
1040
1.0
1070
    74
1070
     0
1000
MTEXTEND
  0
INSERT
  5
5307
330
526B
100
AcDbEntity
  8
4寸法線
 62
     0
 48
2.0
370
    -2
100
AcDbBlockReference
  2
Y1
 10
902.6038133303693
 20
138.8580196124793
 30
0.0
  0
POINT
  5
5308
330
526B
100
AcDbEntity
  8
DEFPOINTS
 62
     0
 48
2.0
100
AcDbPoint
 10
906.1038133303693
 20
150.5421470113025
 30
0.0
  0
POINT
  5
5309
330
526B
100
AcDbEntity
  8
DEFPOINTS
 62
     0
 48
2.0
100
AcDbPoint
 10
902.6038133303693
 20
149.5421470113027
 30
0.0
  0
POINT
  5
530A
330
526B
100
AcDbEntity
  8
DEFPOINTS
 62
     0
 48
2.0
100
AcDbPoint
 10
902.6038133303693
 20
138.8580196124793
 30
0.0
  0
ENDBLK
  5
526D
330
526B
100
AcDbEntity
  8
0
100
AcDbBlockEnd
  0
BLOCK
  5
5276
330
5275
100
AcDbEntity
  8
0
100
AcDbBlockBegin
  2
*D34
 70
     1
 10
0.0
 20
0.0
 30
0.0
  3
*D34
  1

  0
LINE
  5
530B
330
5275
100
AcDbEntity
  8
4寸法線
 62
     0
 48
2.0
370
    -2
100
AcDbLine
 10
891.927879472462
 20
162.166969877583
 30
0.0
 11
895.7612128057954
 21
162.1669698775831
 31
0.0
  0
LINE
  5
530C
330
5275
100
AcDbEntity
  8
4寸法線
 62
     0
 48
2.0
370
    -2
100
AcDbLine
 10
895.7612128057954
 20
162.1669698775831
 30
0.0
 11
898.5246858668871
 21
164.3148098717682
 31
0.0
  0
MTEXT
  5
530D
330
5275
100
AcDbEntity
  8
4寸法線
 62
     0
 48
2.0
100
AcDbMText
 10
893.5945461391288
 20
163.916969877583
 30
0.0
 40
2.5
 41
0.0
 71
     5
 72
     1
  1
\A1;R1
 73
     1
 44
1.0
1001
ACAD
1000
MTEXTBEGIN
1070
    73
1070
     1
1070
    44
1040
1.0
1070
    74
1070
     0
1000
MTEXTEND
  0
INSERT
  5
530E
330
5275
100
AcDbEntity
  8
4寸法線
 62
     0
 48
2.0
370
    -2
100
AcDbBlockReference
  2
1
 10
899.3142495986276
 20
164.9284784415354
 30
0.0
 50
37.85523977753289
  0
POINT
  5
530F
330
5275
100
AcDbEntity
  8
DEFPOINTS
 62
     0
 48
2.0
100
AcDbPoint
 10
899.3142495986276
 20
164.9284784415354
 30
0.0
  0
POINT
  5
5310
330
5275
100
AcDbEntity
  8
DEFPOINTS
 62
     0
 48
2.0
100
AcDbPoint
 10
900.103813330368
 20
165.5421470113023
 30
0.0
  0
ENDBLK
  5
5277
330
5275
100
AcDbEntity
  8
0
100
AcDbBlockEnd
  0
BLOCK
  5
527F
330
527E
100
AcDbEntity
  8
0
100
AcDbBlockBegin
  2
*D35
 70
     1
 10
0.0
 20
0.0
 30
0.0
  3
*D35
  1

  0
LINE
  5
5311
330
527E
100
AcDbEntity
  8
4寸法線
 62
     0
 48
2.0
370
    -2
100
AcDbLine
 10
898.5246858668872
 20
197.7694841508374
 30
0.0
 11
897.7351221351471
 21
198.3831527206048
 31
0.0
  0
MTEXT
  5
5312
330
527E
100
AcDbEntity
  8
4寸法線
 62
     0
 48
2.0
100
AcDbMText
 10
894.0707773511061
 20
199.6397121729858
 30
0.0
 40
2.5
 41
0.0
 71
     5
 72
     1
  1
\A1;R1
 11
0.789563731740305
 21
-0.6136685697673655
 31
0.0
 73
     1
 44
1.0
1001
ACAD
1000
MTEXTBEGIN
1070
    73
1070
     1
1070
    44
1040
1.0
1070
    74
1070
     0
1000
MTEXTEND
  0
INSERT
  5
5313
330
527E
100
AcDbEntity
  8
4寸法線
 62
     0
 48
2.0
370
    -2
100
AcDbBlockReference
  2
1
 10
899.3142495986276
 20
197.15581558107
 30
0.0
 50
322.1447602224529
  0
POINT
  5
5314
330
527E
100
AcDbEntity
  8
DEFPOINTS
 62
     0
 48
2.0
100
AcDbPoint
 10
899.3142495986276
 20
197.15581558107
 30
0.0
  0
POINT
  5
5315
330
527E
100
AcDbEntity
  8
DEFPOINTS
 62
     0
 48
2.0
100
AcDbPoint
 10
900.1038133303678
 20
196.5421470113028
 30
0.0
  0
ENDBLK
  5
5280
330
527E
100
AcDbEntity
  8
0
100
AcDbBlockEnd
  0
BLOCK
  5
5287
330
5286
100
AcDbEntity
  8
0
100
AcDbBlockBegin
  2
*D36
 70
     1
 10
0.0
 20
0.0
 30
0.0
  3
*D36
  1

  0
LINE
  5
5316
330
5286
100
AcDbEntity
  8
4寸法線
 62
     0
 48
2.0
370
    -2
100
AcDbLine
 10
825.0027290714969
 20
147.5421470113003
 30
0.0
 11
825.0027290714969
 21
148.5421470113003
 31
0.0
  0
LINE
  5
5317
330
5286
100
AcDbEntity
  8
4寸法線
 62
     0
 48
2.0
370
    -2
100
AcDbLine
 10
825.0027290714969
 20
149.5421470113003
 30
0.0
 11
825.0027290714969
 21
147.5421470113003
 31
0.0
  0
MTEXT
  5
5318
330
5286
100
AcDbEntity
  8
4寸法線
 62
     0
 48
2.0
100
AcDbMText
 10
819.5027290714968
 20
150.5421470113
 30
0.0
 40
2.5
 41
0.0
 71
     5
 72
     1
  1
\A1;2
 11
0.0000000000000001
 21
1.0
 31
0.0
 73
     1
 44
1.0
1001
ACAD
1000
MTEXTBEGIN
1070
    73
1070
     1
1070
    44
1040
1.0
1070
    74
1070
     0
1000
MTEXTEND
  0
INSERT
  5
5319
330
5286
100
AcDbEntity
  8
4寸法線
 62
     0
 48
2.0
370
    -2
100
AcDbBlockReference
  2
1
 10
825.0027290714969
 20
149.5421470113003
 30
0.0
 50
90.0
  0
POINT
  5
531A
330
5286
100
AcDbEntity
  8
DEFPOINTS
 62
     0
 48
2.0
100
AcDbPoint
 10
813.3364089118144
 20
151.5421470113003
 30
0.0
  0
POINT
  5
531B
330
5286
100
AcDbEntity
  8
DEFPOINTS
 62
     0
 48
2.0
100
AcDbPoint
 10
825.0027290714969
 20
149.5421470113003
 30
0.0
  0
POINT
  5
531C
330
5286
100
AcDbEntity
  8
DEFPOINTS
 62
     0
 48
2.0
100
AcDbPoint
 10
825.0027290714969
 20
149.5421470113003
 30
0.0
  0
ENDBLK
  5
5288
330
5286
100
AcDbEntity
  8
0
100
AcDbBlockEnd
  0
BLOCK
  5
5290
330
528F
100
AcDbEntity
  8
0
100
AcDbBlockBegin
  2
*D37
 70
     1
 10
0.0
 20
0.0
 30
0.0
  3
*D37
  1

  0
LINE
  5
531D
330
528F
100
AcDbEntity
  8
4寸法線
 62
     0
 48
2.0
370
    -2
100
AcDbLine
 10
814.3364089118145
 20
151.5421470113003
 30
0.0
 11
826.0027290714969
 21
151.5421470113003
 31
0.0
  0
LINE
  5
531E
330
528F
100
AcDbEntity
  8
4寸法線
 62
     0
 48
2.0
370
    -2
100
AcDbLine
 10
814.3364089118145
 20
164.5421470113003
 30
0.0
 11
826.0027290714969
 21
164.5421470113003
 31
0.0
  0
LINE
  5
531F
330
528F
100
AcDbEntity
  8
4寸法線
 62
     0
 48
2.0
370
    -2
100
AcDbLine
 10
825.0027290714969
 20
152.5421470113003
 30
0.0
 11
825.0027290714969
 21
155.8754803446338
 31
0.0
  0
LINE
  5
5320
330
528F
100
AcDbEntity
  8
4寸法線
 62
     0
 48
2.0
370
    -2
100
AcDbLine
 10
825.0027290714969
 20
163.5421470113003
 30
0.0
 11
825.0027290714969
 21
160.2088136779671
 31
0.0
  0
MTEXT
  5
5321
330
528F
100
AcDbEntity
  8
4寸法線
 62
     0
 48
2.0
100
AcDbMText
 10
825.0027290714966
 20
158.0421470113002
 30
0.0
 40
2.5
 41
0.0
 71
     5
 72
     1
  1
\A1;13
 11
0.0000000000000001
 21
1.0
 31
0.0
 73
     1
 44
1.0
1001
ACAD
1000
MTEXTBEGIN
1070
    73
1070
     1
1070
    44
1040
1.0
1070
    74
1070
     0
1000
MTEXTEND
  0
INSERT
  5
5322
330
528F
100
AcDbEntity
  8
4寸法線
 62
     0
 48
2.0
370
    -2
100
AcDbBlockReference
  2
1
 10
825.0027290714969
 20
151.5421470113003
 30
0.0
 50
270.0
  0
INSERT
  5
5323
330
528F
100
AcDbEntity
  8
4寸法線
 62
     0
 48
2.0
370
    -2
100
AcDbBlockReference
  2
1
 10
825.0027290714969
 20
164.5421470113003
 30
0.0
 50
90.0
  0
POINT
  5
5324
330
528F
100
AcDbEntity
  8
DEFPOINTS
 62
     0
 48
2.0
100
AcDbPoint
 10
813.3364089118144
 20
151.5421470113003
 30
0.0
  0
POINT
  5
5325
330
528F
100
AcDbEntity
  8
DEFPOINTS
 62
     0
 48
2.0
100
AcDbPoint
 10
813.3364089118144
 20
164.5421470113003
 30
0.0
  0
POINT
  5
5326
330
528F
100
AcDbEntity
  8
DEFPOINTS
 62
     0
 48
2.0
100
AcDbPoint
 10
825.0027290714969
 20
164.5421470113003
 30
0.0
  0
ENDBLK
  5
5291
330
528F
100
AcDbEntity
  8
0
100
AcDbBlockEnd
  0
BLOCK
  5
529D
330
529C
100
AcDbEntity
  8
0
100
AcDbBlockBegin
  2
*D38
 70
     1
 10
0.0
 20
0.0
 30
0.0
  3
*D38
  1

  0
LINE
  5
5327
330
529C
100
AcDbEntity
  8
4寸法線
 62
     0
 48
2.0
370
    -2
100
AcDbLine
 10
812.4463259290418
 20
150.8347728837901
 30
0.0
 11
811.8529372738608
 21
150.0298567987834
 31
0.0
  0
MTEXT
  5
5328
330
529C
100
AcDbEntity
  8
4寸法線
 62
     0
 48
2.0
100
AcDbMText
 10
795.374143090143
 20
137.8277638501577
 30
0.0
 40
2.5
 41
0.0
 71
     5
 72
     1
  1
\A1;2-R0.5
 11
0.5933886551809803
 21
0.8049160850066966
 31
0.0
 73
     1
 44
1.0
1001
ACAD
1000
MTEXTBEGIN
1070
    73
1070
     1
1070
    44
1040
1.0
1070
    74
1070
     0
1000
MTEXTEND
  0
INSERT
  5
5329
330
529C
100
AcDbEntity
  8
4寸法線
 62
     0
 48
2.0
370
    -2
100
AcDbBlockReference
  2
1
 10
813.0397145842227
 20
151.6396889687967
 30
0.0
 50
53.60215197204261
  0
POINT
  5
532A
330
529C
100
AcDbEntity
  8
DEFPOINTS
 62
     0
 48
2.0
100
AcDbPoint
 10
813.0397145842227
 20
151.6396889687967
 30
0.0
  0
POINT
  5
532B
330
529C
100
AcDbEntity
  8
DEFPOINTS
 62
     0
 48
2.0
100
AcDbPoint
 10
813.3364089118131
 20
152.0421470113002
 30
0.0
  0
ENDBLK
  5
529E
330
529C
100
AcDbEntity
  8
0
100
AcDbBlockEnd
  0
BLOCK
  5
52A5
330
52A4
100
AcDbEntity
  8
0
100
AcDbBlockBegin
  2
*D39
 70
     1
 10
0.0
 20
0.0
 30
0.0
  3
*D39
  1

  0
LINE
  5
532C
330
52A4
100
AcDbEntity
  8
4寸法線
 62
     0
 48
2.0
370
    -2
100
AcDbLine
 10
781.6364089118142
 20
166.5421470113001
 30
0.0
 11
773.7092161966024
 21
166.5421470113001
 31
0.0
  0
LINE
  5
532D
330
52A4
100
AcDbEntity
  8
4寸法線
 62
     0
 48
2.0
370
    -2
100
AcDbLine
 10
777.9364089118144
 20
164.5421470113003
 30
0.0
 11
773.7092161966024
 21
164.5421470113003
 31
0.0
  0
LINE
  5
532E
330
52A4
100
AcDbEntity
  8
4寸法線
 62
     0
 48
2.0
370
    -2
100
AcDbLine
 10
774.7092161966024
 20
167.5421470113001
 30
0.0
 11
774.7092161966024
 21
168.5421470113
 31
0.0
  0
LINE
  5
532F
330
52A4
100
AcDbEntity
  8
4寸法線
 62
     0
 48
2.0
370
    -2
100
AcDbLine
 10
774.7092161966024
 20
163.5421470113003
 30
0.0
 11
774.7092161966024
 21
162.5421470113003
 31
0.0
  0
MTEXT
  5
5330
330
52A4
100
AcDbEntity
  8
4寸法線
 62
     0
 48
2.0
100
AcDbMText
 10
774.7092161966019
 20
161.2088136779668
 30
0.0
 40
2.5
 41
0.0
 71
     5
 72
     1
  1
\A1;2
 11
0.0000000000000001
 21
1.0
 31
0.0
 73
     1
 44
1.0
1001
ACAD
1000
MTEXTBEGIN
1070
    73
1070
     1
1070
    44
1040
1.0
1070
    74
1070
     0
1000
MTEXTEND
  0
LINE
  5
5331
330
52A4
100
AcDbEntity
  8
4寸法線
 62
     0
 48
2.0
370
    -2
100
AcDbLine
 10
774.7092161966024
 20
166.5421470113001
 30
0.0
 11
774.7092161966024
 21
164.5421470113003
 31
0.0
  0
INSERT
  5
5332
330
52A4
100
AcDbEntity
  8
4寸法線
 62
     0
 48
2.0
370
    -2
100
AcDbBlockReference
  2
1
 10
774.7092161966024
 20
166.5421470113001
 30
0.0
 50
270.0
  0
INSERT
  5
5333
330
52A4
100
AcDbEntity
  8
4寸法線
 62
     0
 48
2.0
370
    -2
100
AcDbBlockReference
  2
1
 10
774.7092161966024
 20
164.5421470113003
 30
0.0
 50
90.0
  0
POINT
  5
5334
330
52A4
100
AcDbEntity
  8
DEFPOINTS
 62
     0
 48
2.0
100
AcDbPoint
 10
782.6364089118142
 20
166.5421470113001
 30
0.0
  0
POINT
  5
5335
330
52A4
100
AcDbEntity
  8
DEFPOINTS
 62
     0
 48
2.0
100
AcDbPoint
 10
778.9364089118143
 20
164.5421470113003
 30
0.0
  0
POINT
  5
5336
330
52A4
100
AcDbEntity
  8
DEFPOINTS
 62
     0
 48
2.0
100
AcDbPoint
 10
774.7092161966024
 20
164.5421470113003
 30
0.0
  0
ENDBLK
  5
52A6
330
52A4
100
AcDbEntity
  8
0
100
AcDbBlockEnd
  0
BLOCK
  5
5351
330
5350
100
AcDbEntity
  8
0
 48
2.0
100
AcDbBlockBegin
  2
*D40
 70
     1
 10
0.0
 20
0.0
 30
0.0
  3
*D40
  1

  0
LINE
  5
5352
330
5350
100
AcDbEntity
  8
4寸法線
 62
     0
 48
2.0
370
    -2
100
AcDbLine
 10
631.3862265305127
 20
-281.0803900863344
 30
0.0
 11
631.3862265305127
 21
-282.0803900863344
 31
0.0
  0
LINE
  5
5353
330
5350
100
AcDbEntity
  8
4寸法線
 62
     0
 48
2.0
370
    -2
100
AcDbLine
 10
631.3862265305127
 20
-277.0801174530116
 30
0.0
 11
631.3862265305127
 21
-273.2971505751049
 31
0.0
  0
LINE
  5
5354
330
5350
100
AcDbEntity
  8
4寸法線
 62
     0
 48
2.0
370
    -2
100
AcDbLine
 10
631.3862265305127
 20
-280.0803900863344
 30
0.0
 11
631.3862265305127
 21
-278.0801174530116
 31
0.0
  0
INSERT
  5
5355
330
5350
100
AcDbEntity
  8
4寸法線
 62
     0
 48
2.0
370
    -2
100
AcDbBlockReference
  2
1
 10
631.3862265305127
 20
-280.0803900863344
 30
0.0
 50
90.0
  0
INSERT
  5
5356
330
5350
100
AcDbEntity
  8
4寸法線
 62
     0
 48
2.0
370
    -2
100
AcDbBlockReference
  2
1
 10
631.3862265305127
 20
-278.0801174530116
 30
0.0
 50
270.0
  0
MTEXT
  5
5357
330
5350
100
AcDbEntity
  8
4寸法線
 62
     0
 48
2.0
100
AcDbMText
 10
629.6362265305129
 20
-274.6304839084382
 30
0.0
 40
2.5
 41
0.0
 71
     5
 72
     1
  1
\A1;2
  7
KANJI
 11
0.0000000000000001
 21
1.0
 31
0.0
 73
     1
 44
1.0
1001
ACAD
1000
MTEXTBEGIN
1070
    73
1070
     1
1070
    44
1040
1.0
1070
    74
1070
     0
1000
MTEXTEND
  0
POINT
  5
5358
330
5350
100
AcDbEntity
  8
DEFPOINTS
 62
     0
 48
2.0
100
AcDbPoint
 10
631.3862265305129
 20
-280.0803900863344
 30
0.0
  0
POINT
  5
5359
330
5350
100
AcDbEntity
  8
DEFPOINTS
 62
     0
 48
2.0
100
AcDbPoint
 10
631.3862265305129
 20
-278.0801174530116
 30
0.0
  0
POINT
  5
535A
330
5350
100
AcDbEntity
  8
DEFPOINTS
 62
     0
 48
2.0
100
AcDbPoint
 10
631.3862265305127
 20
-278.0801174530116
 30
0.0
  0
ENDBLK
  5
535B
330
5350
100
AcDbEntity
  8
0
 48
2.0
100
AcDbBlockEnd
  0
BLOCK
  5
535D
330
535C
100
AcDbEntity
  8
0
 48
2.0
100
AcDbBlockBegin
  2
*D41
 70
     1
 10
0.0
 20
0.0
 30
0.0
  3
*D41
  1

  0
LINE
  5
535E
330
535C
100
AcDbEntity
  8
4寸法線
 62
     0
 48
2.0
370
    -2
100
AcDbLine
 10
547.5788319176237
 20
-281.0803900863344
 30
0.0
 11
547.5788319176237
 21
-282.0803900863344
 31
0.0
  0
LINE
  5
535F
330
535C
100
AcDbEntity
  8
4寸法線
 62
     0
 48
2.0
370
    -2
100
AcDbLine
 10
547.5788319176237
 20
-277.0801174530116
 30
0.0
 11
547.5788319176237
 21
-273.2971505751049
 31
0.0
  0
LINE
  5
5360
330
535C
100
AcDbEntity
  8
4寸法線
 62
     0
 48
2.0
370
    -2
100
AcDbLine
 10
547.5788319176237
 20
-280.0803900863344
 30
0.0
 11
547.5788319176237
 21
-278.0801174530116
 31
0.0
  0
INSERT
  5
5361
330
535C
100
AcDbEntity
  8
4寸法線
 62
     0
 48
2.0
370
    -2
100
AcDbBlockReference
  2
1
 10
547.5788319176237
 20
-280.0803900863344
 30
0.0
 50
90.0
  0
INSERT
  5
5362
330
535C
100
AcDbEntity
  8
4寸法線
 62
     0
 48
2.0
370
    -2
100
AcDbBlockReference
  2
1
 10
547.5788319176237
 20
-278.0801174530116
 30
0.0
 50
270.0
  0
MTEXT
  5
5363
330
535C
100
AcDbEntity
  8
4寸法線
 62
     0
 48
2.0
100
AcDbMText
 10
545.828831917624
 20
-274.6304839084382
 30
0.0
 40
2.5
 41
0.0
 71
     5
 72
     1
  1
\A1;2
  7
KANJI
 11
0.0000000000000001
 21
1.0
 31
0.0
 73
     1
 44
1.0
1001
ACAD
1000
MTEXTBEGIN
1070
    73
1070
     1
1070
    44
1040
1.0
1070
    74
1070
     0
1000
MTEXTEND
  0
POINT
  5
5364
330
535C
100
AcDbEntity
  8
DEFPOINTS
 62
     0
 48
2.0
100
AcDbPoint
 10
547.578831917624
 20
-280.0803900863344
 30
0.0
  0
POINT
  5
5365
330
535C
100
AcDbEntity
  8
DEFPOINTS
 62
     0
 48
2.0
100
AcDbPoint
 10
547.578831917624
 20
-278.0801174530116
 30
0.0
  0
POINT
  5
5366
330
535C
100
AcDbEntity
  8
DEFPOINTS
 62
     0
 48
2.0
100
AcDbPoint
 10
547.5788319176237
 20
-278.0801174530116
 30
0.0
  0
ENDBLK
  5
5367
330
535C
100
AcDbEntity
  8
0
 48
2.0
100
AcDbBlockEnd
  0
BLOCK
  5
5369
330
5368
100
AcDbEntity
  8
0
 48
2.0
100
AcDbBlockBegin
  2
*D42
 70
     1
 10
0.0
 20
0.0
 30
0.0
  3
*D42
  1

  0
LINE
  5
536A
330
5368
100
AcDbEntity
  8
4寸法線
 62
     0
 48
2.0
370
    -2
100
AcDbLine
 10
718.1012315426411
 20
-176.652555494981
 30
0.0
 11
713.2116411970267
 21
-169.3233452520925
 31
0.0
  0
MTEXT
  5
536B
330
5368
100
AcDbEntity
  8
4寸法線
 62
     0
 48
2.0
100
AcDbMText
 10
717.4296133102605
 20
-172.4925226352095
 30
0.0
 40
2.5
 41
0.0
 71
     5
 72
     1
  1
\A1;R34
  7
KANJI
 11
0.5549712729513039
 21
-0.8318695127234855
 31
0.0
 73
     1
 44
1.0
1001
ACAD
1000
MTEXTBEGIN
1070
    73
1070
     1
1070
    44
1040
1.0
1070
    74
1070
     0
1000
MTEXTEND
  0
INSERT
  5
536C
330
5368
100
AcDbEntity
  8
4寸法線
 62
     0
 48
2.0
370
    -2
100
AcDbBlockReference
  2
1
 10
712.6566699240754
 20
-168.491475739369
 30
0.0
 50
123.7087361566734
  0
POINT
  5
536D
330
5368
100
AcDbEntity
  8
DEFPOINTS
 62
     0
 48
2.0
100
AcDbPoint
 10
712.6566699240754
 20
-168.491475739369
 30
0.0
  0
POINT
  5
536E
330
5368
100
AcDbEntity
  8
DEFPOINTS
 62
     0
 48
2.0
100
AcDbPoint
 10
731.5256932044201
 20
-196.7750391719677
 30
0.0
  0
ENDBLK
  5
536F
330
5368
100
AcDbEntity
  8
0
 48
2.0
100
AcDbBlockEnd
  0
BLOCK
  5
5371
330
5370
100
AcDbEntity
  8
0
 48
2.0
100
AcDbBlockBegin
  2
*D43
 70
     1
 10
0.0
 20
0.0
 30
0.0
  3
*D43
  1

  0
LINE
  5
5372
330
5370
100
AcDbEntity
  8
4寸法線
 62
     0
 48
2.0
370
    -2
100
AcDbLine
 10
714.0743066336319
 20
-181.0168488466357
 30
0.0
 11
705.548878345516
 21
-173.3185882514591
 31
0.0
  0
MTEXT
  5
5373
330
5370
100
AcDbEntity
  8
4寸法線
 62
     0
 48
2.0
100
AcDbMText
 10
712.4904059701408
 20
-177.2287520876366
 30
0.0
 40
2.5
 41
0.0
 71
     5
 72
     1
  1
\A1;R36
  7
KANJI
 11
0.7421947102544058
 21
-0.6701843120145226
 31
0.0
 73
     1
 44
1.0
1001
ACAD
1000
MTEXTBEGIN
1070
    73
1070
     1
1070
    44
1040
1.0
1070
    74
1070
     0
1000
MTEXTEND
  0
INSERT
  5
5374
330
5370
100
AcDbEntity
  8
4寸法線
 62
     0
 48
2.0
370
    -2
100
AcDbBlockReference
  2
1
 10
704.8066836352617
 20
-172.6484039394446
 30
0.0
 50
137.9187083150503
  0
POINT
  5
5375
330
5370
100
AcDbEntity
  8
DEFPOINTS
 62
     0
 48
2.0
100
AcDbPoint
 10
704.8066836352617
 20
-172.6484039394446
 30
0.0
  0
POINT
  5
5376
330
5370
100
AcDbEntity
  8
DEFPOINTS
 62
     0
 48
2.0
100
AcDbPoint
 10
731.5256932044203
 20
-196.7750391719673
 30
0.0
  0
ENDBLK
  5
5377
330
5370
100
AcDbEntity
  8
0
 48
2.0
100
AcDbBlockEnd
  0
BLOCK
  5
5379
330
5378
100
AcDbEntity
  8
0
 48
2.0
100
AcDbBlockBegin
  2
*D44
 70
     1
 10
0.0
 20
0.0
 30
0.0
  3
*D44
  1

  0
LINE
  5
537A
330
5378
100
AcDbEntity
  8
4寸法線
 62
     0
 48
2.0
370
    -2
100
AcDbLine
 10
507.2659379763163
 20
-278.9851050151237
 30
0.0
 11
507.2659379763163
 21
-261.1098201474342
 31
0.0
  0
LINE
  5
537B
330
5378
100
AcDbEntity
  8
4寸法線
 62
     0
 48
2.0
370
    -2
100
AcDbLine
 10
555.4659379763157
 20
-279.080390086335
 30
0.0
 11
555.4659379763157
 21
-261.1098201474342
 31
0.0
  0
LINE
  5
537C
330
5378
100
AcDbEntity
  8
4寸法線
 62
     0
 48
2.0
370
    -2
100
AcDbLine
 10
508.2659379763163
 20
-262.1098201474342
 30
0.0
 11
554.4659379763158
 21
-262.1098201474342
 31
0.0
  0
INSERT
  5
537D
330
5378
100
AcDbEntity
  8
4寸法線
 62
     0
 48
2.0
370
    -2
100
AcDbBlockReference
  2
1
 10
507.2659379763163
 20
-262.1098201474342
 30
0.0
 50
180.0
  0
INSERT
  5
537E
330
5378
100
AcDbEntity
  8
4寸法線
 62
     0
 48
2.0
370
    -2
100
AcDbBlockReference
  2
1
 10
555.4659379763157
 20
-262.1098201474342
 30
0.0
  0
MTEXT
  5
537F
330
5378
100
AcDbEntity
  8
4寸法線
 62
     0
 48
2.0
100
AcDbMText
 10
530.9659379763161
 20
-260.3598201474341
 30
0.0
 40
2.5
 41
0.0
 71
     5
 72
     1
  1
\A1;48.2
  7
KANJI
 73
     1
 44
1.0
1001
ACAD
1000
MTEXTBEGIN
1070
    73
1070
     1
1070
    44
1040
1.0
1070
    74
1070
     0
1000
MTEXTEND
  0
POINT
  5
5380
330
5378
100
AcDbEntity
  8
DEFPOINTS
 62
     0
 48
2.0
100
AcDbPoint
 10
507.2659379763163
 20
-279.9851050151237
 30
0.0
  0
POINT
  5
5381
330
5378
100
AcDbEntity
  8
DEFPOINTS
 62
     0
 48
2.0
100
AcDbPoint
 10
555.4659379763157
 20
-280.0803900863349
 30
0.0
  0
POINT
  5
5382
330
5378
100
AcDbEntity
  8
DEFPOINTS
 62
     0
 48
2.0
100
AcDbPoint
 10
555.4659379763157
 20
-262.1098201474342
 30
0.0
  0
ENDBLK
  5
5383
330
5378
100
AcDbEntity
  8
0
 48
2.0
100
AcDbBlockEnd
  0
BLOCK
  5
5385
330
5384
100
AcDbEntity
  8
0
 48
2.0
100
AcDbBlockBegin
  2
*D45
 70
     1
 10
0.0
 20
0.0
 30
0.0
  3
*D45
  1

  0
LINE
  5
5386
330
5384
100
AcDbEntity
  8
4寸法線
 62
     0
 48
2.0
370
    -2
100
AcDbLine
 10
616.7514730945281
 20
-277.8214309291428
 30
0.0
 11
616.1009455094411
 21
-278.5809135563576
 31
0.0
  0
LINE
  5
5387
330
5384
100
AcDbEntity
  8
4寸法線
 62
     0
 48
2.0
370
    -2
100
AcDbLine
 10
618.442844815754
 20
-275.8467760983845
 30
0.0
 11
623.0739816714917
 21
-270.4399831094034
 31
0.0
  0
LINE
  5
5388
330
5384
100
AcDbEntity
  8
4寸法線
 62
     0
 48
2.0
370
    -2
100
AcDbLine
 10
617.4020006796148
 20
-277.0619483019281
 30
0.0
 11
617.792317230667
 21
-276.6062587255992
 31
0.0
  0
INSERT
  5
5389
330
5384
100
AcDbEntity
  8
4寸法線
 62
     0
 48
2.0
370
    -2
100
AcDbBlockReference
  2
1
 10
617.4020006796148
 20
-277.0619483019281
 30
0.0
 50
49.41860865344948
  0
INSERT
  5
538A
330
5384
100
AcDbEntity
  8
4寸法線
 62
     0
 48
2.0
370
    -2
100
AcDbBlockReference
  2
1
 10
617.792317230667
 20
-276.6062587255992
 30
0.0
 50
229.4186086534494
  0
MTEXT
  5
538B
330
5384
100
AcDbEntity
  8
4寸法線
 62
     0
 48
2.0
100
AcDbMText
 10
619.7545824385406
 20
-271.6252150163845
 30
0.0
 40
2.5
 41
0.0
 71
     5
 72
     1
  1
\A1;0.6
  7
KANJI
 11
0.6505275850869045
 21
0.7594826272147377
 31
0.0
 73
     1
 44
1.0
1001
ACAD
1000
MTEXTBEGIN
1070
    73
1070
     1
1070
    44
1040
1.0
1070
    74
1070
     0
1000
MTEXTEND
  0
POINT
  5
538C
330
5384
100
AcDbEntity
  8
DEFPOINTS
 62
     0
 48
2.0
100
AcDbPoint
 10
617.4020006796148
 20
-277.0619483019281
 30
0.0
  0
POINT
  5
538D
330
5384
100
AcDbEntity
  8
DEFPOINTS
 62
     0
 48
2.0
100
AcDbPoint
 10
617.792317230667
 20
-276.6062587255992
 30
0.0
  0
POINT
  5
538E
330
5384
100
AcDbEntity
  8
DEFPOINTS
 62
     0
 48
2.0
100
AcDbPoint
 10
617.792317230667
 20
-276.6062587255992
 30
0.0
  0
ENDBLK
  5
538F
330
5384
100
AcDbEntity
  8
0
 48
2.0
100
AcDbBlockEnd
  0
BLOCK
  5
5391
330
5390
100
AcDbEntity
  8
0
 48
2.0
100
AcDbBlockBegin
  2
*D46
 70
     1
 10
0.0
 20
0.0
 30
0.0
  3
*D46
  1

  0
LINE
  5
5392
330
5390
100
AcDbEntity
  8
4寸法線
 62
     0
 48
2.0
370
    -2
100
AcDbLine
 10
543.0097153719133
 20
-222.7345738231834
 30
0.0
 11
547.6763820385805
 21
-222.7345738231833
 31
0.0
  0
LINE
  5
5393
330
5390
100
AcDbEntity
  8
4寸法線
 62
     0
 48
2.0
370
    -2
100
AcDbLine
 10
547.6763820385805
 20
-222.7345738231833
 30
0.0
 11
550.6251423606678
 21
-224.7705233168252
 31
0.0
  0
MTEXT
  5
5394
330
5390
100
AcDbEntity
  8
4寸法線
 62
     0
 48
2.0
100
AcDbMText
 10
545.0930487052467
 20
-220.9845738231833
 30
0.0
 40
2.5
 41
0.0
 71
     5
 72
     1
  1
\A1;R2
  7
KANJI
 73
     1
 44
1.0
1001
ACAD
1000
MTEXTBEGIN
1070
    73
1070
     1
1070
    44
1040
1.0
1070
    74
1070
     0
1000
MTEXTEND
  0
INSERT
  5
5395
330
5390
100
AcDbEntity
  8
4寸法線
 62
     0
 48
2.0
370
    -2
100
AcDbBlockReference
  2
1
 10
551.4480522179943
 20
-225.3386952685392
 30
0.0
 50
325.3771514846485
  0
POINT
  5
5396
330
5390
100
AcDbEntity
  8
DEFPOINTS
 62
     0
 48
2.0
100
AcDbPoint
 10
551.4480522179943
 20
-225.3386952685392
 30
0.0
  0
POINT
  5
5397
330
5390
100
AcDbEntity
  8
DEFPOINTS
 62
     0
 48
2.0
100
AcDbPoint
 10
553.093871932648
 20
-226.4750391719673
 30
0.0
  0
ENDBLK
  5
5398
330
5390
100
AcDbEntity
  8
0
 48
2.0
100
AcDbBlockEnd
  0
BLOCK
  5
539A
330
5399
100
AcDbEntity
  8
0
 48
2.0
100
AcDbBlockBegin
  2
*D47
 70
     1
 10
0.0
 20
0.0
 30
0.0
  3
*D47
  1

  0
LINE
  5
539B
330
5399
100
AcDbEntity
  8
4寸法線
 62
     0
 48
2.0
370
    -2
100
AcDbLine
 10
779.0333510455187
 20
-218.1707746030626
 30
0.0
 11
774.366684378852
 21
-218.1707746030625
 31
0.0
  0
LINE
  5
539C
330
5399
100
AcDbEntity
  8
4寸法線
 62
     0
 48
2.0
370
    -2
100
AcDbLine
 10
774.366684378852
 20
-218.1707746030625
 30
0.0
 11
769.2394876357333
 21
-223.1733973221603
 31
0.0
  0
MTEXT
  5
539D
330
5399
100
AcDbEntity
  8
4寸法線
 62
     0
 48
2.0
100
AcDbMText
 10
776.9500177121855
 20
-216.4207746030624
 30
0.0
 40
2.5
 41
0.0
 71
     5
 72
     1
  1
\A1;R2
  7
KANJI
 73
     1
 44
1.0
1001
ACAD
1000
MTEXTBEGIN
1070
    73
1070
     1
1070
    44
1040
1.0
1070
    74
1070
     0
1000
MTEXTEND
  0
INSERT
  5
539E
330
5399
100
AcDbEntity
  8
4寸法線
 62
     0
 48
2.0
370
    -2
100
AcDbBlockReference
  2
1
 10
768.5237391505381
 20
-223.8717554723529
 30
0.0
 50
224.295426136996
  0
POINT
  5
539F
330
5399
100
AcDbEntity
  8
DEFPOINTS
 62
     0
 48
2.0
100
AcDbPoint
 10
768.5237391505381
 20
-223.8717554723529
 30
0.0
  0
POINT
  5
53A0
330
5399
100
AcDbEntity
  8
DEFPOINTS
 62
     0
 48
2.0
100
AcDbPoint
 10
769.9552361209291
 20
-222.4750391719674
 30
0.0
  0
ENDBLK
  5
53A1
330
5399
100
AcDbEntity
  8
0
 48
2.0
100
AcDbBlockEnd
  0
BLOCK
  5
53A3
330
53A2
100
AcDbEntity
  8
0
 48
2.0
100
AcDbBlockBegin
  2
*D48
 70
     1
 10
0.0
 20
0.0
 30
0.0
  3
*D48
  1

  0
LINE
  5
53A4
330
53A2
100
AcDbEntity
  8
4寸法線
 62
     0
 48
2.0
370
    -2
100
AcDbLine
 10
664.265937976324
 20
-226.7750391719673
 30
0.0
 11
672.907433961353
 21
-226.7750391719673
 31
0.0
  0
LINE
  5
53A5
330
53A2
100
AcDbEntity
  8
4寸法線
 62
     0
 48
2.0
370
    -2
100
AcDbLine
 10
664.2659379763237
 20
-162.7750391719676
 30
0.0
 11
672.907433961353
 21
-162.7750391719676
 31
0.0
  0
LINE
  5
53A6
330
53A2
100
AcDbEntity
  8
4寸法線
 62
     0
 48
2.0
370
    -2
100
AcDbLine
 10
671.907433961353
 20
-225.7750391719674
 30
0.0
 11
671.907433961353
 21
-163.7750391719676
 31
0.0
  0
INSERT
  5
53A7
330
53A2
100
AcDbEntity
  8
4寸法線
 62
     0
 48
2.0
370
    -2
100
AcDbBlockReference
  2
1
 10
671.907433961353
 20
-226.7750391719673
 30
0.0
 50
270.0
  0
INSERT
  5
53A8
330
53A2
100
AcDbEntity
  8
4寸法線
 62
     0
 48
2.0
370
    -2
100
AcDbBlockReference
  2
1
 10
671.907433961353
 20
-162.7750391719676
 30
0.0
 50
90.0
  0
MTEXT
  5
53A9
330
53A2
100
AcDbEntity
  8
4寸法線
 62
     0
 48
2.0
100
AcDbMText
 10
670.157433961353
 20
-194.7750391719674
 30
0.0
 40
2.5
 41
0.0
 71
     5
 72
     1
  1
\A1;64
  7
KANJI
 11
0.0000000000000001
 21
1.0
 31
0.0
 73
     1
 44
1.0
1001
ACAD
1000
MTEXTBEGIN
1070
    73
1070
     1
1070
    44
1040
1.0
1070
    74
1070
     0
1000
MTEXTEND
  0
POINT
  5
53AA
330
53A2
100
AcDbEntity
  8
DEFPOINTS
 62
     0
 48
2.0
100
AcDbPoint
 10
663.265937976324
 20
-226.7750391719673
 30
0.0
  0
POINT
  5
53AB
330
53A2
100
AcDbEntity
  8
DEFPOINTS
 62
     0
 48
2.0
100
AcDbPoint
 10
663.2659379763238
 20
-162.7750391719676
 30
0.0
  0
POINT
  5
53AC
330
53A2
100
AcDbEntity
  8
DEFPOINTS
 62
     0
 48
2.0
100
AcDbPoint
 10
671.907433961353
 20
-162.7750391719676
 30
0.0
  0
ENDBLK
  5
53AD
330
53A2
100
AcDbEntity
  8
0
 48
2.0
100
AcDbBlockEnd
  0
BLOCK
  5
53AF
330
53AE
100
AcDbEntity
  8
0
 48
2.0
100
AcDbBlockBegin
  2
*D49
 70
     1
 10
0.0
 20
0.0
 30
0.0
  3
*D49
  1

  0
LINE
  5
53B0
330
53AE
100
AcDbEntity
  8
4寸法線
 62
     0
 48
2.0
370
    -2
100
AcDbLine
 10
649.2783758642352
 20
-160.7750391719676
 30
0.0
 11
672.907433961353
 21
-160.7750391719676
 31
0.0
  0
LINE
  5
53B1
330
53AE
100
AcDbEntity
  8
4寸法線
 62
     0
 48
2.0
370
    -2
100
AcDbLine
 10
671.907433961353
 20
-159.7750391719676
 30
0.0
 11
671.907433961353
 21
-156.108372505301
 31
0.0
  0
INSERT
  5
53B2
330
53AE
100
AcDbEntity
  8
4寸法線
 62
     0
 48
2.0
370
    -2
100
AcDbBlockReference
  2
1
 10
671.907433961353
 20
-160.7750391719676
 30
0.0
 50
270.0
  0
MTEXT
  5
53B3
330
53AE
100
AcDbEntity
  8
4寸法線
 62
     0
 48
2.0
100
AcDbMText
 10
670.157433961353
 20
-157.4417058386342
 30
0.0
 40
2.5
 41
0.0
 71
     5
 72
     1
  1
\A1;2
  7
KANJI
 11
0.0000000000000001
 21
1.0
 31
0.0
 73
     1
 44
1.0
1001
ACAD
1000
MTEXTBEGIN
1070
    73
1070
     1
1070
    44
1040
1.0
1070
    74
1070
     0
1000
MTEXTEND
  0
POINT
  5
53B4
330
53AE
100
AcDbEntity
  8
DEFPOINTS
 62
     0
 48
2.0
100
AcDbPoint
 10
663.2659379763238
 20
-162.7750391719676
 30
0.0
  0
POINT
  5
53B5
330
53AE
100
AcDbEntity
  8
DEFPOINTS
 62
     0
 48
2.0
100
AcDbPoint
 10
648.2783758642352
 20
-160.7750391719676
 30
0.0
  0
POINT
  5
53B6
330
53AE
100
AcDbEntity
  8
DEFPOINTS
 62
     0
 48
2.0
100
AcDbPoint
 10
671.907433961353
 20
-160.7750391719676
 30
0.0
  0
ENDBLK
  5
53B7
330
53AE
100
AcDbEntity
  8
0
 48
2.0
100
AcDbBlockEnd
  0
BLOCK
  5
53B9
330
53B8
100
AcDbEntity
  8
0
 48
2.0
100
AcDbBlockBegin
  2
*D50
 70
     1
 10
0.0
 20
0.0
 30
0.0
  3
*D50
  1

  0
LINE
  5
53BA
330
53B8
100
AcDbEntity
  8
4寸法線
 62
     0
 48
2.0
370
    -2
100
AcDbLine
 10
585.2659379763198
 20
-94.80077309491587
 30
0.0
 11
599.924090267264
 21
-141.5569338805866
 31
0.0
  0
INSERT
  5
53BB
330
53B8
100
AcDbEntity
  8
4寸法線
 62
     0
 48
2.0
370
    -2
100
AcDbBlockReference
  2
1
 10
600.2232362323852
 20
-142.5111412435595
 30
0.0
 50
287.4063150395132
  0
MTEXT
  5
53BC
330
53B8
100
AcDbEntity
  8
4寸法線
 62
     0
 48
2.0
100
AcDbMText
 10
594.2648770069942
 20
-117.655348048789
 30
0.0
 40
2.5
 41
0.0
 71
     5
 72
     1
  1
\A1;R50
  7
KANJI
 11
0.2991459651213064
 21
-0.9542073629728719
 31
0.0
 73
     1
 44
1.0
1001
ACAD
1000
MTEXTBEGIN
1070
    73
1070
     1
1070
    44
1040
1.0
1070
    74
1070
     0
1000
MTEXTEND
  0
POINT
  5
53BD
330
53B8
100
AcDbEntity
  8
DEFPOINTS
 62
     0
 48
2.0
100
AcDbPoint
 10
600.2232362323852
 20
-142.5111412435595
 30
0.0
  0
POINT
  5
53BE
330
53B8
100
AcDbEntity
  8
DEFPOINTS
 62
     0
 48
2.0
100
AcDbPoint
 10
585.2659379763198
 20
-94.80077309491587
 30
0.0
  0
ENDBLK
  5
53BF
330
53B8
100
AcDbEntity
  8
0
 48
2.0
100
AcDbBlockEnd
  0
BLOCK
  5
53C1
330
53C0
100
AcDbEntity
  8
0
 48
2.0
100
AcDbBlockBegin
  2
*D51
 70
     1
 10
0.0
 20
0.0
 30
0.0
  3
*D51
  1

  0
LINE
  5
53C2
330
53C0
100
AcDbEntity
  8
4寸法線
 62
     0
 48
2.0
370
    -2
100
AcDbLine
 10
525.2659379763165
 20
-279.0803900863353
 30
0.0
 11
525.2659379763165
 21
-270.7187868770445
 31
0.0
  0
LINE
  5
53C3
330
53C0
100
AcDbEntity
  8
4寸法線
 62
     0
 48
2.0
370
    -2
100
AcDbLine
 10
508.2659379763163
 20
-271.7187868770444
 30
0.0
 11
524.2659379763165
 21
-271.7187868770444
 31
0.0
  0
INSERT
  5
53C4
330
53C0
100
AcDbEntity
  8
4寸法線
 62
     0
 48
2.0
370
    -2
100
AcDbBlockReference
  2
1
 10
507.2659379763163
 20
-271.7187868770444
 30
0.0
 50
180.0
  0
INSERT
  5
53C5
330
53C0
100
AcDbEntity
  8
4寸法線
 62
     0
 48
2.0
370
    -2
100
AcDbBlockReference
  2
1
 10
525.2659379763165
 20
-271.7187868770444
 30
0.0
  0
MTEXT
  5
53C6
330
53C0
100
AcDbEntity
  8
4寸法線
 62
     0
 48
2.0
100
AcDbMText
 10
516.2659379763165
 20
-269.9687868770445
 30
0.0
 40
2.5
 41
0.0
 71
     5
 72
     1
  1
\A1;18
  7
KANJI
 73
     1
 44
1.0
1001
ACAD
1000
MTEXTBEGIN
1070
    73
1070
     1
1070
    44
1040
1.0
1070
    74
1070
     0
1000
MTEXTEND
  0
POINT
  5
53C7
330
53C0
100
AcDbEntity
  8
DEFPOINTS
 62
     0
 48
2.0
100
AcDbPoint
 10
507.2659379763163
 20
-271.7187868770444
 30
0.0
  0
POINT
  5
53C8
330
53C0
100
AcDbEntity
  8
DEFPOINTS
 62
     0
 48
2.0
100
AcDbPoint
 10
525.2659379763165
 20
-280.0803900863353
 30
0.0
  0
POINT
  5
53C9
330
53C0
100
AcDbEntity
  8
DEFPOINTS
 62
     0
 48
2.0
100
AcDbPoint
 10
525.2659379763165
 20
-271.7187868770444
 30
0.0
  0
ENDBLK
  5
53CA
330
53C0
100
AcDbEntity
  8
0
 48
2.0
100
AcDbBlockEnd
  0
BLOCK
  5
53CC
330
53CB
100
AcDbEntity
  8
0
 48
2.0
100
AcDbBlockBegin
  2
*D52
 70
     1
 10
0.0
 20
0.0
 30
0.0
  3
*D52
  1

  0
LINE
  5
53CD
330
53CB
100
AcDbEntity
  8
4寸法線
 62
     0
 48
2.0
370
    -2
100
AcDbLine
 10
526.4659379763164
 20
-282.6803900863357
 30
0.0
 11
526.4659379763164
 21
-289.3345731023023
 31
0.0
  0
LINE
  5
53CE
330
53CB
100
AcDbEntity
  8
4寸法線
 62
     0
 48
2.0
370
    -2
100
AcDbLine
 10
525.2659379763166
 20
-282.6803900863359
 30
0.0
 11
525.2659379763166
 21
-289.3345731023023
 31
0.0
  0
LINE
  5
53CF
330
53CB
100
AcDbEntity
  8
4寸法線
 62
     0
 48
2.0
370
    -2
100
AcDbLine
 10
527.4659379763163
 20
-288.3345731023023
 30
0.0
 11
528.4659379763163
 21
-288.3345731023023
 31
0.0
  0
LINE
  5
53D0
330
53CB
100
AcDbEntity
  8
4寸法線
 62
     0
 48
2.0
370
    -2
100
AcDbLine
 10
524.2659379763166
 20
-288.3345731023023
 30
0.0
 11
517.5040332144118
 21
-288.3345731023023
 31
0.0
  0
LINE
  5
53D1
330
53CB
100
AcDbEntity
  8
4寸法線
 62
     0
 48
2.0
370
    -2
100
AcDbLine
 10
526.4659379763164
 20
-288.3345731023023
 30
0.0
 11
525.2659379763166
 21
-288.3345731023023
 31
0.0
  0
INSERT
  5
53D2
330
53CB
100
AcDbEntity
  8
4寸法線
 62
     0
 48
2.0
370
    -2
100
AcDbBlockReference
  2
1
 10
526.4659379763164
 20
-288.3345731023023
 30
0.0
 50
180.0
  0
INSERT
  5
53D3
330
53CB
100
AcDbEntity
  8
4寸法線
 62
     0
 48
2.0
370
    -2
100
AcDbBlockReference
  2
1
 10
525.2659379763166
 20
-288.3345731023023
 30
0.0
  0
MTEXT
  5
53D4
330
53CB
100
AcDbEntity
  8
4寸法線
 62
     0
 48
2.0
100
AcDbMText
 10
520.3849855953641
 20
-286.5845731023023
 30
0.0
 40
2.5
 41
0.0
 71
     5
 72
     1
  1
\A1;1.2
  7
KANJI
 73
     1
 44
1.0
1001
ACAD
1000
MTEXTBEGIN
1070
    73
1070
     1
1070
    44
1040
1.0
1070
    74
1070
     0
1000
MTEXTEND
  0
POINT
  5
53D5
330
53CB
100
AcDbEntity
  8
DEFPOINTS
 62
     0
 48
2.0
100
AcDbPoint
 10
526.4659379763164
 20
-281.6803900863357
 30
0.0
  0
POINT
  5
53D6
330
53CB
100
AcDbEntity
  8
DEFPOINTS
 62
     0
 48
2.0
100
AcDbPoint
 10
525.2659379763166
 20
-281.6803900863359
 30
0.0
  0
POINT
  5
53D7
330
53CB
100
AcDbEntity
  8
DEFPOINTS
 62
     0
 48
2.0
100
AcDbPoint
 10
525.2659379763166
 20
-288.3345731023023
 30
0.0
  0
ENDBLK
  5
53D8
330
53CB
100
AcDbEntity
  8
0
 48
2.0
100
AcDbBlockEnd
  0
BLOCK
  5
53DA
330
53D9
100
AcDbEntity
  8
0
 48
2.0
100
AcDbBlockBegin
  2
*D53
 70
     1
 10
0.0
 20
0.0
 30
0.0
  3
*D53
  1

  0
LINE
  5
53DB
330
53D9
100
AcDbEntity
  8
4寸法線
 62
     0
 48
2.0
370
    -2
100
AcDbLine
 10
526.4659379763164
 20
-279.0803900863353
 30
0.0
 11
526.4659379763164
 21
-270.7187868770445
 31
0.0
  0
LINE
  5
53DC
330
53D9
100
AcDbEntity
  8
4寸法線
 62
     0
 48
2.0
370
    -2
100
AcDbLine
 10
533.8659379763162
 20
-279.0803900863344
 30
0.0
 11
533.8659379763162
 21
-270.7187868770445
 31
0.0
  0
LINE
  5
53DD
330
53D9
100
AcDbEntity
  8
4寸法線
 62
     0
 48
2.0
370
    -2
100
AcDbLine
 10
527.4659379763163
 20
-271.7187868770444
 30
0.0
 11
532.8659379763162
 21
-271.7187868770444
 31
0.0
  0
INSERT
  5
53DE
330
53D9
100
AcDbEntity
  8
4寸法線
 62
     0
 48
2.0
370
    -2
100
AcDbBlockReference
  2
1
 10
526.4659379763164
 20
-271.7187868770444
 30
0.0
 50
180.0
  0
INSERT
  5
53DF
330
53D9
100
AcDbEntity
  8
4寸法線
 62
     0
 48
2.0
370
    -2
100
AcDbBlockReference
  2
1
 10
533.8659379763162
 20
-271.7187868770444
 30
0.0
  0
MTEXT
  5
53E0
330
53D9
100
AcDbEntity
  8
4寸法線
 62
     0
 48
2.0
100
AcDbMText
 10
530.1659379763163
 20
-269.9687868770445
 30
0.0
 40
2.5
 41
0.0
 71
     5
 72
     1
  1
\A1;7.4
  7
KANJI
 73
     1
 44
1.0
1001
ACAD
1000
MTEXTBEGIN
1070
    73
1070
     1
1070
    44
1040
1.0
1070
    74
1070
     0
1000
MTEXTEND
  0
POINT
  5
53E1
330
53D9
100
AcDbEntity
  8
DEFPOINTS
 62
     0
 48
2.0
100
AcDbPoint
 10
526.4659379763164
 20
-280.0803900863353
 30
0.0
  0
POINT
  5
53E2
330
53D9
100
AcDbEntity
  8
DEFPOINTS
 62
     0
 48
2.0
100
AcDbPoint
 10
533.8659379763162
 20
-280.0803900863344
 30
0.0
  0
POINT
  5
53E3
330
53D9
100
AcDbEntity
  8
DEFPOINTS
 62
     0
 48
2.0
100
AcDbPoint
 10
533.8659379763162
 20
-271.7187868770444
 30
0.0
  0
ENDBLK
  5
53E4
330
53D9
100
AcDbEntity
  8
0
 48
2.0
100
AcDbBlockEnd
  0
BLOCK
  5
53E6
330
53E5
100
AcDbEntity
  8
0
 48
2.0
100
AcDbBlockBegin
  2
*D54
 70
     1
 10
0.0
 20
0.0
 30
0.0
  3
*D54
  1

  0
LINE
  5
53E7
330
53E5
100
AcDbEntity
  8
4寸法線
 62
     0
 48
2.0
370
    -2
100
AcDbLine
 10
552.2659379763163
 20
-279.0803900863353
 30
0.0
 11
552.2659379763163
 21
-266.2857585538247
 31
0.0
  0
LINE
  5
53E8
330
53E5
100
AcDbEntity
  8
4寸法線
 62
     0
 48
2.0
370
    -2
100
AcDbLine
 10
508.2659379763163
 20
-267.2857585538247
 30
0.0
 11
551.2659379763163
 21
-267.2857585538247
 31
0.0
  0
INSERT
  5
53E9
330
53E5
100
AcDbEntity
  8
4寸法線
 62
     0
 48
2.0
370
    -2
100
AcDbBlockReference
  2
1
 10
507.2659379763163
 20
-267.2857585538247
 30
0.0
 50
180.0
  0
INSERT
  5
53EA
330
53E5
100
AcDbEntity
  8
4寸法線
 62
     0
 48
2.0
370
    -2
100
AcDbBlockReference
  2
1
 10
552.2659379763163
 20
-267.2857585538247
 30
0.0
  0
MTEXT
  5
53EB
330
53E5
100
AcDbEntity
  8
4寸法線
 62
     0
 48
2.0
100
AcDbMText
 10
529.7659379763164
 20
-265.5357585538247
 30
0.0
 40
2.5
 41
0.0
 71
     5
 72
     1
  1
\A1;45
  7
KANJI
 73
     1
 44
1.0
1001
ACAD
1000
MTEXTBEGIN
1070
    73
1070
     1
1070
    44
1040
1.0
1070
    74
1070
     0
1000
MTEXTEND
  0
POINT
  5
53EC
330
53E5
100
AcDbEntity
  8
DEFPOINTS
 62
     0
 48
2.0
100
AcDbPoint
 10
507.2659379763163
 20
-267.2857585538247
 30
0.0
  0
POINT
  5
53ED
330
53E5
100
AcDbEntity
  8
DEFPOINTS
 62
     0
 48
2.0
100
AcDbPoint
 10
552.2659379763163
 20
-280.0803900863353
 30
0.0
  0
POINT
  5
53EE
330
53E5
100
AcDbEntity
  8
DEFPOINTS
 62
     0
 48
2.0
100
AcDbPoint
 10
552.2659379763163
 20
-267.2857585538247
 30
0.0
  0
ENDBLK
  5
53EF
330
53E5
100
AcDbEntity
  8
0
 48
2.0
100
AcDbBlockEnd
  0
BLOCK
  5
53F1
330
53F0
100
AcDbEntity
  8
0
 48
2.0
100
AcDbBlockBegin
  2
*D55
 70
     1
 10
0.0
 20
0.0
 30
0.0
  3
*D55
  1

  0
LINE
  5
53F2
330
53F0
100
AcDbEntity
  8
4寸法線
 62
     0
 48
2.0
370
    -2
100
AcDbLine
 10
780.5256932044201
 20
-224.4750391719673
 30
0.0
 11
791.9849162037303
 21
-224.4750391719673
 31
0.0
  0
LINE
  5
53F3
330
53F0
100
AcDbEntity
  8
4寸法線
 62
     0
 48
2.0
370
    -2
100
AcDbLine
 10
782.5256932044201
 20
-226.7750391719673
 30
0.0
 11
791.9849162037303
 21
-226.7750391719673
 31
0.0
  0
LINE
  5
53F4
330
53F0
100
AcDbEntity
  8
4寸法線
 62
     0
 48
2.0
370
    -2
100
AcDbLine
 10
790.9849162037303
 20
-223.4750391719674
 30
0.0
 11
790.9849162037303
 21
-222.4750391719673
 31
0.0
  0
LINE
  5
53F5
330
53F0
100
AcDbEntity
  8
4寸法線
 62
     0
 48
2.0
370
    -2
100
AcDbLine
 10
790.9849162037303
 20
-227.7750391719674
 30
0.0
 11
790.9849162037303
 21
-235.0131344100645
 31
0.0
  0
LINE
  5
53F6
330
53F0
100
AcDbEntity
  8
4寸法線
 62
     0
 48
2.0
370
    -2
100
AcDbLine
 10
790.9849162037303
 20
-224.4750391719673
 30
0.0
 11
790.9849162037303
 21
-226.7750391719673
 31
0.0
  0
INSERT
  5
53F7
330
53F0
100
AcDbEntity
  8
4寸法線
 62
     0
 48
2.0
370
    -2
100
AcDbBlockReference
  2
1
 10
790.9849162037303
 20
-224.4750391719673
 30
0.0
 50
270.0
  0
INSERT
  5
53F8
330
53F0
100
AcDbEntity
  8
4寸法線
 62
     0
 48
2.0
370
    -2
100
AcDbBlockReference
  2
1
 10
790.9849162037303
 20
-226.7750391719673
 30
0.0
 50
90.0
  0
MTEXT
  5
53F9
330
53F0
100
AcDbEntity
  8
4寸法線
 62
     0
 48
2.0
100
AcDbMText
 10
789.2349162037303
 20
-231.8940867910168
 30
0.0
 40
2.5
 41
0.0
 71
     5
 72
     1
  1
\A1;2.3
  7
KANJI
 11
0.0000000000000001
 21
1.0
 31
0.0
 73
     1
 44
1.0
1001
ACAD
1000
MTEXTBEGIN
1070
    73
1070
     1
1070
    44
1040
1.0
1070
    74
1070
     0
1000
MTEXTEND
  0
POINT
  5
53FA
330
53F0
100
AcDbEntity
  8
DEFPOINTS
 62
     0
 48
2.0
100
AcDbPoint
 10
779.5256932044201
 20
-224.4750391719673
 30
0.0
  0
POINT
  5
53FB
330
53F0
100
AcDbEntity
  8
DEFPOINTS
 62
     0
 48
2.0
100
AcDbPoint
 10
781.5256932044201
 20
-226.7750391719673
 30
0.0
  0
POINT
  5
53FC
330
53F0
100
AcDbEntity
  8
DEFPOINTS
 62
     0
 48
2.0
100
AcDbPoint
 10
790.9849162037303
 20
-226.7750391719673
 30
0.0
  0
ENDBLK
  5
53FD
330
53F0
100
AcDbEntity
  8
0
 48
2.0
100
AcDbBlockEnd
  0
BLOCK
  5
53FF
330
53FE
100
AcDbEntity
  8
0
 48
2.0
100
AcDbBlockBegin
  2
*D56
 70
     1
 10
0.0
 20
0.0
 30
0.0
  3
*D56
  1

  0
LINE
  5
5400
330
53FE
100
AcDbEntity
  8
4寸法線
 62
     0
 48
2.0
370
    -2
100
AcDbLine
 10
768.3979178535444
 20
-231.7362134354703
 30
0.0
 11
773.0645845202111
 21
-231.7362134354703
 31
0.0
  0
LINE
  5
5401
330
53FE
100
AcDbEntity
  8
4寸法線
 62
     0
 48
2.0
370
    -2
100
AcDbLine
 10
773.0645845202111
 20
-231.7362134354703
 30
0.0
 11
780.3011299010878
 21
-225.8436138561456
 31
0.0
  0
MTEXT
  5
5402
330
53FE
100
AcDbEntity
  8
4寸法線
 62
     0
 48
2.0
100
AcDbMText
 10
770.4812511868778
 20
-229.9862134354702
 30
0.0
 40
2.5
 41
0.0
 71
     5
 72
     1
  1
\A1;R2
  7
KANJI
 73
     1
 44
1.0
1001
ACAD
1000
MTEXTBEGIN
1070
    73
1070
     1
1070
    44
1040
1.0
1070
    74
1070
     0
1000
MTEXTEND
  0
INSERT
  5
5403
330
53FE
100
AcDbEntity
  8
4寸法線
 62
     0
 48
2.0
370
    -2
100
AcDbBlockReference
  2
1
 10
781.0765665977556
 20
-225.2121885403238
 30
0.0
 50
39.15535821052929
  0
POINT
  5
5404
330
53FE
100
AcDbEntity
  8
DEFPOINTS
 62
     0
 48
2.0
100
AcDbPoint
 10
781.0765665977556
 20
-225.2121885403238
 30
0.0
  0
POINT
  5
5405
330
53FE
100
AcDbEntity
  8
DEFPOINTS
 62
     0
 48
2.0
100
AcDbPoint
 10
779.5256932044199
 20
-226.4750391719673
 30
0.0
  0
ENDBLK
  5
5406
330
53FE
100
AcDbEntity
  8
0
 48
2.0
100
AcDbBlockEnd
  0
BLOCK
  5
5408
330
5407
100
AcDbEntity
  8
0
 48
2.0
100
AcDbBlockBegin
  2
*D57
 70
     1
 10
0.0
 20
0.0
 30
0.0
  3
*D57
  1

  0
LINE
  5
5409
330
5407
100
AcDbEntity
  8
4寸法線
 62
     0
 48
2.0
370
    -2
100
AcDbLine
 10
556.4659379763161
 20
-279.0803900863344
 30
0.0
 11
556.4659379763161
 21
-261.1098201474342
 31
0.0
  0
LINE
  5
540A
330
5407
100
AcDbEntity
  8
4寸法線
 62
     0
 48
2.0
370
    -2
100
AcDbLine
 10
557.465937976316
 20
-262.1098201474342
 30
0.0
 11
560.0611760715541
 21
-262.1098201474342
 31
0.0
  0
INSERT
  5
540B
330
5407
100
AcDbEntity
  8
4寸法線
 62
     0
 48
2.0
370
    -2
100
AcDbBlockReference
  2
1
 10
556.4659379763161
 20
-262.1098201474342
 30
0.0
 50
180.0
  0
MTEXT
  5
540C
330
5407
100
AcDbEntity
  8
4寸法線
 62
     0
 48
2.0
100
AcDbMText
 10
559.263557023935
 20
-260.3598201474341
 30
0.0
 40
2.5
 41
0.0
 71
     5
 72
     1
  1
\A1;1
  7
KANJI
 73
     1
 44
1.0
1001
ACAD
1000
MTEXTBEGIN
1070
    73
1070
     1
1070
    44
1040
1.0
1070
    74
1070
     0
1000
MTEXTEND
  0
POINT
  5
540D
330
5407
100
AcDbEntity
  8
DEFPOINTS
 62
     0
 48
2.0
100
AcDbPoint
 10
555.4659379763161
 20
-278.580390086334
 30
0.0
  0
POINT
  5
540E
330
5407
100
AcDbEntity
  8
DEFPOINTS
 62
     0
 48
2.0
100
AcDbPoint
 10
556.4659379763161
 20
-280.0803900863344
 30
0.0
  0
POINT
  5
540F
330
5407
100
AcDbEntity
  8
DEFPOINTS
 62
     0
 48
2.0
100
AcDbPoint
 10
556.4659379763161
 20
-262.1098201474342
 30
0.0
  0
ENDBLK
  5
5410
330
5407
100
AcDbEntity
  8
0
 48
2.0
100
AcDbBlockEnd
  0
BLOCK
  5
5412
330
5411
100
AcDbEntity
  8
0
 48
2.0
100
AcDbBlockBegin
  2
*D58
 70
     1
 10
0.0
 20
0.0
 30
0.0
  3
*D58
  1

  0
LINE
  5
5413
330
5411
100
AcDbEntity
  8
4寸法線
 62
     0
 48
2.0
370
    -2
100
AcDbLine
 10
731.5256932044201
 20
-233.3919137779306
 30
0.0
 11
731.5256932044201
 21
-240.5235268269473
 31
0.0
  0
LINE
  5
5414
330
5411
100
AcDbEntity
  8
4寸法線
 62
     0
 48
2.0
370
    -2
100
AcDbLine
 10
732.5256932044201
 20
-239.5235268269473
 30
0.0
 11
765.0256932044201
 21
-239.5235268269473
 31
0.0
  0
INSERT
  5
5415
330
5411
100
AcDbEntity
  8
4寸法線
 62
     0
 48
2.0
370
    -2
100
AcDbBlockReference
  2
1
 10
731.5256932044201
 20
-239.5235268269473
 30
0.0
 50
180.0
  0
INSERT
  5
5416
330
5411
100
AcDbEntity
  8
4寸法線
 62
     0
 48
2.0
370
    -2
100
AcDbBlockReference
  2
1
 10
766.0256932044201
 20
-239.5235268269473
 30
0.0
  0
MTEXT
  5
5417
330
5411
100
AcDbEntity
  8
4寸法線
 62
     0
 48
2.0
100
AcDbMText
 10
748.7756932044199
 20
-237.7735268269474
 30
0.0
 40
2.5
 41
0.0
 71
     5
 72
     1
  1
\A1;34.5
  7
KANJI
 73
     1
 44
1.0
1001
ACAD
1000
MTEXTBEGIN
1070
    73
1070
     1
1070
    44
1040
1.0
1070
    74
1070
     0
1000
MTEXTEND
  0
POINT
  5
5418
330
5411
100
AcDbEntity
  8
DEFPOINTS
 62
     0
 48
2.0
100
AcDbPoint
 10
731.5256932044201
 20
-232.3919137779305
 30
0.0
  0
POINT
  5
5419
330
5411
100
AcDbEntity
  8
DEFPOINTS
 62
     0
 48
2.0
100
AcDbPoint
 10
766.0256932044201
 20
-239.5235268269473
 30
0.0
  0
POINT
  5
541A
330
5411
100
AcDbEntity
  8
DEFPOINTS
 62
     0
 48
2.0
100
AcDbPoint
 10
766.0256932044201
 20
-239.5235268269473
 30
0.0
  0
ENDBLK
  5
541B
330
5411
100
AcDbEntity
  8
0
 48
2.0
100
AcDbBlockEnd
  0
BLOCK
  5
541D
330
541C
100
AcDbEntity
  8
0
 48
2.0
100
AcDbBlockBegin
  2
*D59
 70
     1
 10
0.0
 20
0.0
 30
0.0
  3
*D59
  1

  0
LINE
  5
541E
330
541C
100
AcDbEntity
  8
4寸法線
 62
     0
 48
2.0
370
    -2
100
AcDbLine
 10
663.265937976324
 20
-227.7750391719674
 30
0.0
 11
663.265937976324
 21
-246.7595010138252
 31
0.0
  0
LINE
  5
541F
330
541C
100
AcDbEntity
  8
4寸法線
 62
     0
 48
2.0
370
    -2
100
AcDbLine
 10
507.2659379763163
 20
-227.7750391719674
 30
0.0
 11
507.2659379763163
 21
-246.7595010138252
 31
0.0
  0
LINE
  5
5420
330
541C
100
AcDbEntity
  8
4寸法線
 62
     0
 48
2.0
370
    -2
100
AcDbLine
 10
662.265937976324
 20
-245.7595010138252
 30
0.0
 11
508.2659379763163
 21
-245.7595010138252
 31
0.0
  0
INSERT
  5
5421
330
541C
100
AcDbEntity
  8
4寸法線
 62
     0
 48
2.0
370
    -2
100
AcDbBlockReference
  2
1
 10
663.265937976324
 20
-245.7595010138252
 30
0.0
  0
INSERT
  5
5422
330
541C
100
AcDbEntity
  8
4寸法線
 62
     0
 48
2.0
370
    -2
100
AcDbBlockReference
  2
1
 10
507.2659379763163
 20
-245.7595010138252
 30
0.0
 50
180.0
  0
MTEXT
  5
5423
330
541C
100
AcDbEntity
  8
4寸法線
 62
     0
 48
2.0
100
AcDbMText
 10
585.2659379763203
 20
-244.0095010138252
 30
0.0
 40
2.5
 41
0.0
 71
     5
 72
     1
  1
\A1;156
  7
KANJI
 73
     1
 44
1.0
1001
ACAD
1000
MTEXTBEGIN
1070
    73
1070
     1
1070
    44
1040
1.0
1070
    74
1070
     0
1000
MTEXTEND
  0
POINT
  5
5424
330
541C
100
AcDbEntity
  8
DEFPOINTS
 62
     0
 48
2.0
100
AcDbPoint
 10
663.265937976324
 20
-226.7750391719673
 30
0.0
  0
POINT
  5
5425
330
541C
100
AcDbEntity
  8
DEFPOINTS
 62
     0
 48
2.0
100
AcDbPoint
 10
507.2659379763163
 20
-226.7750391719673
 30
0.0
  0
POINT
  5
5426
330
541C
100
AcDbEntity
  8
DEFPOINTS
 62
     0
 48
2.0
100
AcDbPoint
 10
507.2659379763163
 20
-245.7595010138252
 30
0.0
  0
ENDBLK
  5
5427
330
541C
100
AcDbEntity
  8
0
 48
2.0
100
AcDbBlockEnd
  0
BLOCK
  5
5429
330
5428
100
AcDbEntity
  8
0
 48
2.0
100
AcDbBlockBegin
  2
*D60
 70
     1
 10
0.0
 20
0.0
 30
0.0
  3
*D60
  1

  0
LINE
  5
542A
330
5428
100
AcDbEntity
  8
4寸法線
 62
     0
 48
2.0
370
    -2
100
AcDbLine
 10
535.0659379763162
 20
-279.0803900863353
 30
0.0
 11
535.0659379763162
 21
-270.7187868770445
 31
0.0
  0
LINE
  5
542B
330
5428
100
AcDbEntity
  8
4寸法線
 62
     0
 48
2.0
370
    -2
100
AcDbLine
 10
542.4659379763163
 20
-279.0803900863353
 30
0.0
 11
542.4659379763163
 21
-270.7187868770445
 31
0.0
  0
LINE
  5
542C
330
5428
100
AcDbEntity
  8
4寸法線
 62
     0
 48
2.0
370
    -2
100
AcDbLine
 10
536.0659379763162
 20
-271.7187868770444
 30
0.0
 11
541.4659379763163
 21
-271.7187868770444
 31
0.0
  0
INSERT
  5
542D
330
5428
100
AcDbEntity
  8
4寸法線
 62
     0
 48
2.0
370
    -2
100
AcDbBlockReference
  2
1
 10
535.0659379763162
 20
-271.7187868770444
 30
0.0
 50
180.0
  0
INSERT
  5
542E
330
5428
100
AcDbEntity
  8
4寸法線
 62
     0
 48
2.0
370
    -2
100
AcDbBlockReference
  2
1
 10
542.4659379763163
 20
-271.7187868770444
 30
0.0
  0
MTEXT
  5
542F
330
5428
100
AcDbEntity
  8
4寸法線
 62
     0
 48
2.0
100
AcDbMText
 10
538.7659379763163
 20
-269.9687868770445
 30
0.0
 40
2.5
 41
0.0
 71
     5
 72
     1
  1
\A1;7.4
  7
KANJI
 73
     1
 44
1.0
1001
ACAD
1000
MTEXTBEGIN
1070
    73
1070
     1
1070
    44
1040
1.0
1070
    74
1070
     0
1000
MTEXTEND
  0
POINT
  5
5430
330
5428
100
AcDbEntity
  8
DEFPOINTS
 62
     0
 48
2.0
100
AcDbPoint
 10
535.0659379763162
 20
-280.0803900863353
 30
0.0
  0
POINT
  5
5431
330
5428
100
AcDbEntity
  8
DEFPOINTS
 62
     0
 48
2.0
100
AcDbPoint
 10
542.4659379763163
 20
-280.0803900863353
 30
0.0
  0
POINT
  5
5432
330
5428
100
AcDbEntity
  8
DEFPOINTS
 62
     0
 48
2.0
100
AcDbPoint
 10
542.4659379763163
 20
-271.7187868770444
 30
0.0
  0
ENDBLK
  5
5433
330
5428
100
AcDbEntity
  8
0
 48
2.0
100
AcDbBlockEnd
  0
BLOCK
  5
5631
330
5630
100
AcDbEntity
  8
0
100
AcDbBlockBegin
  2
*D61
 70
     1
 10
0.0
 20
0.0
 30
0.0
  3
*D61
  1

  0
LINE
  5
5717
330
5630
100
AcDbEntity
  8
4寸法線
 62
     0
 48
2.0
370
    -2
100
AcDbLine
 10
494.7583029764809
 20
294.5299884120354
 30
0.0
 11
509.4164552674248
 21
247.7738276263646
 31
0.0
  0
INSERT
  5
5718
330
5630
100
AcDbEntity
  8
4寸法線
 62
     0
 48
2.0
370
    -2
100
AcDbBlockReference
  2
1
 10
509.7156012325461
 20
246.8196202633917
 30
0.0
 50
287.4063150395131
  0
MTEXT
  5
5719
330
5630
100
AcDbEntity
  8
4寸法線
 62
     0
 48
2.0
100
AcDbMText
 10
503.7572420071553
 20
271.6754134581623
 30
0.0
 40
2.5
 41
0.0
 71
     5
 72
     1
  1
\A1;R50
 11
0.2991459651213056
 21
-0.9542073629728722
 31
0.0
 73
     1
 44
1.0
1001
ACAD
1000
MTEXTBEGIN
1070
    73
1070
     1
1070
    44
1040
1.0
1070
    74
1070
     0
1000
MTEXTEND
  0
POINT
  5
571A
330
5630
100
AcDbEntity
  8
DEFPOINTS
 62
     0
 48
2.0
100
AcDbPoint
 10
509.7156012325461
 20
246.8196202633917
 30
0.0
  0
POINT
  5
571B
330
5630
100
AcDbEntity
  8
DEFPOINTS
 62
     0
 48
2.0
100
AcDbPoint
 10
494.7583029764809
 20
294.5299884120354
 30
0.0
  0
ENDBLK
  5
5632
330
5630
100
AcDbEntity
  8
0
100
AcDbBlockEnd
  0
BLOCK
  5
5639
330
5638
100
AcDbEntity
  8
0
100
AcDbBlockBegin
  2
*D62
 70
     1
 10
0.0
 20
0.0
 30
0.0
  3
*D62
  1

  0
LINE
  5
571C
330
5638
100
AcDbEntity
  8
4寸法線
 62
     0
 48
2.0
370
    -2
100
AcDbLine
 10
434.7583029764775
 20
110.250371420616
 30
0.0
 11
434.7583029764775
 21
118.6119746299068
 31
0.0
  0
LINE
  5
571D
330
5638
100
AcDbEntity
  8
4寸法線
 62
     0
 48
2.0
370
    -2
100
AcDbLine
 10
417.7583029764774
 20
117.6119746299068
 30
0.0
 11
433.7583029764775
 21
117.6119746299068
 31
0.0
  0
INSERT
  5
571E
330
5638
100
AcDbEntity
  8
4寸法線
 62
     0
 48
2.0
370
    -2
100
AcDbBlockReference
  2
1
 10
416.7583029764775
 20
117.6119746299068
 30
0.0
 50
180.0
  0
INSERT
  5
571F
330
5638
100
AcDbEntity
  8
4寸法線
 62
     0
 48
2.0
370
    -2
100
AcDbBlockReference
  2
1
 10
434.7583029764775
 20
117.6119746299068
 30
0.0
  0
MTEXT
  5
5720
330
5638
100
AcDbEntity
  8
4寸法線
 62
     0
 48
2.0
100
AcDbMText
 10
425.7583029764773
 20
119.3619746299068
 30
0.0
 40
2.5
 41
0.0
 71
     5
 72
     1
  1
\A1;18
 73
     1
 44
1.0
1001
ACAD
1000
MTEXTBEGIN
1070
    73
1070
     1
1070
    44
1040
1.0
1070
    74
1070
     0
1000
MTEXTEND
  0
POINT
  5
5721
330
5638
100
AcDbEntity
  8
DEFPOINTS
 62
     0
 48
2.0
100
AcDbPoint
 10
416.7583029764775
 20
117.6119746299068
 30
0.0
  0
POINT
  5
5722
330
5638
100
AcDbEntity
  8
DEFPOINTS
 62
     0
 48
2.0
100
AcDbPoint
 10
434.7583029764775
 20
109.2503714206159
 30
0.0
  0
POINT
  5
5723
330
5638
100
AcDbEntity
  8
DEFPOINTS
 62
     0
 48
2.0
100
AcDbPoint
 10
434.7583029764775
 20
117.6119746299068
 30
0.0
  0
ENDBLK
  5
563A
330
5638
100
AcDbEntity
  8
0
100
AcDbBlockEnd
  0
BLOCK
  5
5644
330
5643
100
AcDbEntity
  8
0
100
AcDbBlockBegin
  2
*D63
 70
     1
 10
0.0
 20
0.0
 30
0.0
  3
*D63
  1

  0
LINE
  5
5724
330
5643
100
AcDbEntity
  8
4寸法線
 62
     0
 48
2.0
370
    -2
100
AcDbLine
 10
435.9583029764772
 20
106.6503714206156
 30
0.0
 11
435.9583029764772
 21
99.99618840464899
 31
0.0
  0
LINE
  5
5725
330
5643
100
AcDbEntity
  8
4寸法線
 62
     0
 48
2.0
370
    -2
100
AcDbLine
 10
434.7583029764776
 20
106.6503714206154
 30
0.0
 11
434.7583029764776
 21
99.99618840464899
 31
0.0
  0
LINE
  5
5726
330
5643
100
AcDbEntity
  8
4寸法線
 62
     0
 48
2.0
370
    -2
100
AcDbLine
 10
436.9583029764773
 20
100.996188404649
 30
0.0
 11
437.9583029764773
 21
100.996188404649
 31
0.0
  0
LINE
  5
5727
330
5643
100
AcDbEntity
  8
4寸法線
 62
     0
 48
2.0
370
    -2
100
AcDbLine
 10
433.7583029764776
 20
100.996188404649
 30
0.0
 11
432.7583029764776
 21
100.996188404649
 31
0.0
  0
MTEXT
  5
5728
330
5643
100
AcDbEntity
  8
4寸法線
 62
     0
 48
2.0
100
AcDbMText
 10
429.8773505955252
 20
100.996188404649
 30
0.0
 40
2.5
 41
0.0
 71
     5
 72
     1
  1
\A1;1.2
 73
     1
 44
1.0
1001
ACAD
1000
MTEXTBEGIN
1070
    73
1070
     1
1070
    44
1040
1.0
1070
    74
1070
     0
1000
MTEXTEND
  0
LINE
  5
5729
330
5643
100
AcDbEntity
  8
4寸法線
 62
     0
 48
2.0
370
    -2
100
AcDbLine
 10
435.9583029764772
 20
100.996188404649
 30
0.0
 11
434.7583029764776
 21
100.996188404649
 31
0.0
  0
INSERT
  5
572A
330
5643
100
AcDbEntity
  8
4寸法線
 62
     0
 48
2.0
370
    -2
100
AcDbBlockReference
  2
1
 10
435.9583029764772
 20
100.996188404649
 30
0.0
 50
180.0
  0
INSERT
  5
572B
330
5643
100
AcDbEntity
  8
4寸法線
 62
     0
 48
2.0
370
    -2
100
AcDbBlockReference
  2
1
 10
434.7583029764776
 20
100.996188404649
 30
0.0
  0
POINT
  5
572C
330
5643
100
AcDbEntity
  8
DEFPOINTS
 62
     0
 48
2.0
100
AcDbPoint
 10
435.9583029764772
 20
107.6503714206156
 30
0.0
  0
POINT
  5
572D
330
5643
100
AcDbEntity
  8
DEFPOINTS
 62
     0
 48
2.0
100
AcDbPoint
 10
434.7583029764776
 20
107.6503714206154
 30
0.0
  0
POINT
  5
572E
330
5643
100
AcDbEntity
  8
DEFPOINTS
 62
     0
 48
2.0
100
AcDbPoint
 10
434.7583029764776
 20
100.996188404649
 30
0.0
  0
ENDBLK
  5
5645
330
5643
100
AcDbEntity
  8
0
100
AcDbBlockEnd
  0
BLOCK
  5
5652
330
5651
100
AcDbEntity
  8
0
100
AcDbBlockBegin
  2
*D64
 70
     1
 10
0.0
 20
0.0
 30
0.0
  3
*D64
  1

  0
LINE
  5
572F
330
5651
100
AcDbEntity
  8
4寸法線
 62
     0
 48
2.0
370
    -2
100
AcDbLine
 10
435.9583029764772
 20
110.250371420616
 30
0.0
 11
435.9583029764772
 21
118.6119746299068
 31
0.0
  0
LINE
  5
5730
330
5651
100
AcDbEntity
  8
4寸法線
 62
     0
 48
2.0
370
    -2
100
AcDbLine
 10
443.3583029764772
 20
110.2503714206169
 30
0.0
 11
443.3583029764772
 21
118.6119746299068
 31
0.0
  0
LINE
  5
5731
330
5651
100
AcDbEntity
  8
4寸法線
 62
     0
 48
2.0
370
    -2
100
AcDbLine
 10
436.9583029764773
 20
117.6119746299068
 30
0.0
 11
442.3583029764771
 21
117.6119746299068
 31
0.0
  0
INSERT
  5
5732
330
5651
100
AcDbEntity
  8
4寸法線
 62
     0
 48
2.0
370
    -2
100
AcDbBlockReference
  2
1
 10
435.9583029764772
 20
117.6119746299068
 30
0.0
 50
180.0
  0
INSERT
  5
5733
330
5651
100
AcDbEntity
  8
4寸法線
 62
     0
 48
2.0
370
    -2
100
AcDbBlockReference
  2
1
 10
443.3583029764772
 20
117.6119746299068
 30
0.0
  0
MTEXT
  5
5734
330
5651
100
AcDbEntity
  8
4寸法線
 62
     0
 48
2.0
100
AcDbMText
 10
439.6583029764772
 20
119.3619746299068
 30
0.0
 40
2.5
 41
0.0
 71
     5
 72
     1
  1
\A1;7.4
 73
     1
 44
1.0
1001
ACAD
1000
MTEXTBEGIN
1070
    73
1070
     1
1070
    44
1040
1.0
1070
    74
1070
     0
1000
MTEXTEND
  0
POINT
  5
5735
330
5651
100
AcDbEntity
  8
DEFPOINTS
 62
     0
 48
2.0
100
AcDbPoint
 10
435.9583029764772
 20
109.2503714206159
 30
0.0
  0
POINT
  5
5736
330
5651
100
AcDbEntity
  8
DEFPOINTS
 62
     0
 48
2.0
100
AcDbPoint
 10
443.3583029764772
 20
109.2503714206169
 30
0.0
  0
POINT
  5
5737
330
5651
100
AcDbEntity
  8
DEFPOINTS
 62
     0
 48
2.0
100
AcDbPoint
 10
443.3583029764772
 20
117.6119746299068
 30
0.0
  0
ENDBLK
  5
5653
330
5651
100
AcDbEntity
  8
0
100
AcDbBlockEnd
  0
BLOCK
  5
565E
330
565D
100
AcDbEntity
  8
0
100
AcDbBlockBegin
  2
*D65
 70
     1
 10
0.0
 20
0.0
 30
0.0
  3
*D65
  1

  0
LINE
  5
5738
330
565D
100
AcDbEntity
  8
4寸法線
 62
     0
 48
2.0
370
    -2
100
AcDbLine
 10
461.7583029764771
 20
110.250371420616
 30
0.0
 11
461.7583029764771
 21
123.0450029531266
 31
0.0
  0
LINE
  5
5739
330
565D
100
AcDbEntity
  8
4寸法線
 62
     0
 48
2.0
370
    -2
100
AcDbLine
 10
417.7583029764774
 20
122.0450029531266
 30
0.0
 11
460.7583029764771
 21
122.0450029531266
 31
0.0
  0
INSERT
  5
573A
330
565D
100
AcDbEntity
  8
4寸法線
 62
     0
 48
2.0
370
    -2
100
AcDbBlockReference
  2
1
 10
416.7583029764775
 20
122.0450029531266
 30
0.0
 50
180.0
  0
INSERT
  5
573B
330
565D
100
AcDbEntity
  8
4寸法線
 62
     0
 48
2.0
370
    -2
100
AcDbBlockReference
  2
1
 10
461.7583029764771
 20
122.0450029531266
 30
0.0
  0
MTEXT
  5
573C
330
565D
100
AcDbEntity
  8
4寸法線
 62
     0
 48
2.0
100
AcDbMText
 10
439.2583029764772
 20
123.7950029531265
 30
0.0
 40
2.5
 41
0.0
 71
     5
 72
     1
  1
\A1;45
 73
     1
 44
1.0
1001
ACAD
1000
MTEXTBEGIN
1070
    73
1070
     1
1070
    44
1040
1.0
1070
    74
1070
     0
1000
MTEXTEND
  0
POINT
  5
573D
330
565D
100
AcDbEntity
  8
DEFPOINTS
 62
     0
 48
2.0
100
AcDbPoint
 10
416.7583029764775
 20
122.0450029531266
 30
0.0
  0
POINT
  5
573E
330
565D
100
AcDbEntity
  8
DEFPOINTS
 62
     0
 48
2.0
100
AcDbPoint
 10
461.7583029764771
 20
109.2503714206159
 30
0.0
  0
POINT
  5
573F
330
565D
100
AcDbEntity
  8
DEFPOINTS
 62
     0
 48
2.0
100
AcDbPoint
 10
461.7583029764771
 20
122.0450029531266
 30
0.0
  0
ENDBLK
  5
565F
330
565D
100
AcDbEntity
  8
0
100
AcDbBlockEnd
  0
BLOCK
  5
5669
330
5668
100
AcDbEntity
  8
0
100
AcDbBlockBegin
  2
*D66
 70
     1
 10
0.0
 20
0.0
 30
0.0
  3
*D66
  1

  0
LINE
  5
5740
330
5668
100
AcDbEntity
  8
4寸法線
 62
     0
 48
2.0
370
    -2
100
AcDbLine
 10
690.0180582045813
 20
164.855722334984
 30
0.0
 11
701.4772812038915
 21
164.855722334984
 31
0.0
  0
LINE
  5
5741
330
5668
100
AcDbEntity
  8
4寸法線
 62
     0
 48
2.0
370
    -2
100
AcDbLine
 10
692.0180582045812
 20
162.5557223349839
 30
0.0
 11
701.4772812038915
 21
162.5557223349839
 31
0.0
  0
LINE
  5
5742
330
5668
100
AcDbEntity
  8
4寸法線
 62
     0
 48
2.0
370
    -2
100
AcDbLine
 10
700.4772812038916
 20
165.855722334984
 30
0.0
 11
700.4772812038916
 21
166.8557223349839
 31
0.0
  0
LINE
  5
5743
330
5668
100
AcDbEntity
  8
4寸法線
 62
     0
 48
2.0
370
    -2
100
AcDbLine
 10
700.4772812038916
 20
161.5557223349839
 30
0.0
 11
700.4772812038916
 21
160.5557223349839
 31
0.0
  0
MTEXT
  5
5744
330
5668
100
AcDbEntity
  8
4寸法線
 62
     0
 48
2.0
100
AcDbMText
 10
700.4772812038915
 20
157.4366747159345
 30
0.0
 40
2.5
 41
0.0
 71
     5
 72
     1
  1
\A1;2.3
 11
0.0000000000000001
 21
1.0
 31
0.0
 73
     1
 44
1.0
1001
ACAD
1000
MTEXTBEGIN
1070
    73
1070
     1
1070
    44
1040
1.0
1070
    74
1070
     0
1000
MTEXTEND
  0
LINE
  5
5745
330
5668
100
AcDbEntity
  8
4寸法線
 62
     0
 48
2.0
370
    -2
100
AcDbLine
 10
700.4772812038916
 20
164.855722334984
 30
0.0
 11
700.4772812038916
 21
162.5557223349839
 31
0.0
  0
INSERT
  5
5746
330
5668
100
AcDbEntity
  8
4寸法線
 62
     0
 48
2.0
370
    -2
100
AcDbBlockReference
  2
1
 10
700.4772812038916
 20
164.855722334984
 30
0.0
 50
270.0
  0
INSERT
  5
5747
330
5668
100
AcDbEntity
  8
4寸法線
 62
     0
 48
2.0
370
    -2
100
AcDbBlockReference
  2
1
 10
700.4772812038916
 20
162.5557223349839
 30
0.0
 50
90.0
  0
POINT
  5
5748
330
5668
100
AcDbEntity
  8
DEFPOINTS
 62
     0
 48
2.0
100
AcDbPoint
 10
689.0180582045813
 20
164.855722334984
 30
0.0
  0
POINT
  5
5749
330
5668
100
AcDbEntity
  8
DEFPOINTS
 62
     0
 48
2.0
100
AcDbPoint
 10
691.0180582045812
 20
162.5557223349839
 30
0.0
  0
POINT
  5
574A
330
5668
100
AcDbEntity
  8
DEFPOINTS
 62
     0
 48
2.0
100
AcDbPoint
 10
700.4772812038916
 20
162.5557223349839
 30
0.0
  0
ENDBLK
  5
566A
330
5668
100
AcDbEntity
  8
0
100
AcDbBlockEnd
  0
BLOCK
  5
5677
330
5676
100
AcDbEntity
  8
0
100
AcDbBlockBegin
  2
*D67
 70
     1
 10
0.0
 20
0.0
 30
0.0
  3
*D67
  1

  0
LINE
  5
574B
330
5676
100
AcDbEntity
  8
4寸法線
 62
     0
 48
2.0
370
    -2
100
AcDbLine
 10
691.3443682945848
 20
164.7499982824492
 30
0.0
 11
692.1198049912527
 21
165.3814235982709
 31
0.0
  0
MTEXT
  5
574C
330
5676
100
AcDbEntity
  8
4寸法線
 62
     0
 48
2.0
100
AcDbMText
 10
679.9736161870387
 20
157.594548071481
 30
0.0
 40
2.5
 41
0.0
 71
     5
 72
     1
  1
\A1;R2
 11
0.7754366966679999
 21
0.6314253158217688
 31
0.0
 73
     1
 44
1.0
1001
ACAD
1000
MTEXTBEGIN
1070
    73
1070
     1
1070
    44
1040
1.0
1070
    74
1070
     0
1000
MTEXTEND
  0
LINE
  5
574D
330
5676
100
AcDbEntity
  8
4寸法線
 62
     0
 48
2.0
370
    -2
100
AcDbLine
 10
689.0180582045807
 20
162.8557223349839
 30
0.0
 11
690.5689315979167
 21
164.1185729666274
 31
0.0
  0
INSERT
  5
574E
330
5676
100
AcDbEntity
  8
4寸法線
 62
     0
 48
2.0
370
    -2
100
AcDbBlockReference
  2
1
 10
690.5689315979167
 20
164.1185729666274
 30
0.0
 50
219.155358210528
  0
POINT
  5
574F
330
5676
100
AcDbEntity
  8
DEFPOINTS
 62
     0
 48
2.0
100
AcDbPoint
 10
690.5689315979167
 20
164.1185729666274
 30
0.0
  0
POINT
  5
5750
330
5676
100
AcDbEntity
  8
DEFPOINTS
 62
     0
 48
2.0
100
AcDbPoint
 10
689.0180582045807
 20
162.8557223349839
 30
0.0
  0
ENDBLK
  5
5678
330
5676
100
AcDbEntity
  8
0
100
AcDbBlockEnd
  0
BLOCK
  5
5680
330
567F
100
AcDbEntity
  8
0
100
AcDbBlockBegin
  2
*D68
 70
     1
 10
0.0
 20
0.0
 30
0.0
  3
*D68
  1

  0
LINE
  5
5751
330
567F
100
AcDbEntity
  8
4寸法線
 62
     0
 48
2.0
370
    -2
100
AcDbLine
 10
526.2438380946892
 20
111.5093305778084
 30
0.0
 11
525.5933105096022
 21
110.7498479505937
 31
0.0
  0
LINE
  5
5752
330
567F
100
AcDbEntity
  8
4寸法線
 62
     0
 48
2.0
370
    -2
100
AcDbLine
 10
527.9352098159149
 20
113.4839854085668
 30
0.0
 11
528.585737401002
 21
114.2434680357815
 31
0.0
  0
MTEXT
  5
5753
330
567F
100
AcDbEntity
  8
4寸法線
 62
     0
 48
2.0
100
AcDbMText
 10
522.9123695056208
 20
116.0745597111656
 30
0.0
 40
2.5
 41
0.0
 71
     5
 72
     1
  1
\A1;0.6
 11
0.6505275850869045
 21
0.7594826272147378
 31
0.0
 73
     1
 44
1.0
1001
ACAD
1000
MTEXTBEGIN
1070
    73
1070
     1
1070
    44
1040
1.0
1070
    74
1070
     0
1000
MTEXTEND
  0
LINE
  5
5754
330
567F
100
AcDbEntity
  8
4寸法線
 62
     0
 48
2.0
370
    -2
100
AcDbLine
 10
526.894365679776
 20
112.2688132050232
 30
0.0
 11
527.2846822308281
 21
112.724502781352
 31
0.0
  0
INSERT
  5
5755
330
567F
100
AcDbEntity
  8
4寸法線
 62
     0
 48
2.0
370
    -2
100
AcDbBlockReference
  2
1
 10
526.894365679776
 20
112.2688132050232
 30
0.0
 50
49.41860865344948
  0
INSERT
  5
5756
330
567F
100
AcDbEntity
  8
4寸法線
 62
     0
 48
2.0
370
    -2
100
AcDbBlockReference
  2
1
 10
527.2846822308281
 20
112.724502781352
 30
0.0
 50
229.4186086534494
  0
POINT
  5
5757
330
567F
100
AcDbEntity
  8
DEFPOINTS
 62
     0
 48
2.0
100
AcDbPoint
 10
526.894365679776
 20
112.2688132050232
 30
0.0
  0
POINT
  5
5758
330
567F
100
AcDbEntity
  8
DEFPOINTS
 62
     0
 48
2.0
100
AcDbPoint
 10
527.2846822308281
 20
112.724502781352
 30
0.0
  0
POINT
  5
5759
330
567F
100
AcDbEntity
  8
DEFPOINTS
 62
     0
 48
2.0
100
AcDbPoint
 10
527.2846822308281
 20
112.724502781352
 30
0.0
  0
ENDBLK
  5
5681
330
567F
100
AcDbEntity
  8
0
100
AcDbBlockEnd
  0
BLOCK
  5
568C
330
568B
100
AcDbEntity
  8
0
100
AcDbBlockBegin
  2
*D69
 70
     1
 10
0.0
 20
0.0
 30
0.0
  3
*D69
  1

  0
LINE
  5
575A
330
568B
100
AcDbEntity
  8
4寸法線
 62
     0
 48
2.0
370
    -2
100
AcDbLine
 10
462.5862369328088
 20
162.8557223349839
 30
0.0
 11
461.763327075482
 21
163.423894286698
 31
0.0
  0
MTEXT
  5
575B
330
568B
100
AcDbEntity
  8
4寸法線
 62
     0
 48
2.0
100
AcDbMText
 10
454.5854137054076
 20
166.5961876837679
 30
0.0
 40
2.5
 41
0.0
 71
     5
 72
     1
  1
\A1;R2
 11
0.8229098573267016
 21
-0.5681719517140454
 31
0.0
 73
     1
 44
1.0
1001
ACAD
1000
MTEXTBEGIN
1070
    73
1070
     1
1070
    44
1040
1.0
1070
    74
1070
     0
1000
MTEXTEND
  0
INSERT
  5
575C
330
568B
100
AcDbEntity
  8
4寸法線
 62
     0
 48
2.0
370
    -2
100
AcDbBlockReference
  2
1
 10
460.9404172181553
 20
163.992066238412
 30
0.0
 50
145.3771514846478
  0
POINT
  5
575D
330
568B
100
AcDbEntity
  8
DEFPOINTS
 62
     0
 48
2.0
100
AcDbPoint
 10
460.9404172181553
 20
163.992066238412
 30
0.0
  0
POINT
  5
575E
330
568B
100
AcDbEntity
  8
DEFPOINTS
 62
     0
 48
2.0
100
AcDbPoint
 10
462.5862369328088
 20
162.8557223349839
 30
0.0
  0
ENDBLK
  5
568D
330
568B
100
AcDbEntity
  8
0
100
AcDbBlockEnd
  0
BLOCK
  5
5694
330
5693
100
AcDbEntity
  8
0
100
AcDbBlockBegin
  2
*D70
 70
     1
 10
0.0
 20
0.0
 30
0.0
  3
*D70
  1

  0
LINE
  5
575F
330
5693
100
AcDbEntity
  8
4寸法線
 62
     0
 48
2.0
370
    -2
100
AcDbLine
 10
679.4476011210901
 20
166.8557223349839
 30
0.0
 11
678.7318526358948
 21
166.157364184791
 31
0.0
  0
MTEXT
  5
5760
330
5693
100
AcDbEntity
  8
4寸法線
 62
     0
 48
2.0
100
AcDbMText
 10
686.4423827123462
 20
171.1599869038888
 30
0.0
 40
2.5
 41
0.0
 71
     5
 72
     1
  1
\A1;R2
 11
0.715748485195379
 21
0.6983581501926647
 31
0.0
 73
     1
 44
1.0
1001
ACAD
1000
MTEXTBEGIN
1070
    73
1070
     1
1070
    44
1040
1.0
1070
    74
1070
     0
1000
MTEXTEND
  0
INSERT
  5
5761
330
5693
100
AcDbEntity
  8
4寸法線
 62
     0
 48
2.0
370
    -2
100
AcDbBlockReference
  2
1
 10
678.0161041506992
 20
165.4590060345984
 30
0.0
 50
224.295426136996
  0
POINT
  5
5762
330
5693
100
AcDbEntity
  8
DEFPOINTS
 62
     0
 48
2.0
100
AcDbPoint
 10
678.0161041506992
 20
165.4590060345984
 30
0.0
  0
POINT
  5
5763
330
5693
100
AcDbEntity
  8
DEFPOINTS
 62
     0
 48
2.0
100
AcDbPoint
 10
679.4476011210901
 20
166.8557223349839
 30
0.0
  0
ENDBLK
  5
5695
330
5693
100
AcDbEntity
  8
0
100
AcDbBlockEnd
  0
BLOCK
  5
569C
330
569B
100
AcDbEntity
  8
0
100
AcDbBlockBegin
  2
*D71
 70
     1
 10
0.0
 20
0.0
 30
0.0
  3
*D71
  1

  0
LINE
  5
5764
330
569B
100
AcDbEntity
  8
4寸法線
 62
     0
 48
2.0
370
    -2
100
AcDbLine
 10
573.7583029764851
 20
162.5557223349839
 30
0.0
 11
582.3997989615143
 21
162.555722334984
 31
0.0
  0
LINE
  5
5765
330
569B
100
AcDbEntity
  8
4寸法線
 62
     0
 48
2.0
370
    -2
100
AcDbLine
 10
573.758302976485
 20
226.5557223349837
 30
0.0
 11
582.3997989615143
 21
226.5557223349838
 31
0.0
  0
LINE
  5
5766
330
569B
100
AcDbEntity
  8
4寸法線
 62
     0
 48
2.0
370
    -2
100
AcDbLine
 10
581.3997989615143
 20
163.555722334984
 30
0.0
 11
581.3997989615143
 21
225.5557223349838
 31
0.0
  0
INSERT
  5
5767
330
569B
100
AcDbEntity
  8
4寸法線
 62
     0
 48
2.0
370
    -2
100
AcDbBlockReference
  2
1
 10
581.3997989615143
 20
162.555722334984
 30
0.0
 50
270.0
  0
INSERT
  5
5768
330
569B
100
AcDbEntity
  8
4寸法線
 62
     0
 48
2.0
370
    -2
100
AcDbBlockReference
  2
1
 10
581.3997989615143
 20
226.5557223349838
 30
0.0
 50
90.0
  0
MTEXT
  5
5769
330
569B
100
AcDbEntity
  8
4寸法線
 62
     0
 48
2.0
100
AcDbMText
 10
579.6497989615143
 20
194.5557223349836
 30
0.0
 40
2.5
 41
0.0
 71
     5
 72
     1
  1
\A1;64
 11
0.0000000000000001
 21
1.0
 31
0.0
 73
     1
 44
1.0
1001
ACAD
1000
MTEXTBEGIN
1070
    73
1070
     1
1070
    44
1040
1.0
1070
    74
1070
     0
1000
MTEXTEND
  0
POINT
  5
576A
330
569B
100
AcDbEntity
  8
DEFPOINTS
 62
     0
 48
2.0
100
AcDbPoint
 10
572.7583029764852
 20
162.5557223349839
 30
0.0
  0
POINT
  5
576B
330
569B
100
AcDbEntity
  8
DEFPOINTS
 62
     0
 48
2.0
100
AcDbPoint
 10
572.7583029764851
 20
226.5557223349837
 30
0.0
  0
POINT
  5
576C
330
569B
100
AcDbEntity
  8
DEFPOINTS
 62
     0
 48
2.0
100
AcDbPoint
 10
581.3997989615143
 20
226.5557223349838
 30
0.0
  0
ENDBLK
  5
569D
330
569B
100
AcDbEntity
  8
0
100
AcDbBlockEnd
  0
BLOCK
  5
56A8
330
56A7
100
AcDbEntity
  8
0
100
AcDbBlockBegin
  2
*D72
 70
     1
 10
0.0
 20
0.0
 30
0.0
  3
*D72
  1

  0
LINE
  5
576D
330
56A7
100
AcDbEntity
  8
4寸法線
 62
     0
 48
2.0
370
    -2
100
AcDbLine
 10
558.7707408643965
 20
228.5557223349837
 30
0.0
 11
582.3997989615143
 21
228.5557223349838
 31
0.0
  0
LINE
  5
576E
330
56A7
100
AcDbEntity
  8
4寸法線
 62
     0
 48
2.0
370
    -2
100
AcDbLine
 10
581.3997989615143
 20
230.5557223349838
 30
0.0
 11
581.3997989615143
 21
229.5557223349838
 31
0.0
  0
LINE
  5
576F
330
56A7
100
AcDbEntity
  8
4寸法線
 62
     0
 48
2.0
370
    -2
100
AcDbLine
 10
581.3997989615143
 20
228.5557223349838
 30
0.0
 11
581.3997989615143
 21
230.5557223349838
 31
0.0
  0
MTEXT
  5
5770
330
56A7
100
AcDbEntity
  8
4寸法線
 62
     0
 48
2.0
100
AcDbMText
 10
586.8997989615142
 20
227.5557223349835
 30
0.0
 40
2.5
 41
0.0
 71
     5
 72
     1
  1
\A1;2
 11
0.0000000000000001
 21
1.0
 31
0.0
 73
     1
 44
1.0
1001
ACAD
1000
MTEXTBEGIN
1070
    73
1070
     1
1070
    44
1040
1.0
1070
    74
1070
     0
1000
MTEXTEND
  0
INSERT
  5
5771
330
56A7
100
AcDbEntity
  8
4寸法線
 62
     0
 48
2.0
370
    -2
100
AcDbBlockReference
  2
1
 10
581.3997989615143
 20
228.5557223349838
 30
0.0
 50
270.0
  0
POINT
  5
5772
330
56A7
100
AcDbEntity
  8
DEFPOINTS
 62
     0
 48
2.0
100
AcDbPoint
 10
572.7583029764851
 20
226.5557223349837
 30
0.0
  0
POINT
  5
5773
330
56A7
100
AcDbEntity
  8
DEFPOINTS
 62
     0
 48
2.0
100
AcDbPoint
 10
557.7707408643965
 20
228.5557223349837
 30
0.0
  0
POINT
  5
5774
330
56A7
100
AcDbEntity
  8
DEFPOINTS
 62
     0
 48
2.0
100
AcDbPoint
 10
581.3997989615143
 20
228.5557223349838
 30
0.0
  0
ENDBLK
  5
56A9
330
56A7
100
AcDbEntity
  8
0
100
AcDbBlockEnd
  0
BLOCK
  5
56B2
330
56B1
100
AcDbEntity
  8
0
100
AcDbBlockBegin
  2
*D73
 70
     1
 10
0.0
 20
0.0
 30
0.0
  3
*D73
  1

  0
LINE
  5
5775
330
56B1
100
AcDbEntity
  8
4寸法線
 62
     0
 48
2.0
370
    -2
100
AcDbLine
 10
572.7583029764851
 20
161.5557223349839
 30
0.0
 11
572.7583029764851
 21
142.5712604931261
 31
0.0
  0
LINE
  5
5776
330
56B1
100
AcDbEntity
  8
4寸法線
 62
     0
 48
2.0
370
    -2
100
AcDbLine
 10
416.7583029764775
 20
161.5557223349839
 30
0.0
 11
416.7583029764775
 21
142.5712604931261
 31
0.0
  0
LINE
  5
5777
330
56B1
100
AcDbEntity
  8
4寸法線
 62
     0
 48
2.0
370
    -2
100
AcDbLine
 10
571.7583029764851
 20
143.5712604931261
 30
0.0
 11
498.1749696431481
 21
143.5712604931261
 31
0.0
  0
LINE
  5
5778
330
56B1
100
AcDbEntity
  8
4寸法線
 62
     0
 48
2.0
370
    -2
100
AcDbLine
 10
417.7583029764774
 20
143.5712604931261
 30
0.0
 11
491.3416363098146
 21
143.5712604931261
 31
0.0
  0
MTEXT
  5
5779
330
56B1
100
AcDbEntity
  8
4寸法線
 62
     0
 48
2.0
100
AcDbMText
 10
494.7583029764813
 20
143.5712604931261
 30
0.0
 40
2.5
 41
0.0
 71
     5
 72
     1
  1
\A1;156
 73
     1
 44
1.0
1001
ACAD
1000
MTEXTBEGIN
1070
    73
1070
     1
1070
    44
1040
1.0
1070
    74
1070
     0
1000
MTEXTEND
  0
INSERT
  5
577A
330
56B1
100
AcDbEntity
  8
4寸法線
 62
     0
 48
2.0
370
    -2
100
AcDbBlockReference
  2
1
 10
572.7583029764851
 20
143.5712604931261
 30
0.0
  0
INSERT
  5
577B
330
56B1
100
AcDbEntity
  8
4寸法線
 62
     0
 48
2.0
370
    -2
100
AcDbBlockReference
  2
1
 10
416.7583029764775
 20
143.5712604931261
 30
0.0
 50
180.0
  0
POINT
  5
577C
330
56B1
100
AcDbEntity
  8
DEFPOINTS
 62
     0
 48
2.0
100
AcDbPoint
 10
572.7583029764851
 20
162.5557223349839
 30
0.0
  0
POINT
  5
577D
330
56B1
100
AcDbEntity
  8
DEFPOINTS
 62
     0
 48
2.0
100
AcDbPoint
 10
416.7583029764775
 20
162.5557223349839
 30
0.0
  0
POINT
  5
577E
330
56B1
100
AcDbEntity
  8
DEFPOINTS
 62
     0
 48
2.0
100
AcDbPoint
 10
416.7583029764775
 20
143.5712604931261
 30
0.0
  0
ENDBLK
  5
56B3
330
56B1
100
AcDbEntity
  8
0
100
AcDbBlockEnd
  0
BLOCK
  5
56BF
330
56BE
100
AcDbEntity
  8
0
100
AcDbBlockBegin
  2
*D74
 70
     1
 10
0.0
 20
0.0
 30
0.0
  3
*D74
  1

  0
LINE
  5
577F
330
56BE
100
AcDbEntity
  8
4寸法線
 62
     0
 48
2.0
370
    -2
100
AcDbLine
 10
444.5583029764772
 20
110.250371420616
 30
0.0
 11
444.5583029764772
 21
118.6119746299068
 31
0.0
  0
LINE
  5
5780
330
56BE
100
AcDbEntity
  8
4寸法線
 62
     0
 48
2.0
370
    -2
100
AcDbLine
 10
451.9583029764772
 20
110.250371420616
 30
0.0
 11
451.9583029764772
 21
118.6119746299068
 31
0.0
  0
LINE
  5
5781
330
56BE
100
AcDbEntity
  8
4寸法線
 62
     0
 48
2.0
370
    -2
100
AcDbLine
 10
445.5583029764771
 20
117.6119746299068
 30
0.0
 11
450.9583029764772
 21
117.6119746299068
 31
0.0
  0
INSERT
  5
5782
330
56BE
100
AcDbEntity
  8
4寸法線
 62
     0
 48
2.0
370
    -2
100
AcDbBlockReference
  2
1
 10
444.5583029764772
 20
117.6119746299068
 30
0.0
 50
180.0
  0
INSERT
  5
5783
330
56BE
100
AcDbEntity
  8
4寸法線
 62
     0
 48
2.0
370
    -2
100
AcDbBlockReference
  2
1
 10
451.9583029764772
 20
117.6119746299068
 30
0.0
  0
MTEXT
  5
5784
330
56BE
100
AcDbEntity
  8
4寸法線
 62
     0
 48
2.0
100
AcDbMText
 10
448.2583029764771
 20
119.3619746299068
 30
0.0
 40
2.5
 41
0.0
 71
     5
 72
     1
  1
\A1;7.4
 73
     1
 44
1.0
1001
ACAD
1000
MTEXTBEGIN
1070
    73
1070
     1
1070
    44
1040
1.0
1070
    74
1070
     0
1000
MTEXTEND
  0
POINT
  5
5785
330
56BE
100
AcDbEntity
  8
DEFPOINTS
 62
     0
 48
2.0
100
AcDbPoint
 10
444.5583029764772
 20
109.2503714206159
 30
0.0
  0
POINT
  5
5786
330
56BE
100
AcDbEntity
  8
DEFPOINTS
 62
     0
 48
2.0
100
AcDbPoint
 10
451.9583029764772
 20
109.2503714206159
 30
0.0
  0
POINT
  5
5787
330
56BE
100
AcDbEntity
  8
DEFPOINTS
 62
     0
 48
2.0
100
AcDbPoint
 10
451.9583029764772
 20
117.6119746299068
 30
0.0
  0
ENDBLK
  5
56C0
330
56BE
100
AcDbEntity
  8
0
100
AcDbBlockEnd
  0
BLOCK
  5
56CB
330
56CA
100
AcDbEntity
  8
0
100
AcDbBlockBegin
  2
*D75
 70
     1
 10
0.0
 20
0.0
 30
0.0
  3
*D75
  1

  0
LINE
  5
5788
330
56CA
100
AcDbEntity
  8
4寸法線
 62
     0
 48
2.0
370
    -2
100
AcDbLine
 10
540.8785915306739
 20
108.2503714206169
 30
0.0
 11
540.8785915306739
 21
107.2503714206169
 31
0.0
  0
LINE
  5
5789
330
56CA
100
AcDbEntity
  8
4寸法線
 62
     0
 48
2.0
370
    -2
100
AcDbLine
 10
540.8785915306739
 20
112.2506440539397
 30
0.0
 11
540.8785915306739
 21
113.2506440539397
 31
0.0
  0
MTEXT
  5
578A
330
56CA
100
AcDbEntity
  8
4寸法線
 62
     0
 48
2.0
100
AcDbMText
 10
540.8785915306739
 20
114.7002775985131
 30
0.0
 40
2.5
 41
0.0
 71
     5
 72
     1
  1
\A1;2
 11
0.0000000000000001
 21
1.0
 31
0.0
 73
     1
 44
1.0
1001
ACAD
1000
MTEXTBEGIN
1070
    73
1070
     1
1070
    44
1040
1.0
1070
    74
1070
     0
1000
MTEXTEND
  0
LINE
  5
578B
330
56CA
100
AcDbEntity
  8
4寸法線
 62
     0
 48
2.0
370
    -2
100
AcDbLine
 10
540.8785915306739
 20
109.2503714206169
 30
0.0
 11
540.8785915306739
 21
111.2506440539397
 31
0.0
  0
INSERT
  5
578C
330
56CA
100
AcDbEntity
  8
4寸法線
 62
     0
 48
2.0
370
    -2
100
AcDbBlockReference
  2
1
 10
540.8785915306739
 20
109.2503714206169
 30
0.0
 50
90.0
  0
INSERT
  5
578D
330
56CA
100
AcDbEntity
  8
4寸法線
 62
     0
 48
2.0
370
    -2
100
AcDbBlockReference
  2
1
 10
540.8785915306739
 20
111.2506440539397
 30
0.0
 50
270.0
  0
POINT
  5
578E
330
56CA
100
AcDbEntity
  8
DEFPOINTS
 62
     0
 48
2.0
100
AcDbPoint
 10
540.8785915306741
 20
109.2503714206169
 30
0.0
  0
POINT
  5
578F
330
56CA
100
AcDbEntity
  8
DEFPOINTS
 62
     0
 48
2.0
100
AcDbPoint
 10
540.8785915306741
 20
111.2506440539397
 30
0.0
  0
POINT
  5
5790
330
56CA
100
AcDbEntity
  8
DEFPOINTS
 62
     0
 48
2.0
100
AcDbPoint
 10
540.8785915306739
 20
111.2506440539397
 30
0.0
  0
ENDBLK
  5
56CC
330
56CA
100
AcDbEntity
  8
0
100
AcDbBlockEnd
  0
BLOCK
  5
56D7
330
56D6
100
AcDbEntity
  8
0
100
AcDbBlockBegin
  2
*D76
 70
     1
 10
0.0
 20
0.0
 30
0.0
  3
*D76
  1

  0
LINE
  5
5791
330
56D6
100
AcDbEntity
  8
4寸法線
 62
     0
 48
2.0
370
    -2
100
AcDbLine
 10
457.0711969177851
 20
108.2503714206169
 30
0.0
 11
457.0711969177851
 21
107.2503714206169
 31
0.0
  0
LINE
  5
5792
330
56D6
100
AcDbEntity
  8
4寸法線
 62
     0
 48
2.0
370
    -2
100
AcDbLine
 10
457.0711969177851
 20
112.2506440539397
 30
0.0
 11
457.0711969177851
 21
113.2506440539397
 31
0.0
  0
MTEXT
  5
5793
330
56D6
100
AcDbEntity
  8
4寸法線
 62
     0
 48
2.0
100
AcDbMText
 10
457.071196917785
 20
114.7002775985131
 30
0.0
 40
2.5
 41
0.0
 71
     5
 72
     1
  1
\A1;2
 11
0.0000000000000001
 21
1.0
 31
0.0
 73
     1
 44
1.0
1001
ACAD
1000
MTEXTBEGIN
1070
    73
1070
     1
1070
    44
1040
1.0
1070
    74
1070
     0
1000
MTEXTEND
  0
LINE
  5
5794
330
56D6
100
AcDbEntity
  8
4寸法線
 62
     0
 48
2.0
370
    -2
100
AcDbLine
 10
457.0711969177851
 20
109.2503714206169
 30
0.0
 11
457.0711969177851
 21
111.2506440539397
 31
0.0
  0
INSERT
  5
5795
330
56D6
100
AcDbEntity
  8
4寸法線
 62
     0
 48
2.0
370
    -2
100
AcDbBlockReference
  2
1
 10
457.0711969177851
 20
109.2503714206169
 30
0.0
 50
90.0
  0
INSERT
  5
5796
330
56D6
100
AcDbEntity
  8
4寸法線
 62
     0
 48
2.0
370
    -2
100
AcDbBlockReference
  2
1
 10
457.0711969177851
 20
111.2506440539397
 30
0.0
 50
270.0
  0
POINT
  5
5797
330
56D6
100
AcDbEntity
  8
DEFPOINTS
 62
     0
 48
2.0
100
AcDbPoint
 10
457.0711969177851
 20
109.2503714206169
 30
0.0
  0
POINT
  5
5798
330
56D6
100
AcDbEntity
  8
DEFPOINTS
 62
     0
 48
2.0
100
AcDbPoint
 10
457.0711969177851
 20
111.2506440539397
 30
0.0
  0
POINT
  5
5799
330
56D6
100
AcDbEntity
  8
DEFPOINTS
 62
     0
 48
2.0
100
AcDbPoint
 10
457.0711969177851
 20
111.2506440539397
 30
0.0
  0
ENDBLK
  5
56D8
330
56D6
100
AcDbEntity
  8
0
100
AcDbBlockEnd
  0
BLOCK
  5
56E3
330
56E2
100
AcDbEntity
  8
0
100
AcDbBlockBegin
  2
*D77
 70
     1
 10
0.0
 20
0.0
 30
0.0
  3
*D77
  1

  0
LINE
  5
579A
330
56E2
100
AcDbEntity
  8
4寸法線
 62
     0
 48
2.0
370
    -2
100
AcDbLine
 10
641.0180582045811
 20
192.5557223349836
 30
0.0
 11
627.5935965428021
 21
212.6782060119702
 31
0.0
  0
LINE
  5
579B
330
56E2
100
AcDbEntity
  8
4寸法線
 62
     0
 48
2.0
370
    -2
100
AcDbLine
 10
622.7040061971879
 20
220.0074162548588
 30
0.0
 11
623.3388167835087
 21
219.0558722761836
 31
0.0
  0
MTEXT
  5
579C
330
56E2
100
AcDbEntity
  8
4寸法線
 62
     0
 48
2.0
100
AcDbMText
 10
625.4662066631555
 20
215.8670391440769
 30
0.0
 40
2.5
 41
0.0
 71
     5
 72
     1
  1
\A1;R34
 11
0.5549712729513085
 21
-0.8318695127234827
 31
0.0
 73
     1
 44
1.0
1001
ACAD
1000
MTEXTBEGIN
1070
    73
1070
     1
1070
    44
1040
1.0
1070
    74
1070
     0
1000
MTEXTEND
  0
INSERT
  5
579D
330
56E2
100
AcDbEntity
  8
4寸法線
 62
     0
 48
2.0
370
    -2
100
AcDbBlockReference
  2
1
 10
622.1490349242364
 20
220.8392857675822
 30
0.0
 50
123.7087361566737
  0
POINT
  5
579E
330
56E2
100
AcDbEntity
  8
DEFPOINTS
 62
     0
 48
2.0
100
AcDbPoint
 10
622.1490349242364
 20
220.8392857675822
 30
0.0
  0
POINT
  5
579F
330
56E2
100
AcDbEntity
  8
DEFPOINTS
 62
     0
 48
2.0
100
AcDbPoint
 10
641.0180582045811
 20
192.5557223349836
 30
0.0
  0
ENDBLK
  5
56E4
330
56E2
100
AcDbEntity
  8
0
100
AcDbBlockEnd
  0
BLOCK
  5
56EC
330
56EB
100
AcDbEntity
  8
0
100
AcDbBlockBegin
  2
*D78
 70
     1
 10
0.0
 20
0.0
 30
0.0
  3
*D78
  1

  0
LINE
  5
57A0
330
56EB
100
AcDbEntity
  8
4寸法線
 62
     0
 48
2.0
370
    -2
100
AcDbLine
 10
641.0180582045811
 20
192.5557223349839
 30
0.0
 11
623.6550281469183
 21
208.2341288136471
 31
0.0
  0
LINE
  5
57A1
330
56EB
100
AcDbEntity
  8
4寸法線
 62
     0
 48
2.0
370
    -2
100
AcDbLine
 10
615.041243345677
 20
216.0121732554921
 30
0.0
 11
617.9648687016345
 21
213.3722085390918
 31
0.0
  0
MTEXT
  5
57A2
330
56EB
100
AcDbEntity
  8
4寸法線
 62
     0
 48
2.0
100
AcDbMText
 10
620.8099484242763
 20
210.8031686763694
 30
0.0
 40
2.5
 41
0.0
 71
     5
 72
     1
  1
\A1;R36
 11
0.7421947102544069
 21
-0.6701843120145213
 31
0.0
 73
     1
 44
1.0
1001
ACAD
1000
MTEXTBEGIN
1070
    73
1070
     1
1070
    44
1040
1.0
1070
    74
1070
     0
1000
MTEXTEND
  0
INSERT
  5
57A3
330
56EB
100
AcDbEntity
  8
4寸法線
 62
     0
 48
2.0
370
    -2
100
AcDbBlockReference
  2
1
 10
614.2990486354225
 20
216.6823575675067
 30
0.0
 50
137.9187083150504
  0
POINT
  5
57A4
330
56EB
100
AcDbEntity
  8
DEFPOINTS
 62
     0
 48
2.0
100
AcDbPoint
 10
614.2990486354225
 20
216.6823575675067
 30
0.0
  0
POINT
  5
57A5
330
56EB
100
AcDbEntity
  8
DEFPOINTS
 62
     0
 48
2.0
100
AcDbPoint
 10
641.0180582045811
 20
192.5557223349839
 30
0.0
  0
ENDBLK
  5
56ED
330
56EB
100
AcDbEntity
  8
0
100
AcDbBlockEnd
  0
BLOCK
  5
56F5
330
56F4
100
AcDbEntity
  8
0
100
AcDbBlockBegin
  2
*D79
 70
     1
 10
0.0
 20
0.0
 30
0.0
  3
*D79
  1

  0
LINE
  5
57A6
330
56F4
100
AcDbEntity
  8
4寸法線
 62
     0
 48
2.0
370
    -2
100
AcDbLine
 10
416.7583029764775
 20
110.3456564918276
 30
0.0
 11
416.7583029764775
 21
128.2209413595171
 31
0.0
  0
LINE
  5
57A7
330
56F4
100
AcDbEntity
  8
4寸法線
 62
     0
 48
2.0
370
    -2
100
AcDbLine
 10
464.9583029764769
 20
110.2503714206163
 30
0.0
 11
464.9583029764769
 21
128.2209413595171
 31
0.0
  0
LINE
  5
57A8
330
56F4
100
AcDbEntity
  8
4寸法線
 62
     0
 48
2.0
370
    -2
100
AcDbLine
 10
417.7583029764774
 20
127.2209413595171
 30
0.0
 11
436.2083029764771
 21
127.2209413595171
 31
0.0
  0
LINE
  5
57A9
330
56F4
100
AcDbEntity
  8
4寸法線
 62
     0
 48
2.0
370
    -2
100
AcDbLine
 10
463.9583029764769
 20
127.2209413595171
 30
0.0
 11
444.7083029764771
 21
127.2209413595171
 31
0.0
  0
MTEXT
  5
57AA
330
56F4
100
AcDbEntity
  8
4寸法線
 62
     0
 48
2.0
100
AcDbMText
 10
440.4583029764771
 20
127.2209413595171
 30
0.0
 40
2.5
 41
0.0
 71
     5
 72
     1
  1
\A1;48.2
 73
     1
 44
1.0
1001
ACAD
1000
MTEXTBEGIN
1070
    73
1070
     1
1070
    44
1040
1.0
1070
    74
1070
     0
1000
MTEXTEND
  0
INSERT
  5
57AB
330
56F4
100
AcDbEntity
  8
4寸法線
 62
     0
 48
2.0
370
    -2
100
AcDbBlockReference
  2
1
 10
416.7583029764775
 20
127.2209413595171
 30
0.0
 50
180.0
  0
INSERT
  5
57AC
330
56F4
100
AcDbEntity
  8
4寸法線
 62
     0
 48
2.0
370
    -2
100
AcDbBlockReference
  2
1
 10
464.9583029764769
 20
127.2209413595171
 30
0.0
  0
POINT
  5
57AD
330
56F4
100
AcDbEntity
  8
DEFPOINTS
 62
     0
 48
2.0
100
AcDbPoint
 10
416.7583029764775
 20
109.3456564918276
 30
0.0
  0
POINT
  5
57AE
330
56F4
100
AcDbEntity
  8
DEFPOINTS
 62
     0
 48
2.0
100
AcDbPoint
 10
464.9583029764769
 20
109.2503714206163
 30
0.0
  0
POINT
  5
57AF
330
56F4
100
AcDbEntity
  8
DEFPOINTS
 62
     0
 48
2.0
100
AcDbPoint
 10
464.9583029764769
 20
127.2209413595171
 30
0.0
  0
ENDBLK
  5
56F6
330
56F4
100
AcDbEntity
  8
0
100
AcDbBlockEnd
  0
BLOCK
  5
5702
330
5701
100
AcDbEntity
  8
0
100
AcDbBlockBegin
  2
*D80
 70
     1
 10
0.0
 20
0.0
 30
0.0
  3
*D80
  1

  0
LINE
  5
57B0
330
5701
100
AcDbEntity
  8
4寸法線
 62
     0
 48
2.0
370
    -2
100
AcDbLine
 10
465.9583029764771
 20
110.2503714206169
 30
0.0
 11
465.9583029764771
 21
128.2209413595171
 31
0.0
  0
LINE
  5
57B1
330
5701
100
AcDbEntity
  8
4寸法線
 62
     0
 48
2.0
370
    -2
100
AcDbLine
 10
467.9583029764771
 20
127.2209413595171
 30
0.0
 11
466.9583029764771
 21
127.2209413595171
 31
0.0
  0
LINE
  5
57B2
330
5701
100
AcDbEntity
  8
4寸法線
 62
     0
 48
2.0
370
    -2
100
AcDbLine
 10
465.9583029764771
 20
127.2209413595171
 30
0.0
 11
467.9583029764771
 21
127.2209413595171
 31
0.0
  0
MTEXT
  5
57B3
330
5701
100
AcDbEntity
  8
4寸法線
 62
     0
 48
2.0
100
AcDbMText
 10
465.4583029764771
 20
130.2209413595171
 30
0.0
 40
2.5
 41
0.0
 71
     5
 72
     1
  1
\A1;1
 73
     1
 44
1.0
1001
ACAD
1000
MTEXTBEGIN
1070
    73
1070
     1
1070
    44
1040
1.0
1070
    74
1070
     0
1000
MTEXTEND
  0
INSERT
  5
57B4
330
5701
100
AcDbEntity
  8
4寸法線
 62
     0
 48
2.0
370
    -2
100
AcDbBlockReference
  2
1
 10
465.9583029764771
 20
127.2209413595171
 30
0.0
 50
180.0
  0
POINT
  5
57B5
330
5701
100
AcDbEntity
  8
DEFPOINTS
 62
     0
 48
2.0
100
AcDbPoint
 10
464.958302976477
 20
110.7503714206172
 30
0.0
  0
POINT
  5
57B6
330
5701
100
AcDbEntity
  8
DEFPOINTS
 62
     0
 48
2.0
100
AcDbPoint
 10
465.9583029764771
 20
109.2503714206169
 30
0.0
  0
POINT
  5
57B7
330
5701
100
AcDbEntity
  8
DEFPOINTS
 62
     0
 48
2.0
100
AcDbPoint
 10
465.9583029764771
 20
127.2209413595171
 30
0.0
  0
ENDBLK
  5
5703
330
5701
100
AcDbEntity
  8
0
100
AcDbBlockEnd
  0
BLOCK
  5
570C
330
570B
100
AcDbEntity
  8
0
100
AcDbBlockBegin
  2
*D81
 70
     1
 10
0.0
 20
0.0
 30
0.0
  3
*D81
  1

  0
LINE
  5
57B8
330
570B
100
AcDbEntity
  8
4寸法線
 62
     0
 48
2.0
370
    -2
100
AcDbLine
 10
641.0180582045811
 20
155.9388477290207
 30
0.0
 11
641.0180582045811
 21
148.8072346800039
 31
0.0
  0
LINE
  5
57B9
330
570B
100
AcDbEntity
  8
4寸法線
 62
     0
 48
2.0
370
    -2
100
AcDbLine
 10
642.0180582045811
 20
149.8072346800039
 30
0.0
 11
654.0180582045808
 21
149.8072346800039
 31
0.0
  0
LINE
  5
57BA
330
570B
100
AcDbEntity
  8
4寸法線
 62
     0
 48
2.0
370
    -2
100
AcDbLine
 10
674.5180582045811
 20
149.8072346800039
 30
0.0
 11
662.5180582045808
 21
149.8072346800039
 31
0.0
  0
MTEXT
  5
57BB
330
570B
100
AcDbEntity
  8
4寸法線
 62
     0
 48
2.0
100
AcDbMText
 10
658.2680582045808
 20
149.8072346800039
 30
0.0
 40
2.5
 41
0.0
 71
     5
 72
     1
  1
\A1;34.5
 73
     1
 44
1.0
1001
ACAD
1000
MTEXTBEGIN
1070
    73
1070
     1
1070
    44
1040
1.0
1070
    74
1070
     0
1000
MTEXTEND
  0
INSERT
  5
57BC
330
570B
100
AcDbEntity
  8
4寸法線
 62
     0
 48
2.0
370
    -2
100
AcDbBlockReference
  2
1
 10
641.0180582045811
 20
149.8072346800039
 30
0.0
 50
180.0
  0
INSERT
  5
57BD
330
570B
100
AcDbEntity
  8
4寸法線
 62
     0
 48
2.0
370
    -2
100
AcDbBlockReference
  2
1
 10
675.5180582045811
 20
149.8072346800039
 30
0.0
  0
POINT
  5
57BE
330
570B
100
AcDbEntity
  8
DEFPOINTS
 62
     0
 48
2.0
100
AcDbPoint
 10
641.0180582045811
 20
156.9388477290207
 30
0.0
  0
POINT
  5
57BF
330
570B
100
AcDbEntity
  8
DEFPOINTS
 62
     0
 48
2.0
100
AcDbPoint
 10
675.5180582045811
 20
149.8072346800039
 30
0.0
  0
POINT
  5
57C0
330
570B
100
AcDbEntity
  8
DEFPOINTS
 62
     0
 48
2.0
100
AcDbPoint
 10
675.5180582045811
 20
149.8072346800039
 30
0.0
  0
ENDBLK
  5
570D
330
570B
100
AcDbEntity
  8
0
100
AcDbBlockEnd
  0
ENDSEC
  0
SECTION
  2
ENTITIES
  0
LINE
  5
58DC
330
4F07
100
AcDbEntity
  8
1外形線
100
AcDbLine
 10
857.9479139556132
 20
123.9770616432938
 30
0.0
 11
884.397913955614
 21
123.977061643292
 31
0.0
  0
ARC
  5
58DD
330
4F07
100
AcDbEntity
  8
1外形線
100
AcDbCircle
 10
857.9479139556132
 20
218.6851245256053
 30
0.0
 40
27.29193711768191
100
AcDbArc
 50
1.063681561402912
 51
90.0
  0
LINE
  5
58DE
330
4F07
100
AcDbEntity
  8
1外形線
100
AcDbLine
 10
884.397913955614
 20
123.977061643292
 30
0.0
 11
885.8982586548863
 21
125.4774063425643
 31
0.0
  0
LINE
  5
58DF
330
4F07
100
AcDbEntity
  8
1外形線
100
AcDbLine
 10
885.8982586548863
 20
183.4770616432884
 30
0.0
 11
885.8982586548863
 21
125.4774063425643
 31
0.0
  0
LINE
  5
58E0
330
4F07
100
AcDbEntity
  8
1外形線
100
AcDbLine
 10
885.8982586548863
 20
183.4770616432884
 30
0.0
 11
885.2351481284003
 21
219.1917632873952
 31
0.0
  0
LINE
  5
58E1
330
4F07
100
AcDbEntity
  8
1外形線
100
AcDbLine
 10
885.8982586548863
 20
125.4774063425643
 30
0.0
 11
857.9479139556132
 21
125.4774063425643
 31
0.0
  0
LINE
  5
58E2
330
4F07
100
AcDbEntity
  8
1外形線
100
AcDbLine
 10
829.9975692563403
 20
125.4774063425643
 30
0.0
 11
857.9479139556132
 21
125.4774063425643
 31
0.0
  0
LINE
  5
58E3
330
4F07
100
AcDbEntity
  8
1外形線
100
AcDbLine
 10
829.9975692563403
 20
183.4770616432884
 30
0.0
 11
830.6606797828262
 21
219.1917632873952
 31
0.0
  0
LINE
  5
58E4
330
4F07
100
AcDbEntity
  8
1外形線
100
AcDbLine
 10
829.9975692563403
 20
183.4770616432884
 30
0.0
 11
829.9975692563403
 21
125.4774063425643
 31
0.0
  0
LINE
  5
58E5
330
4F07
100
AcDbEntity
  8
1外形線
100
AcDbLine
 10
831.4979139556143
 20
123.9770616432902
 30
0.0
 11
829.9975692563403
 21
125.4774063425643
 31
0.0
  0
ARC
  5
58E6
330
4F07
100
AcDbEntity
  8
1外形線
100
AcDbCircle
 10
857.9479139556132
 20
218.6851245256053
 30
0.0
 40
27.29193711768191
100
AcDbArc
 50
90.0
 51
178.9363184385971
  0
LINE
  5
58E7
330
4F07
100
AcDbEntity
  8
1外形線
100
AcDbLine
 10
857.9479139556132
 20
123.9770616432938
 30
0.0
 11
831.4979139556143
 21
123.9770616432902
 31
0.0
  0
LINE
  5
58E8
330
4F07
100
AcDbEntity
  8
1外形線
100
AcDbLine
 10
829.9975692563403
 20
136.4770616432793
 30
0.0
 11
857.9479139556132
 21
136.4770616432793
 31
0.0
  0
LINE
  5
58E9
330
4F07
100
AcDbEntity
  8
1外形線
100
AcDbLine
 10
885.8982586548863
 20
136.4770616432793
 30
0.0
 11
857.9479139556132
 21
136.4770616432793
 31
0.0
  0
ARC
  5
58EA
330
4F07
100
AcDbEntity
  8
1外形線
100
AcDbCircle
 10
1135.452679339541
 20
207.4770616432866
 30
0.0
 40
26.00000000000182
100
AcDbArc
 50
1.063681561402912
 51
90.0
  0
ARC
  5
58EB
330
4F07
100
AcDbEntity
  8
1外形線
100
AcDbCircle
 10
1135.452679339541
 20
207.4770616432866
 30
0.0
 40
27.5
100
AcDbArc
 50
1.063681561402912
 51
90.0
  0
LINE
  5
58EC
330
4F07
100
AcDbEntity
  8
1外形線
100
AcDbLine
 10
1135.452679339541
 20
123.9770616432938
 30
0.0
 11
1161.902679339542
 21
123.977061643292
 31
0.0
  0
ARC
  5
58ED
330
4F07
100
AcDbEntity
  8
1外形線
100
AcDbCircle
 10
1135.452679339541
 20
218.6851245256053
 30
0.0
 40
27.29193711768191
100
AcDbArc
 50
1.063681561402912
 51
90.0
  0
ARC
  5
58EE
330
4F07
100
AcDbEntity
  8
1外形線
100
AcDbCircle
 10
1135.452679339541
 20
207.4770616432866
 30
0.0
 40
25.5
100
AcDbArc
 50
1.063681561402912
 51
90.0
  0
LINE
  5
58EF
330
4F07
100
AcDbEntity
  8
1外形線
100
AcDbLine
 10
1161.902679339542
 20
123.977061643292
 30
0.0
 11
1163.403024038815
 21
125.4774063425643
 31
0.0
  0
LINE
  5
58F0
330
4F07
100
AcDbEntity
  8
1外形線
100
AcDbLine
 10
1161.902765514362
 20
183.4770616432902
 30
0.0
 11
1161.448199021172
 21
207.9597172990484
 31
0.0
  0
LINE
  5
58F1
330
4F07
100
AcDbEntity
  8
1外形線
100
AcDbLine
 10
1163.403024038815
 20
183.4770616432884
 30
0.0
 11
1163.403024038815
 21
125.4774063425643
 31
0.0
  0
LINE
  5
58F2
330
4F07
100
AcDbEntity
  8
1外形線
100
AcDbLine
 10
1161.402679339542
 20
183.4770616432884
 30
0.0
 11
1161.402679339542
 21
123.9770616432938
 31
0.0
  0
LINE
  5
58F3
330
4F07
100
AcDbEntity
  8
1外形線
100
AcDbLine
 10
1161.402679339542
 20
183.4770616432865
 30
0.0
 11
1160.948285181139
 21
207.9504354595151
 31
0.0
  0
LINE
  5
58F4
330
4F07
100
AcDbEntity
  8
1外形線
100
AcDbLine
 10
1163.403024038815
 20
183.4770616432884
 30
0.0
 11
1162.739913512329
 21
219.1917632873952
 31
0.0
  0
LINE
  5
58F5
330
4F07
100
AcDbEntity
  8
1外形線
100
AcDbLine
 10
1163.403024038815
 20
183.4770616432884
 30
0.0
 11
1161.402679339542
 21
183.4770616432884
 31
0.0
  0
LINE
  5
58F6
330
4F07
100
AcDbEntity
  8
1外形線
100
AcDbLine
 10
955.7162524659142
 20
123.9770616432884
 30
0.0
 11
1005.716252465918
 21
123.9770616432938
 31
0.0
  0
LINE
  5
58F7
330
4F07
100
AcDbEntity
  8
1外形線
100
AcDbLine
 10
1109.502679339541
 20
183.4770616432884
 30
0.0
 11
1109.502679339541
 21
123.9770616432938
 31
0.0
  0
LINE
  5
58F8
330
4F07
100
AcDbEntity
  8
1外形線
100
AcDbLine
 10
1107.502334640268
 20
183.4770616432884
 30
0.0
 11
1107.502334640268
 21
125.4774063425643
 31
0.0
  0
LINE
  5
58F9
330
4F07
100
AcDbEntity
  8
1外形線
100
AcDbLine
 10
1109.002679339541
 20
123.977061643292
 30
0.0
 11
1107.502334640268
 21
125.4774063425643
 31
0.0
  0
LINE
  5
58FA
330
4F07
100
AcDbEntity
  8
1外形線
100
AcDbLine
 10
1135.452679339541
 20
123.9770616432938
 30
0.0
 11
1109.002679339541
 21
123.977061643292
 31
0.0
  0
LINE
  5
58FB
330
4F07
100
AcDbEntity
  8
1外形線
100
AcDbLine
 10
1109.002593164721
 20
183.4770616432902
 30
0.0
 11
1109.457159657911
 21
207.9597172990484
 31
0.0
  0
ARC
  5
58FC
330
4F07
100
AcDbEntity
  8
1外形線
100
AcDbCircle
 10
1135.452679339541
 20
207.4770616432866
 30
0.0
 40
26.00000000000182
100
AcDbArc
 50
90.0
 51
178.9363184385971
  0
ARC
  5
58FD
330
4F07
100
AcDbEntity
  8
1外形線
100
AcDbCircle
 10
1135.452679339541
 20
207.4770616432866
 30
0.0
 40
27.5
100
AcDbArc
 50
90.0
 51
178.9363184385971
  0
LINE
  5
58FE
330
4F07
100
AcDbEntity
  8
1外形線
100
AcDbLine
 10
1065.21625246591
 20
183.4770616432884
 30
0.0
 11
1006.716252465911
 21
183.4770616432865
 31
0.0
  0
ARC
  5
58FF
330
4F07
100
AcDbEntity
  8
1外形線
100
AcDbCircle
 10
1006.716252465912
 20
182.4770616432865
 30
0.0
 40
1.0
100
AcDbArc
 50
90.0
 51
134.9999999998537
  0
LINE
  5
5900
330
4F07
100
AcDbEntity
  8
1外形線
100
AcDbLine
 10
1005.716252465918
 20
123.9770616432938
 30
0.0
 11
1005.716252465916
 21
182.4770616432884
 31
0.0
  0
ARC
  5
5901
330
4F07
100
AcDbEntity
  8
1外形線
100
AcDbCircle
 10
1006.716252465916
 20
182.4770616432902
 30
0.0
 40
1.0
100
AcDbArc
 50
135.0000000001485
 51
180.0
  0
LINE
  5
5902
330
4F07
100
AcDbEntity
  8
1外形線
100
AcDbLine
 10
1065.21625246591
 20
233.4770616432884
 30
0.0
 11
1065.21625246591
 21
183.4770616432884
 31
0.0
  0
LINE
  5
5903
330
4F07
100
AcDbEntity
  8
1外形線
100
AcDbLine
 10
1107.502334640268
 20
183.4770616432884
 30
0.0
 11
1108.165445166754
 21
219.1917632873952
 31
0.0
  0
ARC
  5
5904
330
4F07
100
AcDbEntity
  8
1外形線
100
AcDbCircle
 10
1135.452679339541
 20
218.6851245256053
 30
0.0
 40
27.29193711768191
100
AcDbArc
 50
90.0
 51
178.9363184385971
  0
LINE
  5
5905
330
4F07
100
AcDbEntity
  8
1外形線
100
AcDbLine
 10
1109.502679339541
 20
183.4770616432884
 30
0.0
 11
1109.957073497944
 21
207.9504354595151
 31
0.0
  0
LINE
  5
5906
330
4F07
100
AcDbEntity
  8
1外形線
100
AcDbLine
 10
1107.502334640268
 20
183.4770616432884
 30
0.0
 11
1109.502679339541
 21
183.4770616432884
 31
0.0
  0
ARC
  5
5907
330
4F07
100
AcDbEntity
  8
1外形線
100
AcDbCircle
 10
1135.452679339541
 20
207.4770616432866
 30
0.0
 40
25.5
100
AcDbArc
 50
90.0
 51
178.9363184385971
  0
LINE
  5
5908
330
4F07
100
AcDbEntity
  8
1外形線
100
AcDbLine
 10
943.2162524659215
 20
138.5481294551314
 30
0.0
 11
943.2162524659142
 21
215.9770616432829
 31
0.0
  0
LINE
  5
5909
330
4F07
100
AcDbEntity
  8
1外形線
100
AcDbLine
 10
1050.64518465406
 20
245.977061643272
 30
0.0
 11
973.2162524659178
 21
245.9770616432866
 31
0.0
  0
LINE
  5
590A
330
4F07
100
AcDbEntity
  8
1外形線
100
AcDbLine
 10
1054.180718559992
 20
244.5125955492053
 30
0.0
 11
1065.21625246591
 21
233.4770616432884
 31
0.0
  0
LINE
  5
590B
330
4F07
100
AcDbEntity
  8
1外形線
100
AcDbLine
 10
1063.71625246591
 20
234.9770616432884
 30
0.0
 11
1063.71625246591
 21
183.4770616432884
 31
0.0
  0
ARC
  5
590C
330
4F07
100
AcDbEntity
  8
1外形線
100
AcDbCircle
 10
1050.645184654058
 20
240.977061643272
 30
0.0
 40
5.0
100
AcDbArc
 50
44.99999999999885
 51
90.0
  0
LINE
  5
590D
330
4F07
100
AcDbEntity
  8
1外形線
100
AcDbLine
 10
944.6807185599974
 20
135.0125955492035
 30
0.0
 11
955.7162524659142
 21
123.9770616432884
 31
0.0
  0
ARC
  5
590E
330
4F07
100
AcDbEntity
  8
1外形線
100
AcDbCircle
 10
948.2162524659306
 20
138.5481294551368
 30
0.0
 40
5.0
100
AcDbArc
 50
180.0
 51
224.9999999999989
  0
ARC
  5
590F
330
4F07
100
AcDbEntity
  8
1外形線
100
AcDbCircle
 10
973.2162524659143
 20
215.9770616432866
 30
0.0
 40
30.0
100
AcDbArc
 50
90.0
 51
180.0
  0
LINE
  5
5910
330
4F07
100
AcDbEntity
  8
1外形線
100
AcDbLine
 10
954.2162524660852
 20
125.4770616432911
 30
0.0
 11
1005.716252466085
 21
125.4770616433711
 31
0.0
  0
LINE
  5
5911
330
4F07
100
AcDbEntity
  8
1外形線
100
AcDbLine
 10
1135.452679339556
 20
138.9770616432938
 30
0.0
 11
1109.502679339559
 21
138.9770616432956
 31
0.0
  0
LINE
  5
5912
330
4F07
100
AcDbEntity
  8
1外形線
100
AcDbLine
 10
1135.452679339543
 20
124.9770616432956
 30
0.0
 11
1120.452679339543
 21
124.9770616432974
 31
0.0
  0
LINE
  5
5913
330
4F07
100
AcDbEntity
  8
1外形線
100
AcDbLine
 10
1135.452679339572
 20
123.9770616432938
 30
0.0
 11
1121.452679339572
 21
123.977061643292
 31
0.0
  0
LINE
  5
5914
330
4F07
100
AcDbEntity
  8
1外形線
100
AcDbLine
 10
1120.452679339541
 20
185.9770616432902
 30
0.0
 11
1135.452679339541
 21
185.9770616432902
 31
0.0
  0
LINE
  5
5915
330
4F07
100
AcDbEntity
  8
1外形線
100
AcDbLine
 10
1121.952679339542
 20
187.9770616432902
 30
0.0
 11
1135.452679339541
 21
187.9770616432902
 31
0.0
  0
LINE
  5
5916
330
4F07
100
AcDbEntity
  8
1外形線
100
AcDbLine
 10
1135.452679339541
 20
183.4770616432938
 30
0.0
 11
1109.502679339543
 21
183.4770616432938
 31
0.0
  0
LINE
  5
5917
330
4F07
100
AcDbEntity
  8
1外形線
100
AcDbLine
 10
1111.502679339543
 20
183.4770616432956
 30
0.0
 11
1111.502679339543
 21
138.9770616432956
 31
0.0
  0
LINE
  5
5918
330
4F07
100
AcDbEntity
  8
1外形線
100
AcDbLine
 10
1109.502679339543
 20
183.4770616432938
 30
0.0
 11
1109.502679339543
 21
138.9770616432975
 31
0.0
  0
ARC
  5
5919
330
4F07
100
AcDbEntity
  8
1外形線
100
AcDbCircle
 10
1121.45267933957
 20
124.9770616432938
 30
0.0
 40
1.0
100
AcDbArc
 50
180.0
 51
270.0
  0
LINE
  5
591A
330
4F07
100
AcDbEntity
  8
1外形線
100
AcDbLine
 10
1120.452679339571
 20
124.977061643292
 30
0.0
 11
1120.452679339569
 21
138.977061643292
 31
0.0
  0
LINE
  5
591B
330
4F07
100
AcDbEntity
  8
1外形線
100
AcDbLine
 10
1120.452679339541
 20
185.9770616432902
 30
0.0
 11
1120.452679339541
 21
189.4770616432902
 31
0.0
  0
LINE
  5
591C
330
4F07
100
AcDbEntity
  8
1外形線
100
AcDbLine
 10
1120.452679339541
 20
189.4770616432902
 30
0.0
 11
1121.952679339542
 21
189.4770616432902
 31
0.0
  0
LINE
  5
591D
330
4F07
100
AcDbEntity
  8
1外形線
100
AcDbLine
 10
1121.952679339542
 20
187.9770616432902
 30
0.0
 11
1121.952679339542
 21
189.4770616432902
 31
0.0
  0
LINE
  5
591E
330
4F07
100
AcDbEntity
  8
1外形線
100
AcDbLine
 10
1120.452679339541
 20
189.4770616432902
 30
0.0
 11
1113.002679339543
 21
189.4770616432938
 31
0.0
  0
LINE
  5
591F
330
4F07
100
AcDbEntity
  8
1外形線
100
AcDbLine
 10
1109.502679339543
 20
183.4770616432938
 30
0.0
 11
1109.633703066869
 21
190.9834059545587
 31
0.0
  0
ARC
  5
5920
330
4F07
100
AcDbEntity
  8
1外形線
100
AcDbCircle
 10
1110.633550762026
 20
190.9659535481219
 30
0.0
 40
1.0
100
AcDbArc
 50
126.4460475891069
 51
179.0000000000242
  0
LINE
  5
5921
330
4F07
100
AcDbEntity
  8
1外形線
100
AcDbLine
 10
1110.039485188445
 20
191.7703701654841
 30
0.0
 11
1111.408613765963
 21
192.7814782606579
 31
0.0
  0
ARC
  5
5922
330
4F07
100
AcDbEntity
  8
1外形線
100
AcDbCircle
 10
1112.002679339542
 20
191.9770616432956
 30
0.0
 40
1.0
100
AcDbArc
 50
0.0
 51
126.4460475891069
  0
LINE
  5
5923
330
4F07
100
AcDbEntity
  8
1外形線
100
AcDbLine
 10
1113.002679339543
 20
189.4770616432938
 30
0.0
 11
1113.002679339543
 21
191.9770616432956
 31
0.0
  0
LINE
  5
5924
330
4F07
100
AcDbEntity
  8
1外形線
100
AcDbLine
 10
1159.40267933954
 20
183.4770616432956
 30
0.0
 11
1159.40267933954
 21
138.9770616432938
 31
0.0
  0
LINE
  5
5925
330
4F07
100
AcDbEntity
  8
1外形線
100
AcDbLine
 10
1161.40267933954
 20
183.4770616432938
 30
0.0
 11
1161.40267933954
 21
138.977061643292
 31
0.0
  0
LINE
  5
5926
330
4F07
100
AcDbEntity
  8
1外形線
100
AcDbLine
 10
1135.452679339556
 20
138.9770616432938
 30
0.0
 11
1161.402679339557
 21
138.9770616432956
 31
0.0
  0
ARC
  5
5927
330
4F07
100
AcDbEntity
  8
1外形線
100
AcDbCircle
 10
1135.452679339556
 20
147.6270616432953
 30
0.0
 40
2.150000000000005
100
AcDbArc
 50
180.0
 51
0.0
  0
ARC
  5
5928
330
4F07
100
AcDbEntity
  8
1外形線
100
AcDbCircle
 10
1135.452679339556
 20
151.327061643296
 30
0.0
 40
2.150000000000005
100
AcDbArc
 50
0.0
 51
180.0
  0
LINE
  5
5929
330
4F07
100
AcDbEntity
  8
1外形線
100
AcDbLine
 10
1133.302679339556
 20
151.327061643296
 30
0.0
 11
1133.302679339556
 21
147.6270616432953
 31
0.0
  0
LINE
  5
592A
330
4F07
100
AcDbEntity
  8
1外形線
100
AcDbLine
 10
1137.602679339557
 20
151.327061643296
 30
0.0
 11
1137.602679339557
 21
147.6270616432953
 31
0.0
  0
LINE
  5
592B
330
4F07
100
AcDbEntity
  8
1外形線
100
AcDbLine
 10
1150.452679339543
 20
124.977061643292
 30
0.0
 11
1150.452679339545
 21
138.977061643292
 31
0.0
  0
ARC
  5
592C
330
4F07
100
AcDbEntity
  8
1外形線
100
AcDbCircle
 10
1149.452679339543
 20
124.9770616432938
 30
0.0
 40
1.0
100
AcDbArc
 50
270.0
 51
0.0
  0
LINE
  5
592D
330
4F07
100
AcDbEntity
  8
1外形線
100
AcDbLine
 10
1135.452679339541
 20
123.9770616432938
 30
0.0
 11
1149.452679339542
 21
123.977061643292
 31
0.0
  0
LINE
  5
592E
330
4F07
100
AcDbEntity
  8
1外形線
100
AcDbLine
 10
1135.452679339571
 20
124.9770616432956
 30
0.0
 11
1150.452679339571
 21
124.9770616432974
 31
0.0
  0
LINE
  5
592F
330
4F07
100
AcDbEntity
  8
1外形線
100
AcDbLine
 10
1160.865873490638
 20
191.7703701654841
 30
0.0
 11
1159.49674491312
 21
192.7814782606579
 31
0.0
  0
ARC
  5
5930
330
4F07
100
AcDbEntity
  8
1外形線
100
AcDbCircle
 10
1158.902679339542
 20
191.9770616432956
 30
0.0
 40
1.0
100
AcDbArc
 50
53.55395241089314
 51
180.0
  0
LINE
  5
5931
330
4F07
100
AcDbEntity
  8
1外形線
100
AcDbLine
 10
1157.902679339542
 20
189.4770616432938
 30
0.0
 11
1157.90267933954
 21
191.9770616432956
 31
0.0
  0
LINE
  5
5932
330
4F07
100
AcDbEntity
  8
1外形線
100
AcDbLine
 10
1150.452679339543
 20
189.4770616432902
 30
0.0
 11
1157.902679339542
 21
189.4770616432938
 31
0.0
  0
LINE
  5
5933
330
4F07
100
AcDbEntity
  8
1外形線
100
AcDbLine
 10
1148.952679339543
 20
187.9770616432902
 30
0.0
 11
1148.952679339543
 21
189.4770616432902
 31
0.0
  0
LINE
  5
5934
330
4F07
100
AcDbEntity
  8
1外形線
100
AcDbLine
 10
1150.452679339543
 20
189.4770616432902
 30
0.0
 11
1148.952679339543
 21
189.4770616432902
 31
0.0
  0
LINE
  5
5935
330
4F07
100
AcDbEntity
  8
1外形線
100
AcDbLine
 10
1150.452679339543
 20
185.9770616432902
 30
0.0
 11
1150.452679339543
 21
189.4770616432902
 31
0.0
  0
ARC
  5
5936
330
4F07
100
AcDbEntity
  8
1外形線
100
AcDbCircle
 10
1160.271807917059
 20
190.9659535481219
 30
0.0
 40
1.0
100
AcDbArc
 50
0.9999999999757104
 51
53.55395241089314
  0
LINE
  5
5937
330
4F07
100
AcDbEntity
  8
1外形線
100
AcDbLine
 10
1161.402679339542
 20
183.4770616432938
 30
0.0
 11
1161.271655612214
 21
190.9834059545587
 31
0.0
  0
LINE
  5
5938
330
4F07
100
AcDbEntity
  8
1外形線
100
AcDbLine
 10
1135.452679339541
 20
183.4770616432938
 30
0.0
 11
1161.402679339542
 21
183.4770616432938
 31
0.0
  0
LINE
  5
5939
330
4F07
100
AcDbEntity
  8
1外形線
100
AcDbLine
 10
1148.952679339543
 20
187.9770616432902
 30
0.0
 11
1135.452679339541
 21
187.9770616432902
 31
0.0
  0
LINE
  5
593A
330
4F07
100
AcDbEntity
  8
1外形線
100
AcDbLine
 10
1150.452679339543
 20
185.9770616432902
 30
0.0
 11
1135.452679339541
 21
185.9770616432902
 31
0.0
  0
LINE
  5
593B
330
4F07
100
AcDbEntity
  8
1外形線
100
AcDbLine
 10
1120.452679339541
 20
185.9770616432902
 30
0.0
 11
1109.546317001863
 21
185.9770616432902
 31
0.0
  0
LINE
  5
593C
330
4F07
100
AcDbEntity
  8
1外形線
100
AcDbLine
 10
1150.452679339541
 20
185.9770616432902
 30
0.0
 11
1161.35904167722
 21
185.9770616432902
 31
0.0
  0
LINE
  5
593D
330
4F07
100
AcDbEntity
  8
1外形線
100
AcDbLine
 10
1159.40267933954
 20
145.9770616432938
 30
0.0
 11
1161.40267933954
 21
145.9770616432938
 31
0.0
  0
LINE
  5
593E
330
4F07
100
AcDbEntity
  8
1外形線
100
AcDbLine
 10
1111.502679339573
 20
145.9770616432938
 30
0.0
 11
1109.502679339573
 21
145.9770616432938
 31
0.0
  0
ENDSEC
  0
SECTION
  2
OBJECTS
  0
DICTIONARY
  5
4EA4
330
0
100
AcDbDictionary
281
     1
  3
ACAD_CIP_PREVIOUS_PRODUCT_INFO
350
4F18
  3
ACAD_COLOR
350
4EFA
  3
ACAD_DETAILVIEWSTYLE
350
4F01
  3
ACAD_GROUP
350
4EA5
  3
ACAD_LAYOUT
350
4EF9
  3
ACAD_MATERIAL
350
4EA8
  3
ACAD_MLEADERSTYLE
350
4EFD
  3
ACAD_MLINESTYLE
350
4EF6
  3
ACAD_PLOTSETTINGS
350
4EF8
  3
ACAD_PLOTSTYLENAME
350
4EA6
  3
ACAD_SCALELIST
350
4EDA
  3
ACAD_SECTIONVIEWSTYLE
350
4EFF
  3
ACAD_TABLESTYLE
350
4EFB
  3
ACAD_VISUALSTYLE
350
4EC1
  3
ACDB_RECOMPOSE_DATA
350
5947
  3
AcDbVariableDictionary
350
582B
  3
DWGPROPS
350
5948
  0
DICTIONARY
  5
4FED
330
4E9A
100
AcDbDictionary
280
     1
281
     1
  3
ACAD_LAYERSTATES
360
4FEE
  0
DICTIONARY
  5
5823
330
4EEC
100
AcDbDictionary
280
     1
281
     1
  3
ADSK_XREC_LAYER_RECONCILED
360
5824
  0
DICTIONARY
  5
5825
330
4F0C
100
AcDbDictionary
280
     1
281
     1
  3
ADSK_XREC_LAYER_RECONCILED
360
5826
  0
DICTIONARY
  5
4FE6
330
4FE5
100
AcDbDictionary
280
     1
281
     1
  3
ADSK_XREC_LAYER_RECONCILED
360
5827
  0
DICTIONARY
  5
4FE9
330
4FE8
100
AcDbDictionary
280
     1
281
     1
  3
ADSK_XREC_LAYER_RECONCILED
360
5828
  0
DICTIONARY
  5
5435
330
5434
100
AcDbDictionary
280
     1
281
     1
  3
ADSK_XREC_LAYER_RECONCILED
360
5829
  0
DICTIONARY
  5
5437
330
5436
100
AcDbDictionary
280
     1
281
     1
  3
ADSK_XREC_LAYER_RECONCILED
360
582A
  0
DICTIONARY
  5
4FBF
330
4FBE
100
AcDbDictionary
280
     1
281
     1
  3
ACAD_MTEXT_RT
360
5986
  0
DICTIONARY
  5
598B
330
52E0
100
AcDbDictionary
280
     1
281
     1
  3
ACAD_MTEXT_RT
360
598C
  0
XRECORD
  5
4F18
102
{ACAD_REACTORS
330
4EA4
102
}
330
4EA4
100
AcDbXrecord
280
     1
300
ACDLT
300
2020
300
ACDLT_F_S
  0
DICTIONARY
  5
4EFA
102
{ACAD_REACTORS
330
4EA4
102
}
330
4EA4
100
AcDbDictionary
281
     1
  0
DICTIONARY
  5
4F01
102
{ACAD_REACTORS
330
4EA4
102
}
330
4EA4
100
AcDbDictionary
281
     1
  3
Imperial24
350
4F02
  3
Metric50
350
4FF0
  0
DICTIONARY
  5
4EA5
102
{ACAD_REACTORS
330
4EA4
102
}
330
4EA4
100
AcDbDictionary
281
     1
  0
DICTIONARY
  5
4EF9
102
{ACAD_REACTORS
330
4EA4
102
}
330
4EA4
100
AcDbDictionary
281
     1
  3
Model
350
4F0A
  3
レイアウト1
350
4F06
  0
DICTIONARY
  5
4EA8
102
{ACAD_REACTORS
330
4EA4
102
}
330
4EA4
100
AcDbDictionary
281
     1
  3
ByBlock
350
4EB1
  3
ByLayer
350
4EA9
  3
Global
350
4EB9
  0
DICTIONARY
  5
4EFD
102
{ACAD_REACTORS
330
4EA4
102
}
330
4EA4
100
AcDbDictionary
281
     1
  3
Standard
350
4EFE
  0
DICTIONARY
  5
4EF6
102
{ACAD_REACTORS
330
4EA4
102
}
330
4EA4
100
AcDbDictionary
281
     1
  3
Standard
350
4EF7
  0
DICTIONARY
  5
4EF8
102
{ACAD_REACTORS
330
4EA4
102
}
330
4EA4
100
AcDbDictionary
281
     1
  0
ACDBDICTIONARYWDFLT
  5
4EA6
102
{ACAD_REACTORS
330
4EA4
102
}
330
4EA4
100
AcDbDictionary
281
     1
  3
Normal
350
4EA7
100
AcDbDictionaryWithDefault
340
4EA7
  0
DICTIONARY
  5
4EDA
102
{ACAD_REACTORS
330
4EA4
102
}
330
4EA4
100
AcDbDictionary
281
     1
  3
A0
350
4EDB
  3
A1
350
4EDC
  3
A2
350
4EDD
  3
A3
350
4EDE
  3
A4
350
4EDF
  3
A5
350
4EE0
  3
A6
350
4EE1
  3
A7
350
4EE2
  3
A8
350
4EE3
  3
A9
350
4EE4
  3
B0
350
4EE5
  3
B1
350
4EE6
  3
B2
350
4EE7
  3
B3
350
4EE8
  3
B4
350
4EE9
  3
B5
350
4EEA
  3
B6
350
4EEB
  0
DICTIONARY
  5
4EFF
102
{ACAD_REACTORS
330
4EA4
102
}
330
4EA4
100
AcDbDictionary
281
     1
  3
Imperial24
350
4F00
  3
Metric50
350
4FEF
  0
DICTIONARY
  5
4EFB
102
{ACAD_REACTORS
330
4EA4
102
}
330
4EA4
100
AcDbDictionary
281
     1
  3
Standard
350
4EFC
  0
DICTIONARY
  5
4EC1
102
{ACAD_REACTORS
330
4EA4
102
}
330
4EA4
100
AcDbDictionary
281
     1
  3
2dWireframe
350
4EC7
  3
Basic
350
4EC6
  3
Brighten
350
4ECD
  3
ColorChange
350
4ED1
  3
Conceptual
350
4ECA
  3
Dim
350
4ECC
  3
EdgeColorOff
350
4ED9
  3
Facepattern
350
4ED0
  3
Flat
350
4EC2
  3
FlatWithEdges
350
4EC3
  3
Gouraud
350
4EC4
  3
GouraudWithEdges
350
4EC5
  3
Hidden
350
4EC9
  3
JitterOff
350
4ED7
  3
Linepattern
350
4ECF
  3
OverhangOff
350
4ED8
  3
Realistic
350
4ECB
  3
Shaded
350
4ED6
  3
Shaded with edges
350
4ED5
  3
Shades of Gray
350
4ED2
  3
Sketchy
350
4ED3
  3
Thicken
350
4ECE
  3
Wireframe
350
4EC8
  3
X-Ray
350
4ED4
  0
XRECORD
  5
5947
102
{ACAD_REACTORS
330
4EA4
102
}
330
4EA4
100
AcDbXrecord
280
     1
 90
        1
330
4EFC
  0
DICTIONARY
  5
582B
102
{ACAD_REACTORS
330
4EA4
102
}
330
4EA4
100
AcDbDictionary
281
     1
  3
CANNOSCALE
350
5831
  3
CMLEADERSTYLE
350
582D
  3
CTABLESTYLE
350
582C
  3
CVIEWDETAILSTYLE
350
582E
  3
CVIEWSECTIONSTYLE
350
582F
  3
DIMASSOC
350
5941
  3
INDEXCTL
350
5940
  3
LAYEREVAL
350
5833
  3
LAYERNOTIFY
350
5834
  3
LIGHTINGUNITS
350
5832
  3
LOFTANG1
350
5942
  3
LOFTANG2
350
5943
  3
LONGITUDE
350
5944
  3
MSLTSCALE
350
5830
  3
SORTENTS
350
593F
  3
XCLIPFRAME
350
5945
  0
XRECORD
  5
5948
102
{ACAD_REACTORS
330
4EA4
102
}
330
4EA4
100
AcDbXrecord
280
     1
  1
DWGPROPS COOKIE
  2

  3

  4

  6

  7

  8
takaaki.hirami
  9

300
=
301
=
302
=
303
=
304
=
305
=
306
=
307
=
308
=
309
=
 40
0.0231009143518519
 41
2452048.587870371
 42
2459734.708611112
  1

 90
        0
  0
DICTIONARY
  5
4FEE
102
{ACAD_REACTORS
330
4FED
102
}
330
4FED
100
AcDbDictionary
281
     1
  0
XRECORD
  5
5824
102
{ACAD_REACTORS
330
5823
102
}
330
5823
100
AcDbXrecord
280
     1
290
     1
  0
XRECORD
  5
5826
102
{ACAD_REACTORS
330
5825
102
}
330
5825
100
AcDbXrecord
280
     1
290
     1
  0
XRECORD
  5
5827
102
{ACAD_REACTORS
330
4FE6
102
}
330
4FE6
100
AcDbXrecord
280
     1
290
     1
  0
XRECORD
  5
5828
102
{ACAD_REACTORS
330
4FE9
102
}
330
4FE9
100
AcDbXrecord
280
     1
290
     1
  0
XRECORD
  5
5829
102
{ACAD_REACTORS
330
5435
102
}
330
5435
100
AcDbXrecord
280
     1
290
     1
  0
XRECORD
  5
582A
102
{ACAD_REACTORS
330
5437
102
}
330
5437
100
AcDbXrecord
280
     1
290
     1
  0
XRECORD
  5
5986
102
{ACAD_REACTORS
330
4FBF
102
}
330
4FBF
100
AcDbXrecord
280
     1
 40
5061.0
  1
\A1;\U+220560
  0
XRECORD
  5
598C
102
{ACAD_REACTORS
330
598B
102
}
330
598B
100
AcDbXrecord
280
     1
 40
5061.0
  1
\A1;\U+220560
  0
ACDBDETAILVIEWSTYLE
  5
4F02
102
{ACAD_XDICTIONARY
360
5980
102
}
102
{ACAD_REACTORS
330
4F01
102
}
330
4F01
100
AcDbModelDocViewStyle
 70
     0
  3
Imperial24
290
     0
100
AcDbDetailViewStyle
 70
     0
 71
     0
 90
        3
 71
     1
340
4EED
 40
0.24
340
0
 40
0.24
300

 40
0.36
280
     3
 71
     2
340
4EF4
 90
       25
 71
     3
340
4EED
 40
0.24
 90
        1
 40
0.75
 90
        1
300
%<\AcVar ViewType \f "%tc1">% %<\AcVar ViewDetailId>%\PSCALE %<\AcVar ViewScale \f "%sn">%
 71
     4
340
4EF4
 90
       25
340
4EF4
 90
       25
280
     0
  0
ACDBDETAILVIEWSTYLE
  5
4FF0
102
{ACAD_XDICTIONARY
360
5989
102
}
102
{ACAD_REACTORS
330
4F01
102
}
330
4F01
100
AcDbModelDocViewStyle
 70
     0
  3
Metric50
290
     0
100
AcDbDetailViewStyle
 70
     0
 71
     0
 90
        3
 71
     1
340
4EED
 40
5.0
340
0
 40
5.0
300

 40
0.0
280
     1
 71
     2
340
4EF4
 90
       25
 71
     3
340
4EED
 40
5.0
 90
        0
 40
15.0
 90
        1
300
%<\AcVar ViewDetailId>% (%<\AcVar ViewScale \f "%sn">%)
 71
     4
340
4EF4
 90
       25
340
4EF4
 90
       25
280
     0
  0
LAYOUT
  5
4F0A
102
{ACAD_XDICTIONARY
360
5984
102
}
102
{ACAD_REACTORS
330
4EF9
102
}
330
4EF9
100
AcDbPlotSettings
  1

  2
SHARP MX-5151 (1502249400)
  4

  6

 40
0.0
 41
0.0
 42
0.0
 43
0.0
 44
0.0
 45
0.0
 46
0.0
 47
0.0
 48
0.0
 49
0.0
140
0.0
141
0.0
142
1.0
143
1.0
 70
  1712
 72
     0
 73
     0
 74
     0
  7

 75
     0
147
1.0
148
0.0
149
0.0
100
AcDbLayout
  1
Model
 70
     1
 71
     0
 10
0.0
 20
0.0
 11
12.0
 21
9.0
 12
0.0
 22
0.0
 32
0.0
 14
0.0
 24
0.0
 34
0.0
 15
0.0
 25
0.0
 35
0.0
146
0.0
 13
0.0
 23
0.0
 33
0.0
 16
1.0
 26
0.0
 36
0.0
 17
0.0
 27
1.0
 37
0.0
 76
     0
330
4F07
331
4F0B
  0
LAYOUT
  5
4F06
102
{ACAD_XDICTIONARY
360
5982
102
}
102
{ACAD_REACTORS
330
4EF9
102
}
330
4EF9
100
AcDbPlotSettings
  1

  2
SHARP MX-5151 (1502249400)
  4

  6

 40
0.0
 41
0.0
 42
0.0
 43
0.0
 44
0.0
 45
0.0
 46
0.0
 47
0.0
 48
0.0
 49
0.0
140
0.0
141
0.0
142
1.0
143
1.0
 70
   688
 72
     0
 73
     0
 74
     5
  7

 75
    16
147
1.0
148
0.0
149
0.0
100
AcDbLayout
  1
レイアウト1
 70
     1
 71
     1
 10
0.0
 20
0.0
 11
420.0
 21
297.0
 12
0.0
 22
0.0
 32
0.0
 14
1.000000000000000E+20
 24
1.000000000000000E+20
 34
1.000000000000000E+20
 15
-1.000000000000000E+20
 25
-1.000000000000000E+20
 35
-1.000000000000000E+20
146
0.0
 13
0.0
 23
0.0
 33
0.0
 16
1.0
 26
0.0
 36
0.0
 17
0.0
 27
1.0
 37
0.0
 76
     0
330
4F03
  0
MATERIAL
  5
4EB1
102
{ACAD_XDICTIONARY
360
4EB2
102
}
102
{ACAD_REACTORS
330
4EA8
102
}
330
4EA8
100
AcDbMaterial
  1
ByBlock
 72
     0
 43
0.0208333333333333
 43
0.0
 43
0.0
 43
0.0
 43
0.0
 43
0.0208333333333333
 43
0.0
 43
0.0
 43
0.0
 43
0.0
 43
1.0
 43
0.0
 43
0.0
 43
0.0
 43
0.0
 43
1.0
 77
     0
 47
0.0208333333333333
 47
0.0
 47
0.0
 47
0.0
 47
0.0
 47
0.0208333333333333
 47
0.0
 47
0.0
 47
0.0
 47
0.0
 47
1.0
 47
0.0
 47
0.0
 47
0.0
 47
0.0
 47
1.0
171
     0
 49
0.0208333333333333
 49
0.0
 49
0.0
 49
0.0
 49
0.0
 49
0.0208333333333333
 49
0.0
 49
0.0
 49
0.0
 49
0.0
 49
1.0
 49
0.0
 49
0.0
 49
0.0
 49
0.0
 49
1.0
175
     0
142
0.0208333333333333
142
0.0
142
0.0
142
0.0
142
0.0
142
0.0208333333333333
142
0.0
142
0.0
142
0.0
142
0.0
142
1.0
142
0.0
142
0.0
142
0.0
142
0.0
142
1.0
179
     0
144
0.0208333333333333
144
0.0
144
0.0
144
0.0
144
0.0
144
0.0208333333333333
144
0.0
144
0.0
144
0.0
144
0.0
144
1.0
144
0.0
144
0.0
144
0.0
144
0.0
144
1.0
147
0.0208333333333333
147
0.0
147
0.0
147
0.0
147
0.0
147
0.0208333333333333
147
0.0
147
0.0
147
0.0
147
0.0
147
1.0
147
0.0
147
0.0
147
0.0
147
0.0
147
1.0
  0
MATERIAL
  5
4EA9
102
{ACAD_XDICTIONARY
360
4EAA
102
}
102
{ACAD_REACTORS
330
4EA8
102
}
330
4EA8
100
AcDbMaterial
  1
ByLayer
 72
     0
 43
0.0208333333333333
 43
0.0
 43
0.0
 43
0.0
 43
0.0
 43
0.0208333333333333
 43
0.0
 43
0.0
 43
0.0
 43
0.0
 43
1.0
 43
0.0
 43
0.0
 43
0.0
 43
0.0
 43
1.0
 77
     0
 47
0.0208333333333333
 47
0.0
 47
0.0
 47
0.0
 47
0.0
 47
0.0208333333333333
 47
0.0
 47
0.0
 47
0.0
 47
0.0
 47
1.0
 47
0.0
 47
0.0
 47
0.0
 47
0.0
 47
1.0
171
     0
 49
0.0208333333333333
 49
0.0
 49
0.0
 49
0.0
 49
0.0
 49
0.0208333333333333
 49
0.0
 49
0.0
 49
0.0
 49
0.0
 49
1.0
 49
0.0
 49
0.0
 49
0.0
 49
0.0
 49
1.0
175
     0
142
0.0208333333333333
142
0.0
142
0.0
142
0.0
142
0.0
142
0.0208333333333333
142
0.0
142
0.0
142
0.0
142
0.0
142
1.0
142
0.0
142
0.0
142
0.0
142
0.0
142
1.0
179
     0
144
0.0208333333333333
144
0.0
144
0.0
144
0.0
144
0.0
144
0.0208333333333333
144
0.0
144
0.0
144
0.0
144
0.0
144
1.0
144
0.0
144
0.0
144
0.0
144
0.0
144
1.0
147
0.0208333333333333
147
0.0
147
0.0
147
0.0
147
0.0
147
0.0208333333333333
147
0.0
147
0.0
147
0.0
147
0.0
147
1.0
147
0.0
147
0.0
147
0.0
147
0.0
147
1.0
  0
MATERIAL
  5
4EB9
102
{ACAD_XDICTIONARY
360
4EBA
102
}
102
{ACAD_REACTORS
330
4EA8
102
}
330
4EA8
100
AcDbMaterial
  1
Global
 72
     0
 43
0.0208333333333333
 43
0.0
 43
0.0
 43
0.0
 43
0.0
 43
0.0208333333333333
 43
0.0
 43
0.0
 43
0.0
 43
0.0
 43
1.0
 43
0.0
 43
0.0
 43
0.0
 43
0.0
 43
1.0
 77
     0
 47
0.0208333333333333
 47
0.0
 47
0.0
 47
0.0
 47
0.0
 47
0.0208333333333333
 47
0.0
 47
0.0
 47
0.0
 47
0.0
 47
1.0
 47
0.0
 47
0.0
 47
0.0
 47
0.0
 47
1.0
171
     0
 49
0.0208333333333333
 49
0.0
 49
0.0
 49
0.0
 49
0.0
 49
0.0208333333333333
 49
0.0
 49
0.0
 49
0.0
 49
0.0
 49
1.0
 49
0.0
 49
0.0
 49
0.0
 49
0.0
 49
1.0
175
     0
142
0.0208333333333333
142
0.0
142
0.0
142
0.0
142
0.0
142
0.0208333333333333
142
0.0
142
0.0
142
0.0
142
0.0
142
1.0
142
0.0
142
0.0
142
0.0
142
0.0
142
1.0
179
     0
144
0.0208333333333333
144
0.0
144
0.0
144
0.0
144
0.0
144
0.0208333333333333
144
0.0
144
0.0
144
0.0
144
0.0
144
1.0
144
0.0
144
0.0
144
0.0
144
0.0
144
1.0
147
0.0208333333333333
147
0.0
147
0.0
147
0.0
147
0.0
147
0.0208333333333333
147
0.0
147
0.0
147
0.0
147
0.0
147
1.0
147
0.0
147
0.0
147
0.0
147
0.0
147
1.0
  0
MLEADERSTYLE
  5
4EFE
102
{ACAD_REACTORS
330
4EFD
102
}
330
4EFD
100
AcDbMLeaderStyle
170
     2
171
     1
172
     0
 90
        2
 40
0.0
 41
0.0
173
     1
 91
-1056964608
340
4EF2
 92
       -2
290
     1
 42
0.09
291
     1
 43
0.36
  3
Standard
 44
0.18
300

342
4EED
174
     1
178
     6
175
     1
176
     0
 93
-1056964608
 45
0.18
292
     0
297
     0
 46
0.18
 94
-1056964608
 47
1.0
 49
1.0
140
1.0
293
     1
141
0.0
294
     1
177
     0
142
1.0
295
     0
296
     0
143
0.125
1001
ACAD_MLEADERVER
1070
     2
  0
MLINESTYLE
  5
4EF7
102
{ACAD_REACTORS
330
4EF6
102
}
330
4EF6
100
AcDbMlineStyle
  2
STANDARD
 70
     0
  3

 62
   256
 51
90.0
 52
90.0
 71
     2
 49
0.5
 62
   256
  6
BYLAYER
 49
-0.5
 62
   256
  6
BYLAYER
  0
ACDBPLACEHOLDER
  5
4EA7
102
{ACAD_REACTORS
330
4EA6
102
}
330
4EA6
  0
SCALE
  5
4EDB
102
{ACAD_REACTORS
330
4EDA
102
}
330
4EDA
100
AcDbScale
 70
     0
300
1:1
140
1.0
141
1.0
290
     1
  0
SCALE
  5
4EDC
102
{ACAD_REACTORS
330
4EDA
102
}
330
4EDA
100
AcDbScale
 70
     0
300
1/128" = 1'-0"
140
0.0078125
141
12.0
290
     0
  0
SCALE
  5
4EDD
102
{ACAD_REACTORS
330
4EDA
102
}
330
4EDA
100
AcDbScale
 70
     0
300
1/64" = 1'-0"
140
0.015625
141
12.0
290
     0
  0
SCALE
  5
4EDE
102
{ACAD_REACTORS
330
4EDA
102
}
330
4EDA
100
AcDbScale
 70
     0
300
1/32" = 1'-0"
140
0.03125
141
12.0
290
     0
  0
SCALE
  5
4EDF
102
{ACAD_REACTORS
330
4EDA
102
}
330
4EDA
100
AcDbScale
 70
     0
300
1/16" = 1'-0"
140
0.0625
141
12.0
290
     0
  0
SCALE
  5
4EE0
102
{ACAD_REACTORS
330
4EDA
102
}
330
4EDA
100
AcDbScale
 70
     0
300
3/32" = 1'-0"
140
0.09375
141
12.0
290
     0
  0
SCALE
  5
4EE1
102
{ACAD_REACTORS
330
4EDA
102
}
330
4EDA
100
AcDbScale
 70
     0
300
1/8" = 1'-0"
140
0.125
141
12.0
290
     0
  0
SCALE
  5
4EE2
102
{ACAD_REACTORS
330
4EDA
102
}
330
4EDA
100
AcDbScale
 70
     0
300
3/16" = 1'-0"
140
0.1875
141
12.0
290
     0
  0
SCALE
  5
4EE3
102
{ACAD_REACTORS
330
4EDA
102
}
330
4EDA
100
AcDbScale
 70
     0
300
1/4" = 1'-0"
140
0.25
141
12.0
290
     0
  0
SCALE
  5
4EE4
102
{ACAD_REACTORS
330
4EDA
102
}
330
4EDA
100
AcDbScale
 70
     0
300
3/8" = 1'-0"
140
0.375
141
12.0
290
     0
  0
SCALE
  5
4EE5
102
{ACAD_REACTORS
330
4EDA
102
}
330
4EDA
100
AcDbScale
 70
     0
300
1/2" = 1'-0"
140
0.5
141
12.0
290
     0
  0
SCALE
  5
4EE6
102
{ACAD_REACTORS
330
4EDA
102
}
330
4EDA
100
AcDbScale
 70
     0
300
3/4" = 1'-0"
140
0.75
141
12.0
290
     0
  0
SCALE
  5
4EE7
102
{ACAD_REACTORS
330
4EDA
102
}
330
4EDA
100
AcDbScale
 70
     0
300
1" = 1'-0"
140
1.0
141
12.0
290
     0
  0
SCALE
  5
4EE8
102
{ACAD_REACTORS
330
4EDA
102
}
330
4EDA
100
AcDbScale
 70
     0
300
1-1/2" = 1'-0"
140
1.5
141
12.0
290
     0
  0
SCALE
  5
4EE9
102
{ACAD_REACTORS
330
4EDA
102
}
330
4EDA
100
AcDbScale
 70
     0
300
3" = 1'-0"
140
3.0
141
12.0
290
     0
  0
SCALE
  5
4EEA
102
{ACAD_REACTORS
330
4EDA
102
}
330
4EDA
100
AcDbScale
 70
     0
300
6" = 1'-0"
140
6.0
141
12.0
290
     0
  0
SCALE
  5
4EEB
102
{ACAD_REACTORS
330
4EDA
102
}
330
4EDA
100
AcDbScale
 70
     0
300
1'-0" = 1'-0"
140
12.0
141
12.0
290
     0
  0
ACDBSECTIONVIEWSTYLE
  5
4F00
102
{ACAD_XDICTIONARY
360
597E
102
}
102
{ACAD_REACTORS
330
4EFF
102
}
330
4EFF
100
AcDbModelDocViewStyle
 70
     0
  3
Imperial24
290
     0
100
AcDbSectionViewStyle
 70
     0
 71
     0
 90
       78
 71
     1
340
4EED
 40
0.24
340
0
340
0
 40
0.24
300
I, O, Q, S, X, Z
 40
0.48
 90
        3
 40
0.18
 90
        1
 71
     2
340
4EF4
 90
       25
340
4EF4
 90
       50
 40
0.24
 40
0.0
 40
0.24
 71
     3
340
4EED
 40
0.24
 90
        1
 40
0.75
 90
        1
300
%<\AcVar ViewType \f "%tc1">% %<\AcVar ViewSectionStartId>%-%<\AcVar ViewSectionEndId>%\PSCALE %<\AcVar ViewScale \f "%sn">%
 71
     4
300
ANSI31
 40
1.0
 90
        0
290
     0
290
     0
 90
        6
 40
0.0
 40
1.570796326794896
 40
0.2617993877991494
 40
1.308996938995747
 40
-0.2617993877991494
 40
1.832595714594045
  0
ACDBSECTIONVIEWSTYLE
  5
4FEF
102
{ACAD_XDICTIONARY
360
5987
102
}
102
{ACAD_REACTORS
330
4EFF
102
}
330
4EFF
100
AcDbModelDocViewStyle
 70
     0
  3
Metric50
290
     0
100
AcDbSectionViewStyle
 70
     0
 71
     0
 90
      102
 71
     1
340
4EED
 40
5.0
340
0
340
0
 40
5.0
300
I, O, Q, S, X, Z
 40
10.0
 90
        0
 40
2.5
 90
        0
 71
     2
340
4EF4
 90
       25
340
4EF4
 90
       50
 40
5.0
 40
2.5
 40
5.0
 71
     3
340
4EED
 40
5.0
 90
        0
 40
15.0
 90
        1
300
%<\AcVar ViewSectionStartId>%-%<\AcVar ViewSectionEndId>% (%<\AcVar ViewScale \f "%sn">%)
 71
     4
300
ANSI31
 40
1.0
 90
        0
290
     0
290
     0
 90
        6
 40
0.0
 40
1.570796326794896
 40
0.2617993877991494
 40
1.308996938995747
 40
-0.2617993877991494
 40
1.832595714594045
  0
TABLESTYLE
  5
4EFC
102
{ACAD_XDICTIONARY
360
5835
102
}
102
{ACAD_REACTORS
330
4EFB
102
}
330
4EFB
100
AcDbTableStyle
  3
Standard
 70
     0
 71
     0
 40
0.06
 41
0.06
280
     0
281
     0
  7
STANDARD
140
0.18
170
     2
 62
     0
 63
     7
283
     0
274
    -2
284
     1
 64
     0
275
    -2
285
     1
 65
     0
276
    -2
286
     1
 66
     0
277
    -2
287
     1
 67
     0
278
    -2
288
     1
 68
     0
279
    -2
289
     1
 69
     0
  7
STANDARD
140
0.25
170
     5
 62
     0
 63
     7
283
     0
274
    -2
284
     1
 64
     0
275
    -2
285
     1
 65
     0
276
    -2
286
     1
 66
     0
277
    -2
287
     1
 67
     0
278
    -2
288
     1
 68
     0
279
    -2
289
     1
 69
     0
  7
STANDARD
140
0.18
170
     5
 62
     0
 63
     7
283
     0
274
    -2
284
     1
 64
     0
275
    -2
285
     1
 65
     0
276
    -2
286
     1
 66
     0
277
    -2
287
     1
 67
     0
278
    -2
288
     1
 68
     0
279
    -2
289
     1
 69
     0
  0
VISUALSTYLE
  5
4EC7
102
{ACAD_XDICTIONARY
360
5956
102
}
102
{ACAD_REACTORS
330
4EC1
102
}
330
4EC1
100
AcDbVisualStyle
  2
2dWireframe
 70
     4
 71
     0
 72
     2
 73
     0
 90
        0
 40
-0.6
 41
-30.0
 62
     5
 63
     7
 74
     1
 91
        4
 64
     7
 65
   257
 75
     1
175
     1
 42
1.0
 92
        0
 66
   257
 43
1.0
 76
     1
 77
     6
 78
     2
 67
     7
 79
     5
170
     0
171
     0
290
     0
174
     0
 93
        1
 44
0.0
173
     0
291
     0
 45
0.0
1001
ACAD
1000
AcDbSavedByObjectVersion
1070
     0
  0
VISUALSTYLE
  5
4EC6
102
{ACAD_XDICTIONARY
360
5954
102
}
102
{ACAD_REACTORS
330
4EC1
102
}
330
4EC1
100
AcDbVisualStyle
  2
Basic
 70
     7
 71
     1
 72
     0
 73
     1
 90
        0
 40
-0.6
 41
-30.0
 62
     5
 63
     7
 74
     0
 91
        4
 64
     7
 65
   257
 75
     1
175
     1
 42
1.0
 92
        8
 66
     7
 43
1.0
 76
     1
 77
     6
 78
     2
 67
     7
 79
     5
170
     0
171
     0
290
     0
174
     0
 93
        1
 44
0.0
173
     0
291
     1
 45
0.0
1001
ACAD
1000
AcDbSavedByObjectVersion
1070
     0
  0
VISUALSTYLE
  5
4ECD
102
{ACAD_XDICTIONARY
360
5962
102
}
102
{ACAD_REACTORS
330
4EC1
102
}
330
4EC1
100
AcDbVisualStyle
  2
Brighten
 70
    12
 71
     2
 72
     2
 73
     0
 90
        0
 40
-0.6
 41
-30.0
 62
     5
 63
     7
 74
     1
 91
        4
 64
     7
 65
   257
 75
     1
175
     1
 42
1.0
 92
        8
 66
     7
 43
1.0
 76
     1
 77
     6
 78
     2
 67
     7
 79
     5
170
     0
171
     0
290
     0
174
     0
 93
        1
 44
50.0
173
     0
291
     1
 45
0.0
1001
ACAD
1000
AcDbSavedByObjectVersion
1070
     0
  0
VISUALSTYLE
  5
4ED1
102
{ACAD_XDICTIONARY
360
596A
102
}
102
{ACAD_REACTORS
330
4EC1
102
}
330
4EC1
100
AcDbVisualStyle
  2
ColorChange
 70
    16
 71
     2
 72
     2
 73
     3
 90
        0
 40
-0.6
 41
-30.0
 62
     5
 63
     8
 74
     1
 91
        4
 64
     7
 65
   257
 75
     1
175
     1
 42
1.0
 92
        8
 66
     8
 43
1.0
 76
     1
 77
     6
 78
     2
 67
     7
 79
     5
170
     0
171
     0
290
     0
174
     0
 93
        1
 44
0.0
173
     0
291
     1
 45
0.0
1001
ACAD
1000
AcDbSavedByObjectVersion
1070
     0
  0
VISUALSTYLE
  5
4ECA
102
{ACAD_XDICTIONARY
360
595C
102
}
102
{ACAD_REACTORS
330
4EC1
102
}
330
4EC1
100
AcDbVisualStyle
  2
Conceptual
 70
     9
 71
     3
 72
     2
 73
     0
 90
        0
 40
-0.6
 41
-30.0
 62
     5
 63
     7
 74
     2
 91
        2
 64
     7
 65
   257
 75
     1
175
     1
 42
179.0
 92
        8
 66
     7
 43
1.0
 76
     1
 77
     6
 78
     2
 67
     7
 79
     3
170
     0
171
     0
290
     0
174
     0
 93
        1
 44
0.0
173
     0
291
     0
 45
0.0
1001
ACAD
1000
AcDbSavedByObjectVersion
1070
     0
  0
VISUALSTYLE
  5
4ECC
102
{ACAD_XDICTIONARY
360
5960
102
}
102
{ACAD_REACTORS
330
4EC1
102
}
330
4EC1
100
AcDbVisualStyle
  2
Dim
 70
    11
 71
     2
 72
     2
 73
     0
 90
        0
 40
-0.6
 41
-30.0
 62
     5
 63
     7
 74
     1
 91
        4
 64
     7
 65
   257
 75
     1
175
     1
 42
1.0
 92
        8
 66
     7
 43
1.0
 76
     1
 77
     6
 78
     2
 67
     7
 79
     5
170
     0
171
     0
290
     0
174
     0
 93
        1
 44
-50.0
173
     0
291
     1
 45
0.0
1001
ACAD
1000
AcDbSavedByObjectVersion
1070
     0
  0
VISUALSTYLE
  5
4ED9
102
{ACAD_XDICTIONARY
360
597A
102
}
102
{ACAD_REACTORS
330
4EC1
102
}
330
4EC1
100
AcDbVisualStyle
  2
EdgeColorOff
 70
    22
 71
     2
 72
     2
 73
     0
 90
        0
 40
-0.6
 41
-30.0
 62
     5
 63
     7
 74
     1
 91
        4
 64
     7
 65
   257
 75
     1
175
     1
 42
1.0
 92
        8
 66
     7
 43
1.0
 76
     1
 77
     6
 78
     2
 67
     7
 79
     5
170
     0
171
     0
290
     0
174
     0
 93
        1
 44
0.0
173
     0
291
     1
 45
0.0
1001
ACAD
1000
AcDbSavedByObjectVersion
1070
     0
  0
VISUALSTYLE
  5
4ED0
102
{ACAD_XDICTIONARY
360
5968
102
}
102
{ACAD_REACTORS
330
4EC1
102
}
330
4EC1
100
AcDbVisualStyle
  2
Facepattern
 70
    15
 71
     2
 72
     2
 73
     0
 90
        0
 40
-0.6
 41
-30.0
 62
     5
 63
     7
 74
     1
 91
        4
 64
     7
 65
   257
 75
     1
175
     1
 42
1.0
 92
        8
 66
     7
 43
1.0
 76
     1
 77
     6
 78
     2
 67
     7
 79
     5
170
     0
171
     0
290
     0
174
     0
 93
        1
 44
0.0
173
     0
291
     1
 45
0.0
1001
ACAD
1000
AcDbSavedByObjectVersion
1070
     0
  0
VISUALSTYLE
  5
4EC2
102
{ACAD_XDICTIONARY
360
594C
102
}
102
{ACAD_REACTORS
330
4EC1
102
}
330
4EC1
100
AcDbVisualStyle
  2
Flat
 70
     0
 71
     2
 72
     1
 73
     1
 90
        2
 40
-0.6
 41
30.0
 62
     5
 63
     7
 74
     0
 91
        0
 64
     7
 65
   257
 75
     1
175
     1
 42
1.0
 92
        8
 66
     7
 43
1.0
 76
     1
 77
     6
 78
     2
 67
     7
 79
     5
170
     0
171
     0
290
     0
174
     0
 93
       13
 44
0.0
173
     0
291
     1
 45
0.0
1001
ACAD
1000
AcDbSavedByObjectVersion
1070
     0
  0
VISUALSTYLE
  5
4EC3
102
{ACAD_XDICTIONARY
360
594E
102
}
102
{ACAD_REACTORS
330
4EC1
102
}
330
4EC1
100
AcDbVisualStyle
  2
FlatWithEdges
 70
     1
 71
     2
 72
     1
 73
     1
 90
        2
 40
-0.6
 41
30.0
 62
     5
 63
     7
 74
     1
 91
        0
 64
     7
 65
   257
 75
     1
175
     1
 42
1.0
 92
        0
 66
   257
 43
1.0
 76
     1
 77
     6
 78
     2
 67
     7
 79
     5
170
     0
171
     0
290
     0
174
     0
 93
       13
 44
0.0
173
     0
291
     1
 45
0.0
1001
ACAD
1000
AcDbSavedByObjectVersion
1070
     0
  0
VISUALSTYLE
  5
4EC4
102
{ACAD_XDICTIONARY
360
5950
102
}
102
{ACAD_REACTORS
330
4EC1
102
}
330
4EC1
100
AcDbVisualStyle
  2
Gouraud
 70
     2
 71
     2
 72
     2
 73
     1
 90
        2
 40
-0.6
 41
30.0
 62
     5
 63
     7
 74
     0
 91
        0
 64
     7
 65
   257
 75
     1
175
     1
 42
1.0
 92
        0
 66
     7
 43
1.0
 76
     1
 77
     6
 78
     2
 67
     7
 79
     5
170
     0
171
     0
290
     0
174
     0
 93
       13
 44
0.0
173
     0
291
     1
 45
0.0
1001
ACAD
1000
AcDbSavedByObjectVersion
1070
     0
  0
VISUALSTYLE
  5
4EC5
102
{ACAD_XDICTIONARY
360
5952
102
}
102
{ACAD_REACTORS
330
4EC1
102
}
330
4EC1
100
AcDbVisualStyle
  2
GouraudWithEdges
 70
     3
 71
     2
 72
     2
 73
     1
 90
        2
 40
-0.6
 41
30.0
 62
     5
 63
     7
 74
     1
 91
        0
 64
     7
 65
   257
 75
     1
175
     1
 42
1.0
 92
        0
 66
   257
 43
1.0
 76
     1
 77
     6
 78
     2
 67
     7
 79
     5
170
     0
171
     0
290
     0
174
     0
 93
       13
 44
0.0
173
     0
291
     1
 45
0.0
1001
ACAD
1000
AcDbSavedByObjectVersion
1070
     0
  0
VISUALSTYLE
  5
4EC9
102
{ACAD_XDICTIONARY
360
595A
102
}
102
{ACAD_REACTORS
330
4EC1
102
}
330
4EC1
100
AcDbVisualStyle
  2
Hidden
 70
     6
 71
     1
 72
     2
 73
     2
 90
        0
 40
-0.6
 41
-30.0
 62
     5
 63
     7
 74
     2
 91
        2
 64
     7
 65
   257
 75
     2
175
     1
 42
40.0
 92
        0
 66
   257
 43
1.0
 76
     1
 77
     6
 78
     2
 67
     7
 79
     3
170
     0
171
     0
290
     0
174
     0
 93
        1
 44
0.0
173
     0
291
     0
 45
0.0
1001
ACAD
1000
AcDbSavedByObjectVersion
1070
     0
  0
VISUALSTYLE
  5
4ED7
102
{ACAD_XDICTIONARY
360
5976
102
}
102
{ACAD_REACTORS
330
4EC1
102
}
330
4EC1
100
AcDbVisualStyle
  2
JitterOff
 70
    20
 71
     2
 72
     2
 73
     0
 90
        0
 40
-0.6
 41
-30.0
 62
     5
 63
     7
 74
     1
 91
        4
 64
     7
 65
   257
 75
     1
175
     1
 42
1.0
 92
       10
 66
     7
 43
1.0
 76
     1
 77
     6
 78
     2
 67
     7
 79
     5
170
     0
171
     0
290
     0
174
     0
 93
        1
 44
0.0
173
     0
291
     1
 45
0.0
1001
ACAD
1000
AcDbSavedByObjectVersion
1070
     0
  0
VISUALSTYLE
  5
4ECF
102
{ACAD_XDICTIONARY
360
5966
102
}
102
{ACAD_REACTORS
330
4EC1
102
}
330
4EC1
100
AcDbVisualStyle
  2
Linepattern
 70
    14
 71
     2
 72
     2
 73
     0
 90
        0
 40
-0.6
 41
-30.0
 62
     5
 63
     7
 74
     1
 91
        4
 64
     7
 65
   257
 75
     7
175
     7
 42
1.0
 92
        8
 66
     7
 43
1.0
 76
     1
 77
     6
 78
     2
 67
     7
 79
     5
170
     0
171
     0
290
     0
174
     0
 93
        1
 44
0.0
173
     0
291
     1
 45
0.0
1001
ACAD
1000
AcDbSavedByObjectVersion
1070
     0
  0
VISUALSTYLE
  5
4ED8
102
{ACAD_XDICTIONARY
360
5978
102
}
102
{ACAD_REACTORS
330
4EC1
102
}
330
4EC1
100
AcDbVisualStyle
  2
OverhangOff
 70
    21
 71
     2
 72
     2
 73
     0
 90
        0
 40
-0.6
 41
-30.0
 62
     5
 63
     7
 74
     1
 91
        4
 64
     7
 65
   257
 75
     1
175
     1
 42
1.0
 92
        9
 66
     7
 43
1.0
 76
     1
 77
     6
 78
     2
 67
     7
 79
     5
170
     0
171
     0
290
     0
174
     0
 93
        1
 44
0.0
173
     0
291
     1
 45
0.0
1001
ACAD
1000
AcDbSavedByObjectVersion
1070
     0
  0
VISUALSTYLE
  5
4ECB
102
{ACAD_XDICTIONARY
360
595E
102
}
102
{ACAD_REACTORS
330
4EC1
102
}
330
4EC1
100
AcDbVisualStyle
  2
Realistic
 70
     8
 71
     2
 72
     3
 73
     0
 90
        2
 40
-0.6
 41
30.0
 62
     5
 63
     7
 74
     0
 91
        0
 64
     7
 65
   257
 75
     1
175
     1
 42
1.0
 92
        8
 66
   257
 43
1.0
 76
     1
 77
     6
 78
     2
 67
     7
 79
     3
170
     0
171
     0
290
     0
174
     0
 93
       13
 44
0.0
173
     0
291
     0
 45
0.0
1001
ACAD
1000
AcDbSavedByObjectVersion
1070
     0
  0
VISUALSTYLE
  5
4ED6
102
{ACAD_XDICTIONARY
360
5974
102
}
102
{ACAD_REACTORS
330
4EC1
102
}
330
4EC1
100
AcDbVisualStyle
  2
Shaded
 70
    27
 71
     2
 72
     2
 73
     1
 90
        2
 40
-0.6
 41
30.0
 62
     5
 63
     7
 74
     0
 91
        4
 64
     7
 65
   257
 75
     1
175
     1
 42
1.0
 92
        8
 66
   257
 43
1.0
 76
     1
 77
     6
 78
     2
 67
     8
 79
     3
170
     0
171
     0
290
     0
174
     0
 93
        5
 44
0.0
173
     0
291
     0
 45
0.0
1001
ACAD
1000
AcDbSavedByObjectVersion
1070
     0
  0
VISUALSTYLE
  5
4ED5
102
{ACAD_XDICTIONARY
360
5972
102
}
102
{ACAD_REACTORS
330
4EC1
102
}
330
4EC1
100
AcDbVisualStyle
  2
Shaded with edges
 70
    26
 71
     2
 72
     2
 73
     1
 90
        2
 40
-0.6
 41
30.0
 62
     5
 63
     7
 74
     1
 91
        2
 64
     7
 65
   257
 75
     2
175
     1
 42
1.0
 92
        8
 66
   257
 43
1.0
 76
     1
 77
     6
 78
     2
 67
     7
 79
     3
170
     0
171
     0
290
     0
174
     0
 93
        5
 44
0.0
173
     0
291
     0
 45
0.0
1001
ACAD
1000
AcDbSavedByObjectVersion
1070
     0
  0
VISUALSTYLE
  5
4ED2
102
{ACAD_XDICTIONARY
360
596C
102
}
102
{ACAD_REACTORS
330
4EC1
102
}
330
4EC1
100
AcDbVisualStyle
  2
Shades of Gray
 70
    23
 71
     2
 72
     2
 73
     3
 90
        0
 40
-0.6
 41
-30.0
 62
     5
 63
     7
 74
     2
 91
        2
 64
     7
 65
     7
 75
     1
175
     1
 42
40.0
 92
        8
 66
     7
 43
1.0
 76
     1
 77
     6
 78
     2
 67
     7
 79
     3
170
     0
171
     0
290
     0
174
     0
 93
        1
 44
0.0
173
     0
291
     0
 45
0.0
1001
ACAD
1000
AcDbSavedByObjectVersion
1070
     0
  0
VISUALSTYLE
  5
4ED3
102
{ACAD_XDICTIONARY
360
596E
102
}
102
{ACAD_REACTORS
330
4EC1
102
}
330
4EC1
100
AcDbVisualStyle
  2
Sketchy
 70
    24
 71
     1
 72
     2
 73
     2
 90
        0
 40
-0.6
 41
-30.0
 62
     5
 63
     7
 74
     2
 91
        2
 64
     7
 65
     7
 75
     1
175
     1
 42
40.0
 92
       11
 66
     7
 43
1.0
 76
     1
 77
     6
 78
     2
 67
     7
 79
     6
170
     0
171
     0
290
     0
174
     0
 93
        1
 44
0.0
173
     0
291
     0
 45
0.0
1001
ACAD
1000
AcDbSavedByObjectVersion
1070
     0
  0
VISUALSTYLE
  5
4ECE
102
{ACAD_XDICTIONARY
360
5964
102
}
102
{ACAD_REACTORS
330
4EC1
102
}
330
4EC1
100
AcDbVisualStyle
  2
Thicken
 70
    13
 71
     2
 72
     2
 73
     0
 90
        0
 40
-0.6
 41
-30.0
 62
     5
 63
     7
 74
     1
 91
        4
 64
     7
 65
   257
 75
     1
175
     1
 42
1.0
 92
       12
 66
     7
 43
1.0
 76
     1
 77
     6
 78
     2
 67
     7
 79
     5
170
     0
171
     0
290
     0
174
     0
 93
        1
 44
0.0
173
     0
291
     1
 45
0.0
1001
ACAD
1000
AcDbSavedByObjectVersion
1070
     0
  0
VISUALSTYLE
  5
4EC8
102
{ACAD_XDICTIONARY
360
5958
102
}
102
{ACAD_REACTORS
330
4EC1
102
}
330
4EC1
100
AcDbVisualStyle
  2
Wireframe
 70
     5
 71
     0
 72
     2
 73
     0
 90
        0
 40
-0.6
 41
-30.0
 62
     5
 63
     7
 74
     1
 91
        4
 64
     7
 65
   257
 75
     1
175
     1
 42
1.0
 92
        0
 66
   257
 43
1.0
 76
     1
 77
     6
 78
     2
 67
     7
 79
     3
170
     0
171
     0
290
     0
174
     0
 93
        1
 44
0.0
173
     0
291
     0
 45
0.0
1001
ACAD
1000
AcDbSavedByObjectVersion
1070
     0
  0
VISUALSTYLE
  5
4ED4
102
{ACAD_XDICTIONARY
360
5970
102
}
102
{ACAD_REACTORS
330
4EC1
102
}
330
4EC1
100
AcDbVisualStyle
  2
X-Ray
 70
    25
 71
     2
 72
     2
 73
     1
 90
        1
 40
0.5
 41
-30.0
 62
     5
 63
     7
 74
     1
 91
        0
 64
     7
 65
   257
 75
     1
175
     1
 42
1.0
 92
        8
 66
     7
 43
1.0
 76
     1
 77
     6
 78
     2
 67
     7
 79
     3
170
     0
171
     0
290
     0
174
     0
 93
       13
 44
0.0
173
     0
291
     0
 45
0.0
1001
ACAD
1000
AcDbSavedByObjectVersion
1070
     0
  0
DICTIONARYVAR
  5
5831
102
{ACAD_REACTORS
330
582B
102
}
330
582B
100
DictionaryVariables
280
     0
  1
1:1
  0
DICTIONARYVAR
  5
582D
102
{ACAD_REACTORS
330
582B
102
}
330
582B
100
DictionaryVariables
280
     0
  1
STANDARD
  0
DICTIONARYVAR
  5
582C
102
{ACAD_REACTORS
330
582B
102
}
330
582B
100
DictionaryVariables
280
     0
  1
STANDARD
  0
DICTIONARYVAR
  5
582E
102
{ACAD_REACTORS
330
582B
102
}
330
582B
100
DictionaryVariables
280
     0
  1
Imperial24
  0
DICTIONARYVAR
  5
582F
102
{ACAD_REACTORS
330
582B
102
}
330
582B
100
DictionaryVariables
280
     0
  1
Imperial24
  0
DICTIONARYVAR
  5
5941
102
{ACAD_REACTORS
330
582B
102
}
330
582B
100
DictionaryVariables
280
     0
  1
1
  0
DICTIONARYVAR
  5
5940
102
{ACAD_REACTORS
330
582B
102
}
330
582B
100
DictionaryVariables
280
     0
  1
0
  0
DICTIONARYVAR
  5
5833
102
{ACAD_REACTORS
330
582B
102
}
330
582B
100
DictionaryVariables
280
     0
  1
1
  0
DICTIONARYVAR
  5
5834
102
{ACAD_REACTORS
330
582B
102
}
330
582B
100
DictionaryVariables
280
     0
  1
15
  0
DICTIONARYVAR
  5
5832
102
{ACAD_REACTORS
330
582B
102
}
330
582B
100
DictionaryVariables
280
     0
  1
0
  0
DICTIONARYVAR
  5
5942
102
{ACAD_REACTORS
330
582B
102
}
330
582B
100
DictionaryVariables
280
     0
  1
1.570796
  0
DICTIONARYVAR
  5
5943
102
{ACAD_REACTORS
330
582B
102
}
330
582B
100
DictionaryVariables
280
     0
  1
1.570796
  0
DICTIONARYVAR
  5
5944
102
{ACAD_REACTORS
330
582B
102
}
330
582B
100
DictionaryVariables
280
     0
  1
-122.394000
  0
DICTIONARYVAR
  5
5830
102
{ACAD_REACTORS
330
582B
102
}
330
582B
100
DictionaryVariables
280
     0
  1
0
  0
DICTIONARYVAR
  5
593F
102
{ACAD_REACTORS
330
582B
102
}
330
582B
100
DictionaryVariables
280
     0
  1
127
  0
DICTIONARYVAR
  5
5945
102
{ACAD_REACTORS
330
582B
102
}
330
582B
100
DictionaryVariables
280
     0
  1
2
  0
DICTIONARY
  5
5980
330
4F02
100
AcDbDictionary
280
     1
281
     1
  3
ACAD_XREC_ROUNDTRIP
360
5981
  0
DICTIONARY
  5
5989
330
4FF0
100
AcDbDictionary
280
     1
281
     1
  3
ACAD_XREC_ROUNDTRIP
360
598A
  0
DICTIONARY
  5
5984
330
4F0A
100
AcDbDictionary
280
     1
281
     1
  3
ACAD_XREC_ROUNDTRIP
360
5985
  0
DICTIONARY
  5
5982
330
4F06
100
AcDbDictionary
280
     1
281
     1
  3
ACAD_XREC_ROUNDTRIP
360
5983
  0
DICTIONARY
  5
4EB2
330
4EB1
100
AcDbDictionary
280
     1
281
     1
  3
ACAD_XREC_ROUNDTRIP
360
594A
  3
BUMPTILE
360
4EB4
  3
DIFFUSETILE
360
4EB3
  3
OPACITYTILE
360
4EB7
  3
REFLECTIONTILE
360
4EB6
  3
REFRACTIONTILE
360
4EB8
  3
SPECULARTILE
360
4EB5
  0
DICTIONARY
  5
4EAA
330
4EA9
100
AcDbDictionary
280
     1
281
     1
  3
ACAD_XREC_ROUNDTRIP
360
5949
  3
BUMPTILE
360
4EAC
  3
DIFFUSETILE
360
4EAB
  3
OPACITYTILE
360
4EAF
  3
REFLECTIONTILE
360
4EAE
  3
REFRACTIONTILE
360
4EB0
  3
SPECULARTILE
360
4EAD
  0
DICTIONARY
  5
4EBA
330
4EB9
100
AcDbDictionary
280
     1
281
     1
  3
ACAD_XREC_ROUNDTRIP
360
594B
  3
BUMPTILE
360
4EBC
  3
DIFFUSETILE
360
4EBB
  3
OPACITYTILE
360
4EBF
  3
REFLECTIONTILE
360
4EBE
  3
REFRACTIONTILE
360
4EC0
  3
SPECULARTILE
360
4EBD
  0
DICTIONARY
  5
597E
330
4F00
100
AcDbDictionary
280
     1
281
     1
  3
ACAD_XREC_ROUNDTRIP
360
597F
  0
DICTIONARY
  5
5987
330
4FEF
100
AcDbDictionary
280
     1
281
     1
  3
ACAD_XREC_ROUNDTRIP
360
5988
  0
DICTIONARY
  5
5835
330
4EFC
100
AcDbDictionary
280
     1
281
     1
  3
ACAD_ROUNDTRIP_2008_TABLESTYLE_CELLSTYLEMAP
360
5946
  3
ACAD_XREC_ROUNDTRIP
360
597C
  0
DICTIONARY
  5
5956
330
4EC7
100
AcDbDictionary
280
     1
281
     1
  3
ACAD_XREC_ROUNDTRIP
360
5957
  0
DICTIONARY
  5
5954
330
4EC6
100
AcDbDictionary
280
     1
281
     1
  3
ACAD_XREC_ROUNDTRIP
360
5955
  0
DICTIONARY
  5
5962
330
4ECD
100
AcDbDictionary
280
     1
281
     1
  3
ACAD_XREC_ROUNDTRIP
360
5963
  0
DICTIONARY
  5
596A
330
4ED1
100
AcDbDictionary
280
     1
281
     1
  3
ACAD_XREC_ROUNDTRIP
360
596B
  0
DICTIONARY
  5
595C
330
4ECA
100
AcDbDictionary
280
     1
281
     1
  3
ACAD_XREC_ROUNDTRIP
360
595D
  0
DICTIONARY
  5
5960
330
4ECC
100
AcDbDictionary
280
     1
281
     1
  3
ACAD_XREC_ROUNDTRIP
360
5961
  0
DICTIONARY
  5
597A
330
4ED9
100
AcDbDictionary
280
     1
281
     1
  3
ACAD_XREC_ROUNDTRIP
360
597B
  0
DICTIONARY
  5
5968
330
4ED0
100
AcDbDictionary
280
     1
281
     1
  3
ACAD_XREC_ROUNDTRIP
360
5969
  0
DICTIONARY
  5
594C
330
4EC2
100
AcDbDictionary
280
     1
281
     1
  3
ACAD_XREC_ROUNDTRIP
360
594D
  0
DICTIONARY
  5
594E
330
4EC3
100
AcDbDictionary
280
     1
281
     1
  3
ACAD_XREC_ROUNDTRIP
360
594F
  0
DICTIONARY
  5
5950
330
4EC4
100
AcDbDictionary
280
     1
281
     1
  3
ACAD_XREC_ROUNDTRIP
360
5951
  0
DICTIONARY
  5
5952
330
4EC5
100
AcDbDictionary
280
     1
281
     1
  3
ACAD_XREC_ROUNDTRIP
360
5953
  0
DICTIONARY
  5
595A
330
4EC9
100
AcDbDictionary
280
     1
281
     1
  3
ACAD_XREC_ROUNDTRIP
360
595B
  0
DICTIONARY
  5
5976
330
4ED7
100
AcDbDictionary
280
     1
281
     1
  3
ACAD_XREC_ROUNDTRIP
360
5977
  0
DICTIONARY
  5
5966
330
4ECF
100
AcDbDictionary
280
     1
281
     1
  3
ACAD_XREC_ROUNDTRIP
360
5967
  0
DICTIONARY
  5
5978
330
4ED8
100
AcDbDictionary
280
     1
281
     1
  3
ACAD_XREC_ROUNDTRIP
360
5979
  0
DICTIONARY
  5
595E
330
4ECB
100
AcDbDictionary
280
     1
281
     1
  3
ACAD_XREC_ROUNDTRIP
360
595F
  0
DICTIONARY
  5
5974
330
4ED6
100
AcDbDictionary
280
     1
281
     1
  3
ACAD_XREC_ROUNDTRIP
360
5975
  0
DICTIONARY
  5
5972
330
4ED5
100
AcDbDictionary
280
     1
281
     1
  3
ACAD_XREC_ROUNDTRIP
360
5973
  0
DICTIONARY
  5
596C
330
4ED2
100
AcDbDictionary
280
     1
281
     1
  3
ACAD_XREC_ROUNDTRIP
360
596D
  0
DICTIONARY
  5
596E
330
4ED3
100
AcDbDictionary
280
     1
281
     1
  3
ACAD_XREC_ROUNDTRIP
360
596F
  0
DICTIONARY
  5
5964
330
4ECE
100
AcDbDictionary
280
     1
281
     1
  3
ACAD_XREC_ROUNDTRIP
360
5965
  0
DICTIONARY
  5
5958
330
4EC8
100
AcDbDictionary
280
     1
281
     1
  3
ACAD_XREC_ROUNDTRIP
360
5959
  0
DICTIONARY
  5
5970
330
4ED4
100
AcDbDictionary
280
     1
281
     1
  3
ACAD_XREC_ROUNDTRIP
360
5971
  0
XRECORD
  5
5981
102
{ACAD_REACTORS
330
5980
102
}
330
5980
100
AcDbXrecord
280
     1
102
DISPLAYNAME
  1
Imperial24
102
FLAGS
 90
        0
  0
XRECORD
  5
598A
102
{ACAD_REACTORS
330
5989
102
}
330
5989
100
AcDbXrecord
280
     1
102
DISPLAYNAME
  1
Metric50
102
FLAGS
 90
        0
  0
XRECORD
  5
5985
102
{ACAD_REACTORS
330
5984
102
}
330
5984
100
AcDbXrecord
280
     1
102
SHADEPLOT
 70
     0
102
SHADEPLOTRESLEVEL
 70
     2
102
SHADEPLOTCUSTOMDPI
 70
   300
  0
XRECORD
  5
5983
102
{ACAD_REACTORS
330
5982
102
}
330
5982
100
AcDbXrecord
280
     1
102
SHADEPLOT
 70
     0
102
SHADEPLOTRESLEVEL
 70
     2
102
SHADEPLOTCUSTOMDPI
 70
   300
  0
XRECORD
  5
594A
102
{ACAD_REACTORS
330
4EB2
102
}
330
4EB2
100
AcDbXrecord
280
     1
102
MATERIAL
148
0.0
149
0.0
149
0.0
 93
        0
 94
      127
282
     0
 72
     0
 77
     0
171
     0
175
     0
179
     0
273
     0
  0
XRECORD
  5
4EB4
102
{ACAD_REACTORS
330
4EB2
102
}
330
4EB2
100
AcDbXrecord
280
     1
270
     1
271
     1
  0
XRECORD
  5
4EB3
102
{ACAD_REACTORS
330
4EB2
102
}
330
4EB2
100
AcDbXrecord
280
     1
270
     1
271
     1
  0
XRECORD
  5
4EB7
102
{ACAD_REACTORS
330
4EB2
102
}
330
4EB2
100
AcDbXrecord
280
     1
270
     1
271
     1
  0
XRECORD
  5
4EB6
102
{ACAD_REACTORS
330
4EB2
102
}
330
4EB2
100
AcDbXrecord
280
     1
270
     1
271
     1
  0
XRECORD
  5
4EB8
102
{ACAD_REACTORS
330
4EB2
102
}
330
4EB2
100
AcDbXrecord
280
     1
270
     1
271
     1
  0
XRECORD
  5
4EB5
102
{ACAD_REACTORS
330
4EB2
102
}
330
4EB2
100
AcDbXrecord
280
     1
270
     1
271
     1
  0
XRECORD
  5
5949
102
{ACAD_REACTORS
330
4EAA
102
}
330
4EAA
100
AcDbXrecord
280
     1
102
MATERIAL
148
0.0
149
0.0
149
0.0
 93
        0
 94
      127
282
     0
 72
     0
 77
     0
171
     0
175
     0
179
     0
273
     0
  0
XRECORD
  5
4EAC
102
{ACAD_REACTORS
330
4EAA
102
}
330
4EAA
100
AcDbXrecord
280
     1
270
     1
271
     1
  0
XRECORD
  5
4EAB
102
{ACAD_REACTORS
330
4EAA
102
}
330
4EAA
100
AcDbXrecord
280
     1
270
     1
271
     1
  0
XRECORD
  5
4EAF
102
{ACAD_REACTORS
330
4EAA
102
}
330
4EAA
100
AcDbXrecord
280
     1
270
     1
271
     1
  0
XRECORD
  5
4EAE
102
{ACAD_REACTORS
330
4EAA
102
}
330
4EAA
100
AcDbXrecord
280
     1
270
     1
271
     1
  0
XRECORD
  5
4EB0
102
{ACAD_REACTORS
330
4EAA
102
}
330
4EAA
100
AcDbXrecord
280
     1
270
     1
271
     1
  0
XRECORD
  5
4EAD
102
{ACAD_REACTORS
330
4EAA
102
}
330
4EAA
100
AcDbXrecord
280
     1
270
     1
271
     1
  0
XRECORD
  5
594B
102
{ACAD_REACTORS
330
4EBA
102
}
330
4EBA
100
AcDbXrecord
280
     1
102
MATERIAL
148
0.0
149
0.0
149
0.0
 93
        0
 94
      127
282
     0
 72
     0
 77
     0
171
     0
175
     0
179
     0
273
     0
  0
XRECORD
  5
4EBC
102
{ACAD_REACTORS
330
4EBA
102
}
330
4EBA
100
AcDbXrecord
280
     1
270
     1
271
     1
  0
XRECORD
  5
4EBB
102
{ACAD_REACTORS
330
4EBA
102
}
330
4EBA
100
AcDbXrecord
280
     1
270
     1
271
     1
  0
XRECORD
  5
4EBF
102
{ACAD_REACTORS
330
4EBA
102
}
330
4EBA
100
AcDbXrecord
280
     1
270
     1
271
     1
  0
XRECORD
  5
4EBE
102
{ACAD_REACTORS
330
4EBA
102
}
330
4EBA
100
AcDbXrecord
280
     1
270
     1
271
     1
  0
XRECORD
  5
4EC0
102
{ACAD_REACTORS
330
4EBA
102
}
330
4EBA
100
AcDbXrecord
280
     1
270
     1
271
     1
  0
XRECORD
  5
4EBD
102
{ACAD_REACTORS
330
4EBA
102
}
330
4EBA
100
AcDbXrecord
280
     1
270
     1
271
     1
  0
XRECORD
  5
597F
102
{ACAD_REACTORS
330
597E
102
}
330
597E
100
AcDbXrecord
280
     1
102
DISPLAYNAME
  1
Imperial24
102
FLAGS
 90
        0
  0
XRECORD
  5
5988
102
{ACAD_REACTORS
330
5987
102
}
330
5987
100
AcDbXrecord
280
     1
102
DISPLAYNAME
  1
Metric50
102
FLAGS
 90
        0
  0
CELLSTYLEMAP
  5
5946
102
{ACAD_REACTORS
330
5835
102
}
330
5835
100
AcDbCellStyleMap
 90
        3
300
CELLSTYLE
  1
TABLEFORMAT_BEGIN
 90
        5
170
     1
 91
        0
 92
    32768
 62
   257
 93
        1
300
CONTENTFORMAT
  1
CONTENTFORMAT_BEGIN
 90
        0
 91
        0
 92
      512
 93
        0
300

 40
0.0
140
1.0
 94
        5
 62
     0
340
4EED
144
0.25
309
CONTENTFORMAT_END
171
     1
301
MARGIN
  1
CELLMARGIN_BEGIN
 40
0.06
 40
0.06
 40
0.06
 40
0.06
 40
0.18
 40
0.18
309
CELLMARGIN_END
 94
        6
 95
        1
302
GRIDFORMAT
  1
GRIDFORMAT_BEGIN
 90
        0
 91
        1
 62
     0
 92
       -2
340
0
 93
        0
 40
0.045
309
GRIDFORMAT_END
 95
        2
302
GRIDFORMAT
  1
GRIDFORMAT_BEGIN
 90
        0
 91
        1
 62
     0
 92
       -2
340
0
 93
        0
 40
0.045
309
GRIDFORMAT_END
 95
        4
302
GRIDFORMAT
  1
GRIDFORMAT_BEGIN
 90
        0
 91
        1
 62
     0
 92
       -2
340
0
 93
        0
 40
0.045
309
GRIDFORMAT_END
 95
        8
302
GRIDFORMAT
  1
GRIDFORMAT_BEGIN
 90
        0
 91
        1
 62
     0
 92
       -2
340
0
 93
        0
 40
0.045
309
GRIDFORMAT_END
 95
       16
302
GRIDFORMAT
  1
GRIDFORMAT_BEGIN
 90
        0
 91
        1
 62
     0
 92
       -2
340
0
 93
        0
 40
0.045
309
GRIDFORMAT_END
 95
       32
302
GRIDFORMAT
  1
GRIDFORMAT_BEGIN
 90
        0
 91
        1
 62
     0
 92
       -2
340
0
 93
        0
 40
0.045
309
GRIDFORMAT_END
309
TABLEFORMAT_END
  1
CELLSTYLE_BEGIN
 90
        1
 91
        1
300
_TITLE
309
CELLSTYLE_END
300
CELLSTYLE
  1
TABLEFORMAT_BEGIN
 90
        5
170
     1
 91
        0
 92
        0
 62
   257
 93
        1
300
CONTENTFORMAT
  1
CONTENTFORMAT_BEGIN
 90
        0
 91
        0
 92
      512
 93
        0
300

 40
0.0
140
1.0
 94
        5
 62
     0
340
4EED
144
0.18
309
CONTENTFORMAT_END
171
     1
301
MARGIN
  1
CELLMARGIN_BEGIN
 40
0.06
 40
0.06
 40
0.06
 40
0.06
 40
0.18
 40
0.18
309
CELLMARGIN_END
 94
        6
 95
        1
302
GRIDFORMAT
  1
GRIDFORMAT_BEGIN
 90
        0
 91
        1
 62
     0
 92
       -2
340
0
 93
        0
 40
0.045
309
GRIDFORMAT_END
 95
        2
302
GRIDFORMAT
  1
GRIDFORMAT_BEGIN
 90
        0
 91
        1
 62
     0
 92
       -2
340
0
 93
        0
 40
0.045
309
GRIDFORMAT_END
 95
        4
302
GRIDFORMAT
  1
GRIDFORMAT_BEGIN
 90
        0
 91
        1
 62
     0
 92
       -2
340
0
 93
        0
 40
0.045
309
GRIDFORMAT_END
 95
        8
302
GRIDFORMAT
  1
GRIDFORMAT_BEGIN
 90
        0
 91
        1
 62
     0
 92
       -2
340
0
 93
        0
 40
0.045
309
GRIDFORMAT_END
 95
       16
302
GRIDFORMAT
  1
GRIDFORMAT_BEGIN
 90
        0
 91
        1
 62
     0
 92
       -2
340
0
 93
        0
 40
0.045
309
GRIDFORMAT_END
 95
       32
302
GRIDFORMAT
  1
GRIDFORMAT_BEGIN
 90
        0
 91
        1
 62
     0
 92
       -2
340
0
 93
        0
 40
0.045
309
GRIDFORMAT_END
309
TABLEFORMAT_END
  1
CELLSTYLE_BEGIN
 90
        2
 91
        1
300
_HEADER
309
CELLSTYLE_END
300
CELLSTYLE
  1
TABLEFORMAT_BEGIN
 90
        5
170
     1
 91
        0
 92
        0
 62
   257
 93
        1
300
CONTENTFORMAT
  1
CONTENTFORMAT_BEGIN
 90
        0
 91
        0
 92
      512
 93
        0
300

 40
0.0
140
1.0
 94
        2
 62
     0
340
4EED
144
0.18
309
CONTENTFORMAT_END
171
     1
301
MARGIN
  1
CELLMARGIN_BEGIN
 40
0.06
 40
0.06
 40
0.06
 40
0.06
 40
0.18
 40
0.18
309
CELLMARGIN_END
 94
        6
 95
        1
302
GRIDFORMAT
  1
GRIDFORMAT_BEGIN
 90
        0
 91
        1
 62
     0
 92
       -2
340
0
 93
        0
 40
0.045
309
GRIDFORMAT_END
 95
        2
302
GRIDFORMAT
  1
GRIDFORMAT_BEGIN
 90
        0
 91
        1
 62
     0
 92
       -2
340
0
 93
        0
 40
0.045
309
GRIDFORMAT_END
 95
        4
302
GRIDFORMAT
  1
GRIDFORMAT_BEGIN
 90
        0
 91
        1
 62
     0
 92
       -2
340
0
 93
        0
 40
0.045
309
GRIDFORMAT_END
 95
        8
302
GRIDFORMAT
  1
GRIDFORMAT_BEGIN
 90
        0
 91
        1
 62
     0
 92
       -2
340
0
 93
        0
 40
0.045
309
GRIDFORMAT_END
 95
       16
302
GRIDFORMAT
  1
GRIDFORMAT_BEGIN
 90
        0
 91
        1
 62
     0
 92
       -2
340
0
 93
        0
 40
0.045
309
GRIDFORMAT_END
 95
       32
302
GRIDFORMAT
  1
GRIDFORMAT_BEGIN
 90
        0
 91
        1
 62
     0
 92
       -2
340
0
 93
        0
 40
0.045
309
GRIDFORMAT_END
309
TABLEFORMAT_END
  1
CELLSTYLE_BEGIN
 90
        3
 91
        2
300
_DATA
309
CELLSTYLE_END
  0
XRECORD
  5
597C
102
{ACAD_REACTORS
330
5835
102
}
330
5835
100
AcDbXrecord
280
     1
102
ACAD_ROUNDTRIP_PRE2007_TABLESTYLE
 90
      512
 91
        0
  1

 92
      512
 93
        0
  2

 94
      512
 95
        0
  3

  0
XRECORD
  5
5957
102
{ACAD_REACTORS
330
5956
102
}
330
5956
100
AcDbXrecord
280
     1
102
RTVSPost2010Prop28
280
     1
102
RTVSPost2010PropOp28
 70
     1
102
RTVSPost2010Prop29
280
     1
102
RTVSPost2010PropOp29
 70
     1
102
RTVSPost2010Prop30
280
     0
102
RTVSPost2010PropOp30
 70
     1
102
RTVSPost2010Prop31
280
     0
102
RTVSPost2010PropOp31
 70
     1
102
RTVSPost2010Prop32
280
     0
102
RTVSPost2010PropOp32
 70
     1
102
RTVSPost2010Prop33
280
     0
102
RTVSPost2010PropOp33
 70
     1
102
RTVSPost2010Prop34
280
     0
102
RTVSPost2010PropOp34
 70
     1
102
RTVSPost2010Prop35
280
     0
102
RTVSPost2010PropOp35
 70
     1
102
RTVSPost2010Prop36
280
     0
102
RTVSPost2010PropOp36
 70
     1
102
RTVSPost2010Prop37
 90
       50
102
RTVSPost2010PropOp37
 70
     1
102
RTVSPost2010Prop38
140
0.0
102
RTVSPost2010PropOp38
 70
     1
102
RTVSPost2010Prop39
140
1.0
102
RTVSPost2010PropOp39
 70
     1
102
RTVSPost2010Prop40
 90
        0
102
RTVSPost2010PropOp40
 70
     1
102
RTVSPost2010Prop41ColorIndex
 90
       18
102
RTVSPost2010Prop41ColorRGB
 90
        0
102
RTVSPost2010PropOp41
 70
     1
102
RTVSPost2010Prop42
 90
       50
102
RTVSPost2010PropOp42
 70
     1
102
RTVSPost2010Prop43
 90
        3
102
RTVSPost2010PropOp43
 70
     1
102
RTVSPost2010Prop44ColorIndex
 90
        5
102
RTVSPost2010Prop44ColorRGB
 90
      255
102
RTVSPost2010PropOp44
 70
     1
102
RTVSPost2010Prop45
280
     0
102
RTVSPost2010PropOp45
 70
     1
102
RTVSPost2010Prop46
 90
       50
102
RTVSPost2010PropOp46
 70
     1
102
RTVSPost2010Prop47
 90
       50
102
RTVSPost2010PropOp47
 70
     1
102
RTVSPost2010Prop48
 90
       50
102
RTVSPost2010PropOp48
 70
     1
102
RTVSPost2010Prop49
280
     0
102
RTVSPost2010PropOp49
 70
     1
102
RTVSPost2010Prop50
 90
       50
102
RTVSPost2010PropOp50
 70
     1
102
RTVSPost2010Prop51ColorIndex
 90
      256
102
RTVSPost2010Prop51ColorRGB
 90
-16777216
102
RTVSPost2010PropOp51
 70
     0
102
RTVSPost2010Prop52
140
1.0
102
RTVSPost2010PropOp52
 70
     0
102
RTVSPost2010Prop53
 90
        2
102
RTVSPost2010PropOp53
 70
     1
102
RTVSPost2010Prop54
  1
strokes_ogs.tif
102
RTVSPost2010PropOp54
 70
     1
102
RTVSPost2010Prop55
280
     0
102
RTVSPost2010PropOp55
 70
     1
102
RTVSPost2010Prop56
140
1.0
102
RTVSPost2010PropOp56
 70
     1
102
RTVSPost2010Prop57
140
1.0
102
RTVSPost2010PropOp57
 70
     1
102
RTVSPropertyOp0
 70
     1
102
RTVSPropertyOp1
 70
     1
102
RTVSPropertyOp2
 70
     1
102
RTVSPropertyOp3
 70
     1
102
RTVSPropertyOp4
 70
     1
102
RTVSPropertyOp5
 70
     1
102
RTVSPropertyOp6
 70
     1
102
RTVSPropertyOp7
 70
     1
102
RTVSPropertyOp8
 70
     1
102
RTVSPropertyOp9
 70
     1
102
RTVSPropertyOp10
 70
     1
102
RTVSPropertyOp11
 70
     1
102
RTVSPropertyOp12
 70
     1
102
RTVSPropertyOp13
 70
     1
102
RTVSPropertyOp14
 70
     1
102
RTVSPropertyOp15
 70
     1
102
RTVSPropertyOp16
 70
     1
102
RTVSPropertyOp17
 70
     1
102
RTVSPropertyOp18
 70
     1
102
RTVSPropertyOp19
 70
     1
102
RTVSPropertyOp20
 70
     1
102
RTVSPropertyOp21
 70
     1
102
RTVSPropertyOp22
 70
     1
102
RTVSPropertyOp23
 70
     1
102
RTVSPropertyOp24
 70
     1
102
RTVSPropertyOp25
 70
     1
102
RTVSPropertyOp26
 70
     1
102
RTVSPropertyOp27
 70
     1
102
RTVSPropertyOp28
 70
     1
102
RTVSPropertyOp29
 70
     1
102
RTVSPropertyOp30
 70
     1
102
RTVSPropertyOp31
 70
     1
102
RTVSPropertyOp32
 70
     1
102
RTVSPropertyOp33
 70
     1
102
RTVSPropertyOp34
 70
     1
102
RTVSPropertyOp35
 70
     1
102
RTVSPropertyOp36
 70
     1
102
RTVSPropertyOp37
 70
     1
102
RTVSPropertyOp38
 70
     1
102
RTVSPropertyOp39
 70
     1
102
RTVSPropertyOp40
 70
     1
102
RTVSPropertyOp41
 70
     1
102
RTVSPropertyOp42
 70
     1
102
RTVSPropertyOp43
 70
     1
102
RTVSPropertyOp44
 70
     1
102
RTVSPropertyOp45
 70
     1
102
RTVSPropertyOp46
 70
     1
102
RTVSPropertyOp47
 70
     1
102
RTVSPropertyOp48
 70
     1
102
RTVSPropertyOp49
 70
     1
102
RTVSPropertyOp50
 70
     1
102
RTVSPropertyOp51
 70
     0
102
RTVSPropertyOp52
 70
     0
102
RTVSPropertyOp53
 70
     1
102
RTVSPropertyOp54
 70
     1
102
RTVSPropertyOp55
 70
     1
102
RTVSPropertyOp56
 70
     1
102
RTVSPropertyOp57
 70
     1
102
RTVSPropertyOp58
 70
     1
102
RTVSPropertyOp59
 70
     1
102
RTVSPropertyOp60
 70
     1
102
RTVSPropertyOp61
 70
     1
102
RTVSPropertyOp62
 70
     1
  0
XRECORD
  5
5955
102
{ACAD_REACTORS
330
5954
102
}
330
5954
100
AcDbXrecord
280
     1
102
RTVSPost2010Prop28
280
     0
102
RTVSPost2010PropOp28
 70
     1
102
RTVSPost2010Prop29
280
     1
102
RTVSPost2010PropOp29
 70
     1
102
RTVSPost2010Prop30
280
     1
102
RTVSPost2010PropOp30
 70
     1
102
RTVSPost2010Prop31
280
     0
102
RTVSPost2010PropOp31
 70
     1
102
RTVSPost2010Prop32
280
     0
102
RTVSPost2010PropOp32
 70
     1
102
RTVSPost2010Prop33
280
     0
102
RTVSPost2010PropOp33
 70
     1
102
RTVSPost2010Prop34
280
     0
102
RTVSPost2010PropOp34
 70
     1
102
RTVSPost2010Prop35
280
     0
102
RTVSPost2010PropOp35
 70
     1
102
RTVSPost2010Prop36
280
     0
102
RTVSPost2010PropOp36
 70
     1
102
RTVSPost2010Prop37
 90
       50
102
RTVSPost2010PropOp37
 70
     1
102
RTVSPost2010Prop38
140
0.0
102
RTVSPost2010PropOp38
 70
     1
102
RTVSPost2010Prop39
140
1.0
102
RTVSPost2010PropOp39
 70
     1
102
RTVSPost2010Prop40
 90
        0
102
RTVSPost2010PropOp40
 70
     1
102
RTVSPost2010Prop41ColorIndex
 90
       18
102
RTVSPost2010Prop41ColorRGB
 90
        0
102
RTVSPost2010PropOp41
 70
     1
102
RTVSPost2010Prop42
 90
       50
102
RTVSPost2010PropOp42
 70
     1
102
RTVSPost2010Prop43
 90
        3
102
RTVSPost2010PropOp43
 70
     1
102
RTVSPost2010Prop44ColorIndex
 90
        5
102
RTVSPost2010Prop44ColorRGB
 90
      255
102
RTVSPost2010PropOp44
 70
     1
102
RTVSPost2010Prop45
280
     0
102
RTVSPost2010PropOp45
 70
     1
102
RTVSPost2010Prop46
 90
       50
102
RTVSPost2010PropOp46
 70
     1
102
RTVSPost2010Prop47
 90
       50
102
RTVSPost2010PropOp47
 70
     1
102
RTVSPost2010Prop48
 90
       50
102
RTVSPost2010PropOp48
 70
     1
102
RTVSPost2010Prop49
280
     0
102
RTVSPost2010PropOp49
 70
     1
102
RTVSPost2010Prop50
 90
       50
102
RTVSPost2010PropOp50
 70
     1
102
RTVSPost2010Prop51ColorIndex
 90
      256
102
RTVSPost2010Prop51ColorRGB
 90
-16777216
102
RTVSPost2010PropOp51
 70
     0
102
RTVSPost2010Prop52
140
1.0
102
RTVSPost2010PropOp52
 70
     0
102
RTVSPost2010Prop53
 90
        2
102
RTVSPost2010PropOp53
 70
     1
102
RTVSPost2010Prop54
  1
strokes_ogs.tif
102
RTVSPost2010PropOp54
 70
     1
102
RTVSPost2010Prop55
280
     0
102
RTVSPost2010PropOp55
 70
     1
102
RTVSPost2010Prop56
140
1.0
102
RTVSPost2010PropOp56
 70
     1
102
RTVSPost2010Prop57
140
1.0
102
RTVSPost2010PropOp57
 70
     1
102
RTVSPropertyOp0
 70
     1
102
RTVSPropertyOp1
 70
     1
102
RTVSPropertyOp2
 70
     1
102
RTVSPropertyOp3
 70
     1
102
RTVSPropertyOp4
 70
     1
102
RTVSPropertyOp5
 70
     1
102
RTVSPropertyOp6
 70
     1
102
RTVSPropertyOp7
 70
     1
102
RTVSPropertyOp8
 70
     1
102
RTVSPropertyOp9
 70
     1
102
RTVSPropertyOp10
 70
     1
102
RTVSPropertyOp11
 70
     1
102
RTVSPropertyOp12
 70
     1
102
RTVSPropertyOp13
 70
     1
102
RTVSPropertyOp14
 70
     1
102
RTVSPropertyOp15
 70
     1
102
RTVSPropertyOp16
 70
     1
102
RTVSPropertyOp17
 70
     1
102
RTVSPropertyOp18
 70
     1
102
RTVSPropertyOp19
 70
     1
102
RTVSPropertyOp20
 70
     1
102
RTVSPropertyOp21
 70
     1
102
RTVSPropertyOp22
 70
     1
102
RTVSPropertyOp23
 70
     1
102
RTVSPropertyOp24
 70
     1
102
RTVSPropertyOp25
 70
     1
102
RTVSPropertyOp26
 70
     1
102
RTVSPropertyOp27
 70
     1
102
RTVSPropertyOp28
 70
     1
102
RTVSPropertyOp29
 70
     1
102
RTVSPropertyOp30
 70
     1
102
RTVSPropertyOp31
 70
     1
102
RTVSPropertyOp32
 70
     1
102
RTVSPropertyOp33
 70
     1
102
RTVSPropertyOp34
 70
     1
102
RTVSPropertyOp35
 70
     1
102
RTVSPropertyOp36
 70
     1
102
RTVSPropertyOp37
 70
     1
102
RTVSPropertyOp38
 70
     1
102
RTVSPropertyOp39
 70
     1
102
RTVSPropertyOp40
 70
     1
102
RTVSPropertyOp41
 70
     1
102
RTVSPropertyOp42
 70
     1
102
RTVSPropertyOp43
 70
     1
102
RTVSPropertyOp44
 70
     1
102
RTVSPropertyOp45
 70
     1
102
RTVSPropertyOp46
 70
     1
102
RTVSPropertyOp47
 70
     1
102
RTVSPropertyOp48
 70
     1
102
RTVSPropertyOp49
 70
     1
102
RTVSPropertyOp50
 70
     1
102
RTVSPropertyOp51
 70
     0
102
RTVSPropertyOp52
 70
     0
102
RTVSPropertyOp53
 70
     1
102
RTVSPropertyOp54
 70
     1
102
RTVSPropertyOp55
 70
     1
102
RTVSPropertyOp56
 70
     1
102
RTVSPropertyOp57
 70
     1
102
RTVSPropertyOp58
 70
     1
102
RTVSPropertyOp59
 70
     1
102
RTVSPropertyOp60
 70
     1
102
RTVSPropertyOp61
 70
     1
102
RTVSPropertyOp62
 70
     1
  0
XRECORD
  5
5963
102
{ACAD_REACTORS
330
5962
102
}
330
5962
100
AcDbXrecord
280
     1
102
RTVSPost2010Prop28
280
     0
102
RTVSPost2010PropOp28
 70
     1
102
RTVSPost2010Prop29
280
     1
102
RTVSPost2010PropOp29
 70
     1
102
RTVSPost2010Prop30
280
     1
102
RTVSPost2010PropOp30
 70
     1
102
RTVSPost2010Prop31
280
     0
102
RTVSPost2010PropOp31
 70
     1
102
RTVSPost2010Prop32
280
     0
102
RTVSPost2010PropOp32
 70
     1
102
RTVSPost2010Prop33
280
     0
102
RTVSPost2010PropOp33
 70
     1
102
RTVSPost2010Prop34
280
     0
102
RTVSPost2010PropOp34
 70
     1
102
RTVSPost2010Prop35
280
     0
102
RTVSPost2010PropOp35
 70
     1
102
RTVSPost2010Prop36
280
     0
102
RTVSPost2010PropOp36
 70
     1
102
RTVSPost2010Prop37
 90
       50
102
RTVSPost2010PropOp37
 70
     1
102
RTVSPost2010Prop38
140
0.0
102
RTVSPost2010PropOp38
 70
     1
102
RTVSPost2010Prop39
140
1.0
102
RTVSPost2010PropOp39
 70
     1
102
RTVSPost2010Prop40
 90
        0
102
RTVSPost2010PropOp40
 70
     1
102
RTVSPost2010Prop41ColorIndex
 90
       18
102
RTVSPost2010Prop41ColorRGB
 90
        0
102
RTVSPost2010PropOp41
 70
     1
102
RTVSPost2010Prop42
 90
       50
102
RTVSPost2010PropOp42
 70
     1
102
RTVSPost2010Prop43
 90
        3
102
RTVSPost2010PropOp43
 70
     1
102
RTVSPost2010Prop44ColorIndex
 90
        5
102
RTVSPost2010Prop44ColorRGB
 90
      255
102
RTVSPost2010PropOp44
 70
     1
102
RTVSPost2010Prop45
280
     0
102
RTVSPost2010PropOp45
 70
     1
102
RTVSPost2010Prop46
 90
       50
102
RTVSPost2010PropOp46
 70
     1
102
RTVSPost2010Prop47
 90
       50
102
RTVSPost2010PropOp47
 70
     1
102
RTVSPost2010Prop48
 90
       50
102
RTVSPost2010PropOp48
 70
     1
102
RTVSPost2010Prop49
280
     0
102
RTVSPost2010PropOp49
 70
     1
102
RTVSPost2010Prop50
 90
       50
102
RTVSPost2010PropOp50
 70
     1
102
RTVSPost2010Prop51ColorIndex
 90
      256
102
RTVSPost2010Prop51ColorRGB
 90
-16777216
102
RTVSPost2010PropOp51
 70
     0
102
RTVSPost2010Prop52
140
1.0
102
RTVSPost2010PropOp52
 70
     0
102
RTVSPost2010Prop53
 90
        2
102
RTVSPost2010PropOp53
 70
     1
102
RTVSPost2010Prop54
  1
strokes_ogs.tif
102
RTVSPost2010PropOp54
 70
     1
102
RTVSPost2010Prop55
280
     0
102
RTVSPost2010PropOp55
 70
     1
102
RTVSPost2010Prop56
140
1.0
102
RTVSPost2010PropOp56
 70
     1
102
RTVSPost2010Prop57
140
1.0
102
RTVSPost2010PropOp57
 70
     1
102
RTVSPropertyOp0
 70
     1
102
RTVSPropertyOp1
 70
     1
102
RTVSPropertyOp2
 70
     1
102
RTVSPropertyOp3
 70
     1
102
RTVSPropertyOp4
 70
     1
102
RTVSPropertyOp5
 70
     1
102
RTVSPropertyOp6
 70
     1
102
RTVSPropertyOp7
 70
     1
102
RTVSPropertyOp8
 70
     1
102
RTVSPropertyOp9
 70
     1
102
RTVSPropertyOp10
 70
     1
102
RTVSPropertyOp11
 70
     1
102
RTVSPropertyOp12
 70
     1
102
RTVSPropertyOp13
 70
     1
102
RTVSPropertyOp14
 70
     1
102
RTVSPropertyOp15
 70
     1
102
RTVSPropertyOp16
 70
     1
102
RTVSPropertyOp17
 70
     1
102
RTVSPropertyOp18
 70
     1
102
RTVSPropertyOp19
 70
     1
102
RTVSPropertyOp20
 70
     1
102
RTVSPropertyOp21
 70
     1
102
RTVSPropertyOp22
 70
     1
102
RTVSPropertyOp23
 70
     1
102
RTVSPropertyOp24
 70
     1
102
RTVSPropertyOp25
 70
     1
102
RTVSPropertyOp26
 70
     1
102
RTVSPropertyOp27
 70
     1
102
RTVSPropertyOp28
 70
     1
102
RTVSPropertyOp29
 70
     1
102
RTVSPropertyOp30
 70
     1
102
RTVSPropertyOp31
 70
     1
102
RTVSPropertyOp32
 70
     1
102
RTVSPropertyOp33
 70
     1
102
RTVSPropertyOp34
 70
     1
102
RTVSPropertyOp35
 70
     1
102
RTVSPropertyOp36
 70
     1
102
RTVSPropertyOp37
 70
     1
102
RTVSPropertyOp38
 70
     1
102
RTVSPropertyOp39
 70
     1
102
RTVSPropertyOp40
 70
     1
102
RTVSPropertyOp41
 70
     1
102
RTVSPropertyOp42
 70
     1
102
RTVSPropertyOp43
 70
     1
102
RTVSPropertyOp44
 70
     1
102
RTVSPropertyOp45
 70
     1
102
RTVSPropertyOp46
 70
     1
102
RTVSPropertyOp47
 70
     1
102
RTVSPropertyOp48
 70
     1
102
RTVSPropertyOp49
 70
     1
102
RTVSPropertyOp50
 70
     1
102
RTVSPropertyOp51
 70
     0
102
RTVSPropertyOp52
 70
     0
102
RTVSPropertyOp53
 70
     1
102
RTVSPropertyOp54
 70
     1
102
RTVSPropertyOp55
 70
     1
102
RTVSPropertyOp56
 70
     1
102
RTVSPropertyOp57
 70
     1
102
RTVSPropertyOp58
 70
     1
102
RTVSPropertyOp59
 70
     1
102
RTVSPropertyOp60
 70
     1
102
RTVSPropertyOp61
 70
     1
102
RTVSPropertyOp62
 70
     1
  0
XRECORD
  5
596B
102
{ACAD_REACTORS
330
596A
102
}
330
596A
100
AcDbXrecord
280
     1
102
RTVSPost2010Prop28
280
     0
102
RTVSPost2010PropOp28
 70
     1
102
RTVSPost2010Prop29
280
     1
102
RTVSPost2010PropOp29
 70
     1
102
RTVSPost2010Prop30
280
     1
102
RTVSPost2010PropOp30
 70
     1
102
RTVSPost2010Prop31
280
     0
102
RTVSPost2010PropOp31
 70
     1
102
RTVSPost2010Prop32
280
     0
102
RTVSPost2010PropOp32
 70
     1
102
RTVSPost2010Prop33
280
     0
102
RTVSPost2010PropOp33
 70
     1
102
RTVSPost2010Prop34
280
     0
102
RTVSPost2010PropOp34
 70
     1
102
RTVSPost2010Prop35
280
     0
102
RTVSPost2010PropOp35
 70
     1
102
RTVSPost2010Prop36
280
     0
102
RTVSPost2010PropOp36
 70
     1
102
RTVSPost2010Prop37
 90
       50
102
RTVSPost2010PropOp37
 70
     1
102
RTVSPost2010Prop38
140
0.0
102
RTVSPost2010PropOp38
 70
     1
102
RTVSPost2010Prop39
140
1.0
102
RTVSPost2010PropOp39
 70
     1
102
RTVSPost2010Prop40
 90
        0
102
RTVSPost2010PropOp40
 70
     1
102
RTVSPost2010Prop41ColorIndex
 90
       18
102
RTVSPost2010Prop41ColorRGB
 90
        0
102
RTVSPost2010PropOp41
 70
     1
102
RTVSPost2010Prop42
 90
       50
102
RTVSPost2010PropOp42
 70
     1
102
RTVSPost2010Prop43
 90
        3
102
RTVSPost2010PropOp43
 70
     1
102
RTVSPost2010Prop44ColorIndex
 90
        5
102
RTVSPost2010Prop44ColorRGB
 90
      255
102
RTVSPost2010PropOp44
 70
     1
102
RTVSPost2010Prop45
280
     0
102
RTVSPost2010PropOp45
 70
     1
102
RTVSPost2010Prop46
 90
       50
102
RTVSPost2010PropOp46
 70
     1
102
RTVSPost2010Prop47
 90
       50
102
RTVSPost2010PropOp47
 70
     1
102
RTVSPost2010Prop48
 90
       50
102
RTVSPost2010PropOp48
 70
     1
102
RTVSPost2010Prop49
280
     0
102
RTVSPost2010PropOp49
 70
     1
102
RTVSPost2010Prop50
 90
       50
102
RTVSPost2010PropOp50
 70
     1
102
RTVSPost2010Prop51ColorIndex
 90
      256
102
RTVSPost2010Prop51ColorRGB
 90
-16777216
102
RTVSPost2010PropOp51
 70
     0
102
RTVSPost2010Prop52
140
1.0
102
RTVSPost2010PropOp52
 70
     0
102
RTVSPost2010Prop53
 90
        2
102
RTVSPost2010PropOp53
 70
     1
102
RTVSPost2010Prop54
  1
strokes_ogs.tif
102
RTVSPost2010PropOp54
 70
     1
102
RTVSPost2010Prop55
280
     0
102
RTVSPost2010PropOp55
 70
     1
102
RTVSPost2010Prop56
140
1.0
102
RTVSPost2010PropOp56
 70
     1
102
RTVSPost2010Prop57
140
1.0
102
RTVSPost2010PropOp57
 70
     1
102
RTVSPropertyOp0
 70
     1
102
RTVSPropertyOp1
 70
     1
102
RTVSPropertyOp2
 70
     1
102
RTVSPropertyOp3
 70
     1
102
RTVSPropertyOp4
 70
     1
102
RTVSPropertyOp5
 70
     1
102
RTVSPropertyOp6
 70
     1
102
RTVSPropertyOp7
 70
     1
102
RTVSPropertyOp8
 70
     1
102
RTVSPropertyOp9
 70
     1
102
RTVSPropertyOp10
 70
     1
102
RTVSPropertyOp11
 70
     1
102
RTVSPropertyOp12
 70
     1
102
RTVSPropertyOp13
 70
     1
102
RTVSPropertyOp14
 70
     1
102
RTVSPropertyOp15
 70
     1
102
RTVSPropertyOp16
 70
     1
102
RTVSPropertyOp17
 70
     1
102
RTVSPropertyOp18
 70
     1
102
RTVSPropertyOp19
 70
     1
102
RTVSPropertyOp20
 70
     1
102
RTVSPropertyOp21
 70
     1
102
RTVSPropertyOp22
 70
     1
102
RTVSPropertyOp23
 70
     1
102
RTVSPropertyOp24
 70
     1
102
RTVSPropertyOp25
 70
     1
102
RTVSPropertyOp26
 70
     1
102
RTVSPropertyOp27
 70
     1
102
RTVSPropertyOp28
 70
     1
102
RTVSPropertyOp29
 70
     1
102
RTVSPropertyOp30
 70
     1
102
RTVSPropertyOp31
 70
     1
102
RTVSPropertyOp32
 70
     1
102
RTVSPropertyOp33
 70
     1
102
RTVSPropertyOp34
 70
     1
102
RTVSPropertyOp35
 70
     1
102
RTVSPropertyOp36
 70
     1
102
RTVSPropertyOp37
 70
     1
102
RTVSPropertyOp38
 70
     1
102
RTVSPropertyOp39
 70
     1
102
RTVSPropertyOp40
 70
     1
102
RTVSPropertyOp41
 70
     1
102
RTVSPropertyOp42
 70
     1
102
RTVSPropertyOp43
 70
     1
102
RTVSPropertyOp44
 70
     1
102
RTVSPropertyOp45
 70
     1
102
RTVSPropertyOp46
 70
     1
102
RTVSPropertyOp47
 70
     1
102
RTVSPropertyOp48
 70
     1
102
RTVSPropertyOp49
 70
     1
102
RTVSPropertyOp50
 70
     1
102
RTVSPropertyOp51
 70
     0
102
RTVSPropertyOp52
 70
     0
102
RTVSPropertyOp53
 70
     1
102
RTVSPropertyOp54
 70
     1
102
RTVSPropertyOp55
 70
     1
102
RTVSPropertyOp56
 70
     1
102
RTVSPropertyOp57
 70
     1
102
RTVSPropertyOp58
 70
     1
102
RTVSPropertyOp59
 70
     1
102
RTVSPropertyOp60
 70
     1
102
RTVSPropertyOp61
 70
     1
102
RTVSPropertyOp62
 70
     1
  0
XRECORD
  5
595D
102
{ACAD_REACTORS
330
595C
102
}
330
595C
100
AcDbXrecord
280
     1
102
RTVSPost2010Prop28
280
     0
102
RTVSPost2010PropOp28
 70
     1
102
RTVSPost2010Prop29
280
     1
102
RTVSPost2010PropOp29
 70
     1
102
RTVSPost2010Prop30
280
     1
102
RTVSPost2010PropOp30
 70
     1
102
RTVSPost2010Prop31
280
     0
102
RTVSPost2010PropOp31
 70
     1
102
RTVSPost2010Prop32
280
     0
102
RTVSPost2010PropOp32
 70
     1
102
RTVSPost2010Prop33
280
     0
102
RTVSPost2010PropOp33
 70
     1
102
RTVSPost2010Prop34
280
     0
102
RTVSPost2010PropOp34
 70
     1
102
RTVSPost2010Prop35
280
     0
102
RTVSPost2010PropOp35
 70
     1
102
RTVSPost2010Prop36
280
     0
102
RTVSPost2010PropOp36
 70
     1
102
RTVSPost2010Prop37
 90
       50
102
RTVSPost2010PropOp37
 70
     1
102
RTVSPost2010Prop38
140
0.0
102
RTVSPost2010PropOp38
 70
     1
102
RTVSPost2010Prop39
140
1.0
102
RTVSPost2010PropOp39
 70
     1
102
RTVSPost2010Prop40
 90
        0
102
RTVSPost2010PropOp40
 70
     1
102
RTVSPost2010Prop41ColorIndex
 90
       18
102
RTVSPost2010Prop41ColorRGB
 90
        0
102
RTVSPost2010PropOp41
 70
     1
102
RTVSPost2010Prop42
 90
       50
102
RTVSPost2010PropOp42
 70
     1
102
RTVSPost2010Prop43
 90
        3
102
RTVSPost2010PropOp43
 70
     1
102
RTVSPost2010Prop44ColorIndex
 90
        5
102
RTVSPost2010Prop44ColorRGB
 90
      255
102
RTVSPost2010PropOp44
 70
     1
102
RTVSPost2010Prop45
280
     0
102
RTVSPost2010PropOp45
 70
     1
102
RTVSPost2010Prop46
 90
       50
102
RTVSPost2010PropOp46
 70
     1
102
RTVSPost2010Prop47
 90
       50
102
RTVSPost2010PropOp47
 70
     1
102
RTVSPost2010Prop48
 90
       50
102
RTVSPost2010PropOp48
 70
     1
102
RTVSPost2010Prop49
280
     0
102
RTVSPost2010PropOp49
 70
     1
102
RTVSPost2010Prop50
 90
       50
102
RTVSPost2010PropOp50
 70
     1
102
RTVSPost2010Prop51ColorIndex
 90
      256
102
RTVSPost2010Prop51ColorRGB
 90
-16777216
102
RTVSPost2010PropOp51
 70
     0
102
RTVSPost2010Prop52
140
1.0
102
RTVSPost2010PropOp52
 70
     0
102
RTVSPost2010Prop53
 90
        2
102
RTVSPost2010PropOp53
 70
     1
102
RTVSPost2010Prop54
  1
strokes_ogs.tif
102
RTVSPost2010PropOp54
 70
     1
102
RTVSPost2010Prop55
280
     0
102
RTVSPost2010PropOp55
 70
     1
102
RTVSPost2010Prop56
140
1.0
102
RTVSPost2010PropOp56
 70
     1
102
RTVSPost2010Prop57
140
1.0
102
RTVSPost2010PropOp57
 70
     1
102
RTVSPropertyOp0
 70
     1
102
RTVSPropertyOp1
 70
     1
102
RTVSPropertyOp2
 70
     1
102
RTVSPropertyOp3
 70
     1
102
RTVSPropertyOp4
 70
     1
102
RTVSPropertyOp5
 70
     1
102
RTVSPropertyOp6
 70
     1
102
RTVSPropertyOp7
 70
     1
102
RTVSPropertyOp8
 70
     1
102
RTVSPropertyOp9
 70
     1
102
RTVSPropertyOp10
 70
     1
102
RTVSPropertyOp11
 70
     1
102
RTVSPropertyOp12
 70
     1
102
RTVSPropertyOp13
 70
     1
102
RTVSPropertyOp14
 70
     1
102
RTVSPropertyOp15
 70
     1
102
RTVSPropertyOp16
 70
     1
102
RTVSPropertyOp17
 70
     1
102
RTVSPropertyOp18
 70
     1
102
RTVSPropertyOp19
 70
     1
102
RTVSPropertyOp20
 70
     1
102
RTVSPropertyOp21
 70
     1
102
RTVSPropertyOp22
 70
     1
102
RTVSPropertyOp23
 70
     1
102
RTVSPropertyOp24
 70
     1
102
RTVSPropertyOp25
 70
     1
102
RTVSPropertyOp26
 70
     1
102
RTVSPropertyOp27
 70
     1
102
RTVSPropertyOp28
 70
     1
102
RTVSPropertyOp29
 70
     1
102
RTVSPropertyOp30
 70
     1
102
RTVSPropertyOp31
 70
     1
102
RTVSPropertyOp32
 70
     1
102
RTVSPropertyOp33
 70
     1
102
RTVSPropertyOp34
 70
     1
102
RTVSPropertyOp35
 70
     1
102
RTVSPropertyOp36
 70
     1
102
RTVSPropertyOp37
 70
     1
102
RTVSPropertyOp38
 70
     1
102
RTVSPropertyOp39
 70
     1
102
RTVSPropertyOp40
 70
     1
102
RTVSPropertyOp41
 70
     1
102
RTVSPropertyOp42
 70
     1
102
RTVSPropertyOp43
 70
     1
102
RTVSPropertyOp44
 70
     1
102
RTVSPropertyOp45
 70
     1
102
RTVSPropertyOp46
 70
     1
102
RTVSPropertyOp47
 70
     1
102
RTVSPropertyOp48
 70
     1
102
RTVSPropertyOp49
 70
     1
102
RTVSPropertyOp50
 70
     1
102
RTVSPropertyOp51
 70
     0
102
RTVSPropertyOp52
 70
     0
102
RTVSPropertyOp53
 70
     1
102
RTVSPropertyOp54
 70
     1
102
RTVSPropertyOp55
 70
     1
102
RTVSPropertyOp56
 70
     1
102
RTVSPropertyOp57
 70
     1
102
RTVSPropertyOp58
 70
     1
102
RTVSPropertyOp59
 70
     1
102
RTVSPropertyOp60
 70
     1
102
RTVSPropertyOp61
 70
     1
102
RTVSPropertyOp62
 70
     1
  0
XRECORD
  5
5961
102
{ACAD_REACTORS
330
5960
102
}
330
5960
100
AcDbXrecord
280
     1
102
RTVSPost2010Prop28
280
     0
102
RTVSPost2010PropOp28
 70
     1
102
RTVSPost2010Prop29
280
     1
102
RTVSPost2010PropOp29
 70
     1
102
RTVSPost2010Prop30
280
     1
102
RTVSPost2010PropOp30
 70
     1
102
RTVSPost2010Prop31
280
     0
102
RTVSPost2010PropOp31
 70
     1
102
RTVSPost2010Prop32
280
     0
102
RTVSPost2010PropOp32
 70
     1
102
RTVSPost2010Prop33
280
     0
102
RTVSPost2010PropOp33
 70
     1
102
RTVSPost2010Prop34
280
     0
102
RTVSPost2010PropOp34
 70
     1
102
RTVSPost2010Prop35
280
     0
102
RTVSPost2010PropOp35
 70
     1
102
RTVSPost2010Prop36
280
     0
102
RTVSPost2010PropOp36
 70
     1
102
RTVSPost2010Prop37
 90
       50
102
RTVSPost2010PropOp37
 70
     1
102
RTVSPost2010Prop38
140
0.0
102
RTVSPost2010PropOp38
 70
     1
102
RTVSPost2010Prop39
140
1.0
102
RTVSPost2010PropOp39
 70
     1
102
RTVSPost2010Prop40
 90
        0
102
RTVSPost2010PropOp40
 70
     1
102
RTVSPost2010Prop41ColorIndex
 90
       18
102
RTVSPost2010Prop41ColorRGB
 90
        0
102
RTVSPost2010PropOp41
 70
     1
102
RTVSPost2010Prop42
 90
       50
102
RTVSPost2010PropOp42
 70
     1
102
RTVSPost2010Prop43
 90
        3
102
RTVSPost2010PropOp43
 70
     1
102
RTVSPost2010Prop44ColorIndex
 90
        5
102
RTVSPost2010Prop44ColorRGB
 90
      255
102
RTVSPost2010PropOp44
 70
     1
102
RTVSPost2010Prop45
280
     0
102
RTVSPost2010PropOp45
 70
     1
102
RTVSPost2010Prop46
 90
       50
102
RTVSPost2010PropOp46
 70
     1
102
RTVSPost2010Prop47
 90
       50
102
RTVSPost2010PropOp47
 70
     1
102
RTVSPost2010Prop48
 90
       50
102
RTVSPost2010PropOp48
 70
     1
102
RTVSPost2010Prop49
280
     0
102
RTVSPost2010PropOp49
 70
     1
102
RTVSPost2010Prop50
 90
       50
102
RTVSPost2010PropOp50
 70
     1
102
RTVSPost2010Prop51ColorIndex
 90
      256
102
RTVSPost2010Prop51ColorRGB
 90
-16777216
102
RTVSPost2010PropOp51
 70
     0
102
RTVSPost2010Prop52
140
1.0
102
RTVSPost2010PropOp52
 70
     0
102
RTVSPost2010Prop53
 90
        2
102
RTVSPost2010PropOp53
 70
     1
102
RTVSPost2010Prop54
  1
strokes_ogs.tif
102
RTVSPost2010PropOp54
 70
     1
102
RTVSPost2010Prop55
280
     0
102
RTVSPost2010PropOp55
 70
     1
102
RTVSPost2010Prop56
140
1.0
102
RTVSPost2010PropOp56
 70
     1
102
RTVSPost2010Prop57
140
1.0
102
RTVSPost2010PropOp57
 70
     1
102
RTVSPropertyOp0
 70
     1
102
RTVSPropertyOp1
 70
     1
102
RTVSPropertyOp2
 70
     1
102
RTVSPropertyOp3
 70
     1
102
RTVSPropertyOp4
 70
     1
102
RTVSPropertyOp5
 70
     1
102
RTVSPropertyOp6
 70
     1
102
RTVSPropertyOp7
 70
     1
102
RTVSPropertyOp8
 70
     1
102
RTVSPropertyOp9
 70
     1
102
RTVSPropertyOp10
 70
     1
102
RTVSPropertyOp11
 70
     1
102
RTVSPropertyOp12
 70
     1
102
RTVSPropertyOp13
 70
     1
102
RTVSPropertyOp14
 70
     1
102
RTVSPropertyOp15
 70
     1
102
RTVSPropertyOp16
 70
     1
102
RTVSPropertyOp17
 70
     1
102
RTVSPropertyOp18
 70
     1
102
RTVSPropertyOp19
 70
     1
102
RTVSPropertyOp20
 70
     1
102
RTVSPropertyOp21
 70
     1
102
RTVSPropertyOp22
 70
     1
102
RTVSPropertyOp23
 70
     1
102
RTVSPropertyOp24
 70
     1
102
RTVSPropertyOp25
 70
     1
102
RTVSPropertyOp26
 70
     1
102
RTVSPropertyOp27
 70
     1
102
RTVSPropertyOp28
 70
     1
102
RTVSPropertyOp29
 70
     1
102
RTVSPropertyOp30
 70
     1
102
RTVSPropertyOp31
 70
     1
102
RTVSPropertyOp32
 70
     1
102
RTVSPropertyOp33
 70
     1
102
RTVSPropertyOp34
 70
     1
102
RTVSPropertyOp35
 70
     1
102
RTVSPropertyOp36
 70
     1
102
RTVSPropertyOp37
 70
     1
102
RTVSPropertyOp38
 70
     1
102
RTVSPropertyOp39
 70
     1
102
RTVSPropertyOp40
 70
     1
102
RTVSPropertyOp41
 70
     1
102
RTVSPropertyOp42
 70
     1
102
RTVSPropertyOp43
 70
     1
102
RTVSPropertyOp44
 70
     1
102
RTVSPropertyOp45
 70
     1
102
RTVSPropertyOp46
 70
     1
102
RTVSPropertyOp47
 70
     1
102
RTVSPropertyOp48
 70
     1
102
RTVSPropertyOp49
 70
     1
102
RTVSPropertyOp50
 70
     1
102
RTVSPropertyOp51
 70
     0
102
RTVSPropertyOp52
 70
     0
102
RTVSPropertyOp53
 70
     1
102
RTVSPropertyOp54
 70
     1
102
RTVSPropertyOp55
 70
     1
102
RTVSPropertyOp56
 70
     1
102
RTVSPropertyOp57
 70
     1
102
RTVSPropertyOp58
 70
     1
102
RTVSPropertyOp59
 70
     1
102
RTVSPropertyOp60
 70
     1
102
RTVSPropertyOp61
 70
     1
102
RTVSPropertyOp62
 70
     1
  0
XRECORD
  5
597B
102
{ACAD_REACTORS
330
597A
102
}
330
597A
100
AcDbXrecord
280
     1
102
RTVSPost2010Prop28
280
     0
102
RTVSPost2010PropOp28
 70
     1
102
RTVSPost2010Prop29
280
     1
102
RTVSPost2010PropOp29
 70
     1
102
RTVSPost2010Prop30
280
     1
102
RTVSPost2010PropOp30
 70
     1
102
RTVSPost2010Prop31
280
     0
102
RTVSPost2010PropOp31
 70
     1
102
RTVSPost2010Prop32
280
     0
102
RTVSPost2010PropOp32
 70
     1
102
RTVSPost2010Prop33
280
     0
102
RTVSPost2010PropOp33
 70
     1
102
RTVSPost2010Prop34
280
     0
102
RTVSPost2010PropOp34
 70
     1
102
RTVSPost2010Prop35
280
     0
102
RTVSPost2010PropOp35
 70
     1
102
RTVSPost2010Prop36
280
     0
102
RTVSPost2010PropOp36
 70
     1
102
RTVSPost2010Prop37
 90
       50
102
RTVSPost2010PropOp37
 70
     0
102
RTVSPost2010Prop38
140
0.0
102
RTVSPost2010PropOp38
 70
     0
102
RTVSPost2010Prop39
140
1.0
102
RTVSPost2010PropOp39
 70
     0
102
RTVSPost2010Prop40
 90
        0
102
RTVSPost2010PropOp40
 70
     0
102
RTVSPost2010Prop41ColorIndex
 90
       18
102
RTVSPost2010Prop41ColorRGB
 90
        0
102
RTVSPost2010PropOp41
 70
     0
102
RTVSPost2010Prop42
 90
       50
102
RTVSPost2010PropOp42
 70
     0
102
RTVSPost2010Prop43
 90
        3
102
RTVSPost2010PropOp43
 70
     0
102
RTVSPost2010Prop44ColorIndex
 90
        5
102
RTVSPost2010Prop44ColorRGB
 90
      255
102
RTVSPost2010PropOp44
 70
     0
102
RTVSPost2010Prop45
280
     0
102
RTVSPost2010PropOp45
 70
     1
102
RTVSPost2010Prop46
 90
       50
102
RTVSPost2010PropOp46
 70
     0
102
RTVSPost2010Prop47
 90
       50
102
RTVSPost2010PropOp47
 70
     0
102
RTVSPost2010Prop48
 90
       50
102
RTVSPost2010PropOp48
 70
     0
102
RTVSPost2010Prop49
280
     0
102
RTVSPost2010PropOp49
 70
     1
102
RTVSPost2010Prop50
 90
       50
102
RTVSPost2010PropOp50
 70
     0
102
RTVSPost2010Prop51ColorIndex
 90
      256
102
RTVSPost2010Prop51ColorRGB
 90
-16777216
102
RTVSPost2010PropOp51
 70
     0
102
RTVSPost2010Prop52
140
1.0
102
RTVSPost2010PropOp52
 70
     0
102
RTVSPost2010Prop53
 90
        2
102
RTVSPost2010PropOp53
 70
     0
102
RTVSPost2010Prop54
  1
strokes_ogs.tif
102
RTVSPost2010PropOp54
 70
     0
102
RTVSPost2010Prop55
280
     0
102
RTVSPost2010PropOp55
 70
     1
102
RTVSPost2010Prop56
140
1.0
102
RTVSPost2010PropOp56
 70
     0
102
RTVSPost2010Prop57
140
1.0
102
RTVSPost2010PropOp57
 70
     0
102
RTVSPropertyOp0
 70
     0
102
RTVSPropertyOp1
 70
     0
102
RTVSPropertyOp2
 70
     0
102
RTVSPropertyOp3
 70
     0
102
RTVSPropertyOp4
 70
     0
102
RTVSPropertyOp5
 70
     0
102
RTVSPropertyOp6
 70
     0
102
RTVSPropertyOp7
 70
     0
102
RTVSPropertyOp8
 70
     0
102
RTVSPropertyOp9
 70
     0
102
RTVSPropertyOp10
 70
     0
102
RTVSPropertyOp11
 70
     0
102
RTVSPropertyOp12
 70
     0
102
RTVSPropertyOp13
 70
     0
102
RTVSPropertyOp14
 70
     2
102
RTVSPropertyOp15
 70
     0
102
RTVSPropertyOp16
 70
     0
102
RTVSPropertyOp17
 70
     0
102
RTVSPropertyOp18
 70
     0
102
RTVSPropertyOp19
 70
     0
102
RTVSPropertyOp20
 70
     0
102
RTVSPropertyOp21
 70
     0
102
RTVSPropertyOp22
 70
     0
102
RTVSPropertyOp23
 70
     0
102
RTVSPropertyOp24
 70
     0
102
RTVSPropertyOp25
 70
     0
102
RTVSPropertyOp26
 70
     0
102
RTVSPropertyOp27
 70
     0
102
RTVSPropertyOp28
 70
     1
102
RTVSPropertyOp29
 70
     1
102
RTVSPropertyOp30
 70
     1
102
RTVSPropertyOp31
 70
     1
102
RTVSPropertyOp32
 70
     1
102
RTVSPropertyOp33
 70
     1
102
RTVSPropertyOp34
 70
     1
102
RTVSPropertyOp35
 70
     1
102
RTVSPropertyOp36
 70
     1
102
RTVSPropertyOp37
 70
     0
102
RTVSPropertyOp38
 70
     0
102
RTVSPropertyOp39
 70
     0
102
RTVSPropertyOp40
 70
     0
102
RTVSPropertyOp41
 70
     0
102
RTVSPropertyOp42
 70
     0
102
RTVSPropertyOp43
 70
     0
102
RTVSPropertyOp44
 70
     0
102
RTVSPropertyOp45
 70
     1
102
RTVSPropertyOp46
 70
     0
102
RTVSPropertyOp47
 70
     0
102
RTVSPropertyOp48
 70
     0
102
RTVSPropertyOp49
 70
     1
102
RTVSPropertyOp50
 70
     0
102
RTVSPropertyOp51
 70
     0
102
RTVSPropertyOp52
 70
     0
102
RTVSPropertyOp53
 70
     0
102
RTVSPropertyOp54
 70
     0
102
RTVSPropertyOp55
 70
     1
102
RTVSPropertyOp56
 70
     0
102
RTVSPropertyOp57
 70
     0
102
RTVSPropertyOp58
 70
     1
102
RTVSPropertyOp59
 70
     1
102
RTVSPropertyOp60
 70
     1
102
RTVSPropertyOp61
 70
     1
102
RTVSPropertyOp62
 70
     1
  0
XRECORD
  5
5969
102
{ACAD_REACTORS
330
5968
102
}
330
5968
100
AcDbXrecord
280
     1
102
RTVSPost2010Prop28
280
     0
102
RTVSPost2010PropOp28
 70
     1
102
RTVSPost2010Prop29
280
     1
102
RTVSPost2010PropOp29
 70
     1
102
RTVSPost2010Prop30
280
     1
102
RTVSPost2010PropOp30
 70
     1
102
RTVSPost2010Prop31
280
     0
102
RTVSPost2010PropOp31
 70
     1
102
RTVSPost2010Prop32
280
     0
102
RTVSPost2010PropOp32
 70
     1
102
RTVSPost2010Prop33
280
     0
102
RTVSPost2010PropOp33
 70
     1
102
RTVSPost2010Prop34
280
     0
102
RTVSPost2010PropOp34
 70
     1
102
RTVSPost2010Prop35
280
     0
102
RTVSPost2010PropOp35
 70
     1
102
RTVSPost2010Prop36
280
     0
102
RTVSPost2010PropOp36
 70
     1
102
RTVSPost2010Prop37
 90
       50
102
RTVSPost2010PropOp37
 70
     1
102
RTVSPost2010Prop38
140
0.0
102
RTVSPost2010PropOp38
 70
     1
102
RTVSPost2010Prop39
140
1.0
102
RTVSPost2010PropOp39
 70
     1
102
RTVSPost2010Prop40
 90
        0
102
RTVSPost2010PropOp40
 70
     1
102
RTVSPost2010Prop41ColorIndex
 90
       18
102
RTVSPost2010Prop41ColorRGB
 90
        0
102
RTVSPost2010PropOp41
 70
     1
102
RTVSPost2010Prop42
 90
       50
102
RTVSPost2010PropOp42
 70
     1
102
RTVSPost2010Prop43
 90
        3
102
RTVSPost2010PropOp43
 70
     1
102
RTVSPost2010Prop44ColorIndex
 90
        5
102
RTVSPost2010Prop44ColorRGB
 90
      255
102
RTVSPost2010PropOp44
 70
     1
102
RTVSPost2010Prop45
280
     0
102
RTVSPost2010PropOp45
 70
     1
102
RTVSPost2010Prop46
 90
       50
102
RTVSPost2010PropOp46
 70
     1
102
RTVSPost2010Prop47
 90
       50
102
RTVSPost2010PropOp47
 70
     1
102
RTVSPost2010Prop48
 90
       50
102
RTVSPost2010PropOp48
 70
     1
102
RTVSPost2010Prop49
280
     0
102
RTVSPost2010PropOp49
 70
     1
102
RTVSPost2010Prop50
 90
       50
102
RTVSPost2010PropOp50
 70
     1
102
RTVSPost2010Prop51ColorIndex
 90
      256
102
RTVSPost2010Prop51ColorRGB
 90
-16777216
102
RTVSPost2010PropOp51
 70
     0
102
RTVSPost2010Prop52
140
1.0
102
RTVSPost2010PropOp52
 70
     0
102
RTVSPost2010Prop53
 90
        2
102
RTVSPost2010PropOp53
 70
     1
102
RTVSPost2010Prop54
  1
strokes_ogs.tif
102
RTVSPost2010PropOp54
 70
     1
102
RTVSPost2010Prop55
280
     0
102
RTVSPost2010PropOp55
 70
     1
102
RTVSPost2010Prop56
140
1.0
102
RTVSPost2010PropOp56
 70
     1
102
RTVSPost2010Prop57
140
1.0
102
RTVSPost2010PropOp57
 70
     1
102
RTVSPropertyOp0
 70
     1
102
RTVSPropertyOp1
 70
     1
102
RTVSPropertyOp2
 70
     1
102
RTVSPropertyOp3
 70
     1
102
RTVSPropertyOp4
 70
     1
102
RTVSPropertyOp5
 70
     1
102
RTVSPropertyOp6
 70
     1
102
RTVSPropertyOp7
 70
     1
102
RTVSPropertyOp8
 70
     1
102
RTVSPropertyOp9
 70
     1
102
RTVSPropertyOp10
 70
     1
102
RTVSPropertyOp11
 70
     1
102
RTVSPropertyOp12
 70
     1
102
RTVSPropertyOp13
 70
     1
102
RTVSPropertyOp14
 70
     1
102
RTVSPropertyOp15
 70
     1
102
RTVSPropertyOp16
 70
     1
102
RTVSPropertyOp17
 70
     1
102
RTVSPropertyOp18
 70
     1
102
RTVSPropertyOp19
 70
     1
102
RTVSPropertyOp20
 70
     1
102
RTVSPropertyOp21
 70
     1
102
RTVSPropertyOp22
 70
     1
102
RTVSPropertyOp23
 70
     1
102
RTVSPropertyOp24
 70
     1
102
RTVSPropertyOp25
 70
     1
102
RTVSPropertyOp26
 70
     1
102
RTVSPropertyOp27
 70
     1
102
RTVSPropertyOp28
 70
     1
102
RTVSPropertyOp29
 70
     1
102
RTVSPropertyOp30
 70
     1
102
RTVSPropertyOp31
 70
     1
102
RTVSPropertyOp32
 70
     1
102
RTVSPropertyOp33
 70
     1
102
RTVSPropertyOp34
 70
     1
102
RTVSPropertyOp35
 70
     1
102
RTVSPropertyOp36
 70
     1
102
RTVSPropertyOp37
 70
     1
102
RTVSPropertyOp38
 70
     1
102
RTVSPropertyOp39
 70
     1
102
RTVSPropertyOp40
 70
     1
102
RTVSPropertyOp41
 70
     1
102
RTVSPropertyOp42
 70
     1
102
RTVSPropertyOp43
 70
     1
102
RTVSPropertyOp44
 70
     1
102
RTVSPropertyOp45
 70
     1
102
RTVSPropertyOp46
 70
     1
102
RTVSPropertyOp47
 70
     1
102
RTVSPropertyOp48
 70
     1
102
RTVSPropertyOp49
 70
     1
102
RTVSPropertyOp50
 70
     1
102
RTVSPropertyOp51
 70
     0
102
RTVSPropertyOp52
 70
     0
102
RTVSPropertyOp53
 70
     1
102
RTVSPropertyOp54
 70
     1
102
RTVSPropertyOp55
 70
     1
102
RTVSPropertyOp56
 70
     1
102
RTVSPropertyOp57
 70
     1
102
RTVSPropertyOp58
 70
     1
102
RTVSPropertyOp59
 70
     1
102
RTVSPropertyOp60
 70
     1
102
RTVSPropertyOp61
 70
     1
102
RTVSPropertyOp62
 70
     1
  0
XRECORD
  5
594D
102
{ACAD_REACTORS
330
594C
102
}
330
594C
100
AcDbXrecord
280
     1
102
RTVSPost2010Prop28
280
     0
102
RTVSPost2010PropOp28
 70
     1
102
RTVSPost2010Prop29
280
     1
102
RTVSPost2010PropOp29
 70
     1
102
RTVSPost2010Prop30
280
     1
102
RTVSPost2010PropOp30
 70
     1
102
RTVSPost2010Prop31
280
     0
102
RTVSPost2010PropOp31
 70
     1
102
RTVSPost2010Prop32
280
     0
102
RTVSPost2010PropOp32
 70
     1
102
RTVSPost2010Prop33
280
     0
102
RTVSPost2010PropOp33
 70
     1
102
RTVSPost2010Prop34
280
     0
102
RTVSPost2010PropOp34
 70
     1
102
RTVSPost2010Prop35
280
     0
102
RTVSPost2010PropOp35
 70
     1
102
RTVSPost2010Prop36
280
     0
102
RTVSPost2010PropOp36
 70
     1
102
RTVSPost2010Prop37
 90
       50
102
RTVSPost2010PropOp37
 70
     1
102
RTVSPost2010Prop38
140
0.0
102
RTVSPost2010PropOp38
 70
     1
102
RTVSPost2010Prop39
140
1.0
102
RTVSPost2010PropOp39
 70
     1
102
RTVSPost2010Prop40
 90
        0
102
RTVSPost2010PropOp40
 70
     1
102
RTVSPost2010Prop41ColorIndex
 90
       18
102
RTVSPost2010Prop41ColorRGB
 90
        0
102
RTVSPost2010PropOp41
 70
     1
102
RTVSPost2010Prop42
 90
       50
102
RTVSPost2010PropOp42
 70
     1
102
RTVSPost2010Prop43
 90
        3
102
RTVSPost2010PropOp43
 70
     1
102
RTVSPost2010Prop44ColorIndex
 90
        5
102
RTVSPost2010Prop44ColorRGB
 90
      255
102
RTVSPost2010PropOp44
 70
     1
102
RTVSPost2010Prop45
280
     0
102
RTVSPost2010PropOp45
 70
     1
102
RTVSPost2010Prop46
 90
       50
102
RTVSPost2010PropOp46
 70
     1
102
RTVSPost2010Prop47
 90
       50
102
RTVSPost2010PropOp47
 70
     1
102
RTVSPost2010Prop48
 90
       50
102
RTVSPost2010PropOp48
 70
     1
102
RTVSPost2010Prop49
280
     0
102
RTVSPost2010PropOp49
 70
     1
102
RTVSPost2010Prop50
 90
       50
102
RTVSPost2010PropOp50
 70
     1
102
RTVSPost2010Prop51ColorIndex
 90
      256
102
RTVSPost2010Prop51ColorRGB
 90
-16777216
102
RTVSPost2010PropOp51
 70
     0
102
RTVSPost2010Prop52
140
1.0
102
RTVSPost2010PropOp52
 70
     0
102
RTVSPost2010Prop53
 90
        2
102
RTVSPost2010PropOp53
 70
     1
102
RTVSPost2010Prop54
  1
strokes_ogs.tif
102
RTVSPost2010PropOp54
 70
     1
102
RTVSPost2010Prop55
280
     0
102
RTVSPost2010PropOp55
 70
     1
102
RTVSPost2010Prop56
140
1.0
102
RTVSPost2010PropOp56
 70
     1
102
RTVSPost2010Prop57
140
1.0
102
RTVSPost2010PropOp57
 70
     1
102
RTVSPropertyOp0
 70
     1
102
RTVSPropertyOp1
 70
     1
102
RTVSPropertyOp2
 70
     1
102
RTVSPropertyOp3
 70
     1
102
RTVSPropertyOp4
 70
     1
102
RTVSPropertyOp5
 70
     1
102
RTVSPropertyOp6
 70
     1
102
RTVSPropertyOp7
 70
     1
102
RTVSPropertyOp8
 70
     1
102
RTVSPropertyOp9
 70
     1
102
RTVSPropertyOp10
 70
     1
102
RTVSPropertyOp11
 70
     1
102
RTVSPropertyOp12
 70
     1
102
RTVSPropertyOp13
 70
     1
102
RTVSPropertyOp14
 70
     1
102
RTVSPropertyOp15
 70
     1
102
RTVSPropertyOp16
 70
     1
102
RTVSPropertyOp17
 70
     1
102
RTVSPropertyOp18
 70
     1
102
RTVSPropertyOp19
 70
     1
102
RTVSPropertyOp20
 70
     1
102
RTVSPropertyOp21
 70
     1
102
RTVSPropertyOp22
 70
     1
102
RTVSPropertyOp23
 70
     1
102
RTVSPropertyOp24
 70
     1
102
RTVSPropertyOp25
 70
     1
102
RTVSPropertyOp26
 70
     1
102
RTVSPropertyOp27
 70
     1
102
RTVSPropertyOp28
 70
     1
102
RTVSPropertyOp29
 70
     1
102
RTVSPropertyOp30
 70
     1
102
RTVSPropertyOp31
 70
     1
102
RTVSPropertyOp32
 70
     1
102
RTVSPropertyOp33
 70
     1
102
RTVSPropertyOp34
 70
     1
102
RTVSPropertyOp35
 70
     1
102
RTVSPropertyOp36
 70
     1
102
RTVSPropertyOp37
 70
     1
102
RTVSPropertyOp38
 70
     1
102
RTVSPropertyOp39
 70
     1
102
RTVSPropertyOp40
 70
     1
102
RTVSPropertyOp41
 70
     1
102
RTVSPropertyOp42
 70
     1
102
RTVSPropertyOp43
 70
     1
102
RTVSPropertyOp44
 70
     1
102
RTVSPropertyOp45
 70
     1
102
RTVSPropertyOp46
 70
     1
102
RTVSPropertyOp47
 70
     1
102
RTVSPropertyOp48
 70
     1
102
RTVSPropertyOp49
 70
     1
102
RTVSPropertyOp50
 70
     1
102
RTVSPropertyOp51
 70
     0
102
RTVSPropertyOp52
 70
     0
102
RTVSPropertyOp53
 70
     1
102
RTVSPropertyOp54
 70
     1
102
RTVSPropertyOp55
 70
     1
102
RTVSPropertyOp56
 70
     1
102
RTVSPropertyOp57
 70
     1
102
RTVSPropertyOp58
 70
     1
102
RTVSPropertyOp59
 70
     1
102
RTVSPropertyOp60
 70
     1
102
RTVSPropertyOp61
 70
     1
102
RTVSPropertyOp62
 70
     1
  0
XRECORD
  5
594F
102
{ACAD_REACTORS
330
594E
102
}
330
594E
100
AcDbXrecord
280
     1
102
RTVSPost2010Prop28
280
     0
102
RTVSPost2010PropOp28
 70
     1
102
RTVSPost2010Prop29
280
     1
102
RTVSPost2010PropOp29
 70
     1
102
RTVSPost2010Prop30
280
     1
102
RTVSPost2010PropOp30
 70
     1
102
RTVSPost2010Prop31
280
     0
102
RTVSPost2010PropOp31
 70
     1
102
RTVSPost2010Prop32
280
     0
102
RTVSPost2010PropOp32
 70
     1
102
RTVSPost2010Prop33
280
     0
102
RTVSPost2010PropOp33
 70
     1
102
RTVSPost2010Prop34
280
     0
102
RTVSPost2010PropOp34
 70
     1
102
RTVSPost2010Prop35
280
     0
102
RTVSPost2010PropOp35
 70
     1
102
RTVSPost2010Prop36
280
     0
102
RTVSPost2010PropOp36
 70
     1
102
RTVSPost2010Prop37
 90
       50
102
RTVSPost2010PropOp37
 70
     1
102
RTVSPost2010Prop38
140
0.0
102
RTVSPost2010PropOp38
 70
     1
102
RTVSPost2010Prop39
140
1.0
102
RTVSPost2010PropOp39
 70
     1
102
RTVSPost2010Prop40
 90
        0
102
RTVSPost2010PropOp40
 70
     1
102
RTVSPost2010Prop41ColorIndex
 90
       18
102
RTVSPost2010Prop41ColorRGB
 90
        0
102
RTVSPost2010PropOp41
 70
     1
102
RTVSPost2010Prop42
 90
       50
102
RTVSPost2010PropOp42
 70
     1
102
RTVSPost2010Prop43
 90
        3
102
RTVSPost2010PropOp43
 70
     1
102
RTVSPost2010Prop44ColorIndex
 90
        5
102
RTVSPost2010Prop44ColorRGB
 90
      255
102
RTVSPost2010PropOp44
 70
     1
102
RTVSPost2010Prop45
280
     0
102
RTVSPost2010PropOp45
 70
     1
102
RTVSPost2010Prop46
 90
       50
102
RTVSPost2010PropOp46
 70
     1
102
RTVSPost2010Prop47
 90
       50
102
RTVSPost2010PropOp47
 70
     1
102
RTVSPost2010Prop48
 90
       50
102
RTVSPost2010PropOp48
 70
     1
102
RTVSPost2010Prop49
280
     0
102
RTVSPost2010PropOp49
 70
     1
102
RTVSPost2010Prop50
 90
       50
102
RTVSPost2010PropOp50
 70
     1
102
RTVSPost2010Prop51ColorIndex
 90
      256
102
RTVSPost2010Prop51ColorRGB
 90
-16777216
102
RTVSPost2010PropOp51
 70
     0
102
RTVSPost2010Prop52
140
1.0
102
RTVSPost2010PropOp52
 70
     0
102
RTVSPost2010Prop53
 90
        2
102
RTVSPost2010PropOp53
 70
     1
102
RTVSPost2010Prop54
  1
strokes_ogs.tif
102
RTVSPost2010PropOp54
 70
     1
102
RTVSPost2010Prop55
280
     0
102
RTVSPost2010PropOp55
 70
     1
102
RTVSPost2010Prop56
140
1.0
102
RTVSPost2010PropOp56
 70
     1
102
RTVSPost2010Prop57
140
1.0
102
RTVSPost2010PropOp57
 70
     1
102
RTVSPropertyOp0
 70
     1
102
RTVSPropertyOp1
 70
     1
102
RTVSPropertyOp2
 70
     1
102
RTVSPropertyOp3
 70
     1
102
RTVSPropertyOp4
 70
     1
102
RTVSPropertyOp5
 70
     1
102
RTVSPropertyOp6
 70
     1
102
RTVSPropertyOp7
 70
     1
102
RTVSPropertyOp8
 70
     1
102
RTVSPropertyOp9
 70
     1
102
RTVSPropertyOp10
 70
     1
102
RTVSPropertyOp11
 70
     1
102
RTVSPropertyOp12
 70
     1
102
RTVSPropertyOp13
 70
     1
102
RTVSPropertyOp14
 70
     1
102
RTVSPropertyOp15
 70
     1
102
RTVSPropertyOp16
 70
     1
102
RTVSPropertyOp17
 70
     1
102
RTVSPropertyOp18
 70
     1
102
RTVSPropertyOp19
 70
     1
102
RTVSPropertyOp20
 70
     1
102
RTVSPropertyOp21
 70
     1
102
RTVSPropertyOp22
 70
     1
102
RTVSPropertyOp23
 70
     1
102
RTVSPropertyOp24
 70
     1
102
RTVSPropertyOp25
 70
     1
102
RTVSPropertyOp26
 70
     1
102
RTVSPropertyOp27
 70
     1
102
RTVSPropertyOp28
 70
     1
102
RTVSPropertyOp29
 70
     1
102
RTVSPropertyOp30
 70
     1
102
RTVSPropertyOp31
 70
     1
102
RTVSPropertyOp32
 70
     1
102
RTVSPropertyOp33
 70
     1
102
RTVSPropertyOp34
 70
     1
102
RTVSPropertyOp35
 70
     1
102
RTVSPropertyOp36
 70
     1
102
RTVSPropertyOp37
 70
     1
102
RTVSPropertyOp38
 70
     1
102
RTVSPropertyOp39
 70
     1
102
RTVSPropertyOp40
 70
     1
102
RTVSPropertyOp41
 70
     1
102
RTVSPropertyOp42
 70
     1
102
RTVSPropertyOp43
 70
     1
102
RTVSPropertyOp44
 70
     1
102
RTVSPropertyOp45
 70
     1
102
RTVSPropertyOp46
 70
     1
102
RTVSPropertyOp47
 70
     1
102
RTVSPropertyOp48
 70
     1
102
RTVSPropertyOp49
 70
     1
102
RTVSPropertyOp50
 70
     1
102
RTVSPropertyOp51
 70
     0
102
RTVSPropertyOp52
 70
     0
102
RTVSPropertyOp53
 70
     1
102
RTVSPropertyOp54
 70
     1
102
RTVSPropertyOp55
 70
     1
102
RTVSPropertyOp56
 70
     1
102
RTVSPropertyOp57
 70
     1
102
RTVSPropertyOp58
 70
     1
102
RTVSPropertyOp59
 70
     1
102
RTVSPropertyOp60
 70
     1
102
RTVSPropertyOp61
 70
     1
102
RTVSPropertyOp62
 70
     1
  0
XRECORD
  5
5951
102
{ACAD_REACTORS
330
5950
102
}
330
5950
100
AcDbXrecord
280
     1
102
RTVSPost2010Prop28
280
     0
102
RTVSPost2010PropOp28
 70
     1
102
RTVSPost2010Prop29
280
     1
102
RTVSPost2010PropOp29
 70
     1
102
RTVSPost2010Prop30
280
     1
102
RTVSPost2010PropOp30
 70
     1
102
RTVSPost2010Prop31
280
     0
102
RTVSPost2010PropOp31
 70
     1
102
RTVSPost2010Prop32
280
     0
102
RTVSPost2010PropOp32
 70
     1
102
RTVSPost2010Prop33
280
     0
102
RTVSPost2010PropOp33
 70
     1
102
RTVSPost2010Prop34
280
     0
102
RTVSPost2010PropOp34
 70
     1
102
RTVSPost2010Prop35
280
     0
102
RTVSPost2010PropOp35
 70
     1
102
RTVSPost2010Prop36
280
     0
102
RTVSPost2010PropOp36
 70
     1
102
RTVSPost2010Prop37
 90
       50
102
RTVSPost2010PropOp37
 70
     1
102
RTVSPost2010Prop38
140
0.0
102
RTVSPost2010PropOp38
 70
     1
102
RTVSPost2010Prop39
140
1.0
102
RTVSPost2010PropOp39
 70
     1
102
RTVSPost2010Prop40
 90
        0
102
RTVSPost2010PropOp40
 70
     1
102
RTVSPost2010Prop41ColorIndex
 90
       18
102
RTVSPost2010Prop41ColorRGB
 90
        0
102
RTVSPost2010PropOp41
 70
     1
102
RTVSPost2010Prop42
 90
       50
102
RTVSPost2010PropOp42
 70
     1
102
RTVSPost2010Prop43
 90
        3
102
RTVSPost2010PropOp43
 70
     1
102
RTVSPost2010Prop44ColorIndex
 90
        5
102
RTVSPost2010Prop44ColorRGB
 90
      255
102
RTVSPost2010PropOp44
 70
     1
102
RTVSPost2010Prop45
280
     0
102
RTVSPost2010PropOp45
 70
     1
102
RTVSPost2010Prop46
 90
       50
102
RTVSPost2010PropOp46
 70
     1
102
RTVSPost2010Prop47
 90
       50
102
RTVSPost2010PropOp47
 70
     1
102
RTVSPost2010Prop48
 90
       50
102
RTVSPost2010PropOp48
 70
     1
102
RTVSPost2010Prop49
280
     0
102
RTVSPost2010PropOp49
 70
     1
102
RTVSPost2010Prop50
 90
       50
102
RTVSPost2010PropOp50
 70
     1
102
RTVSPost2010Prop51ColorIndex
 90
      256
102
RTVSPost2010Prop51ColorRGB
 90
-16777216
102
RTVSPost2010PropOp51
 70
     0
102
RTVSPost2010Prop52
140
1.0
102
RTVSPost2010PropOp52
 70
     0
102
RTVSPost2010Prop53
 90
        2
102
RTVSPost2010PropOp53
 70
     1
102
RTVSPost2010Prop54
  1
strokes_ogs.tif
102
RTVSPost2010PropOp54
 70
     1
102
RTVSPost2010Prop55
280
     0
102
RTVSPost2010PropOp55
 70
     1
102
RTVSPost2010Prop56
140
1.0
102
RTVSPost2010PropOp56
 70
     1
102
RTVSPost2010Prop57
140
1.0
102
RTVSPost2010PropOp57
 70
     1
102
RTVSPropertyOp0
 70
     1
102
RTVSPropertyOp1
 70
     1
102
RTVSPropertyOp2
 70
     1
102
RTVSPropertyOp3
 70
     1
102
RTVSPropertyOp4
 70
     1
102
RTVSPropertyOp5
 70
     1
102
RTVSPropertyOp6
 70
     1
102
RTVSPropertyOp7
 70
     1
102
RTVSPropertyOp8
 70
     1
102
RTVSPropertyOp9
 70
     1
102
RTVSPropertyOp10
 70
     1
102
RTVSPropertyOp11
 70
     1
102
RTVSPropertyOp12
 70
     1
102
RTVSPropertyOp13
 70
     1
102
RTVSPropertyOp14
 70
     1
102
RTVSPropertyOp15
 70
     1
102
RTVSPropertyOp16
 70
     1
102
RTVSPropertyOp17
 70
     1
102
RTVSPropertyOp18
 70
     1
102
RTVSPropertyOp19
 70
     1
102
RTVSPropertyOp20
 70
     1
102
RTVSPropertyOp21
 70
     1
102
RTVSPropertyOp22
 70
     1
102
RTVSPropertyOp23
 70
     1
102
RTVSPropertyOp24
 70
     1
102
RTVSPropertyOp25
 70
     1
102
RTVSPropertyOp26
 70
     1
102
RTVSPropertyOp27
 70
     1
102
RTVSPropertyOp28
 70
     1
102
RTVSPropertyOp29
 70
     1
102
RTVSPropertyOp30
 70
     1
102
RTVSPropertyOp31
 70
     1
102
RTVSPropertyOp32
 70
     1
102
RTVSPropertyOp33
 70
     1
102
RTVSPropertyOp34
 70
     1
102
RTVSPropertyOp35
 70
     1
102
RTVSPropertyOp36
 70
     1
102
RTVSPropertyOp37
 70
     1
102
RTVSPropertyOp38
 70
     1
102
RTVSPropertyOp39
 70
     1
102
RTVSPropertyOp40
 70
     1
102
RTVSPropertyOp41
 70
     1
102
RTVSPropertyOp42
 70
     1
102
RTVSPropertyOp43
 70
     1
102
RTVSPropertyOp44
 70
     1
102
RTVSPropertyOp45
 70
     1
102
RTVSPropertyOp46
 70
     1
102
RTVSPropertyOp47
 70
     1
102
RTVSPropertyOp48
 70
     1
102
RTVSPropertyOp49
 70
     1
102
RTVSPropertyOp50
 70
     1
102
RTVSPropertyOp51
 70
     0
102
RTVSPropertyOp52
 70
     0
102
RTVSPropertyOp53
 70
     1
102
RTVSPropertyOp54
 70
     1
102
RTVSPropertyOp55
 70
     1
102
RTVSPropertyOp56
 70
     1
102
RTVSPropertyOp57
 70
     1
102
RTVSPropertyOp58
 70
     1
102
RTVSPropertyOp59
 70
     1
102
RTVSPropertyOp60
 70
     1
102
RTVSPropertyOp61
 70
     1
102
RTVSPropertyOp62
 70
     1
  0
XRECORD
  5
5953
102
{ACAD_REACTORS
330
5952
102
}
330
5952
100
AcDbXrecord
280
     1
102
RTVSPost2010Prop28
280
     0
102
RTVSPost2010PropOp28
 70
     1
102
RTVSPost2010Prop29
280
     1
102
RTVSPost2010PropOp29
 70
     1
102
RTVSPost2010Prop30
280
     1
102
RTVSPost2010PropOp30
 70
     1
102
RTVSPost2010Prop31
280
     0
102
RTVSPost2010PropOp31
 70
     1
102
RTVSPost2010Prop32
280
     0
102
RTVSPost2010PropOp32
 70
     1
102
RTVSPost2010Prop33
280
     0
102
RTVSPost2010PropOp33
 70
     1
102
RTVSPost2010Prop34
280
     0
102
RTVSPost2010PropOp34
 70
     1
102
RTVSPost2010Prop35
280
     0
102
RTVSPost2010PropOp35
 70
     1
102
RTVSPost2010Prop36
280
     0
102
RTVSPost2010PropOp36
 70
     1
102
RTVSPost2010Prop37
 90
       50
102
RTVSPost2010PropOp37
 70
     1
102
RTVSPost2010Prop38
140
0.0
102
RTVSPost2010PropOp38
 70
     1
102
RTVSPost2010Prop39
140
1.0
102
RTVSPost2010PropOp39
 70
     1
102
RTVSPost2010Prop40
 90
        0
102
RTVSPost2010PropOp40
 70
     1
102
RTVSPost2010Prop41ColorIndex
 90
       18
102
RTVSPost2010Prop41ColorRGB
 90
        0
102
RTVSPost2010PropOp41
 70
     1
102
RTVSPost2010Prop42
 90
       50
102
RTVSPost2010PropOp42
 70
     1
102
RTVSPost2010Prop43
 90
        3
102
RTVSPost2010PropOp43
 70
     1
102
RTVSPost2010Prop44ColorIndex
 90
        5
102
RTVSPost2010Prop44ColorRGB
 90
      255
102
RTVSPost2010PropOp44
 70
     1
102
RTVSPost2010Prop45
280
     0
102
RTVSPost2010PropOp45
 70
     1
102
RTVSPost2010Prop46
 90
       50
102
RTVSPost2010PropOp46
 70
     1
102
RTVSPost2010Prop47
 90
       50
102
RTVSPost2010PropOp47
 70
     1
102
RTVSPost2010Prop48
 90
       50
102
RTVSPost2010PropOp48
 70
     1
102
RTVSPost2010Prop49
280
     0
102
RTVSPost2010PropOp49
 70
     1
102
RTVSPost2010Prop50
 90
       50
102
RTVSPost2010PropOp50
 70
     1
102
RTVSPost2010Prop51ColorIndex
 90
      256
102
RTVSPost2010Prop51ColorRGB
 90
-16777216
102
RTVSPost2010PropOp51
 70
     0
102
RTVSPost2010Prop52
140
1.0
102
RTVSPost2010PropOp52
 70
     0
102
RTVSPost2010Prop53
 90
        2
102
RTVSPost2010PropOp53
 70
     1
102
RTVSPost2010Prop54
  1
strokes_ogs.tif
102
RTVSPost2010PropOp54
 70
     1
102
RTVSPost2010Prop55
280
     0
102
RTVSPost2010PropOp55
 70
     1
102
RTVSPost2010Prop56
140
1.0
102
RTVSPost2010PropOp56
 70
     1
102
RTVSPost2010Prop57
140
1.0
102
RTVSPost2010PropOp57
 70
     1
102
RTVSPropertyOp0
 70
     1
102
RTVSPropertyOp1
 70
     1
102
RTVSPropertyOp2
 70
     1
102
RTVSPropertyOp3
 70
     1
102
RTVSPropertyOp4
 70
     1
102
RTVSPropertyOp5
 70
     1
102
RTVSPropertyOp6
 70
     1
102
RTVSPropertyOp7
 70
     1
102
RTVSPropertyOp8
 70
     1
102
RTVSPropertyOp9
 70
     1
102
RTVSPropertyOp10
 70
     1
102
RTVSPropertyOp11
 70
     1
102
RTVSPropertyOp12
 70
     1
102
RTVSPropertyOp13
 70
     1
102
RTVSPropertyOp14
 70
     1
102
RTVSPropertyOp15
 70
     1
102
RTVSPropertyOp16
 70
     1
102
RTVSPropertyOp17
 70
     1
102
RTVSPropertyOp18
 70
     1
102
RTVSPropertyOp19
 70
     1
102
RTVSPropertyOp20
 70
     1
102
RTVSPropertyOp21
 70
     1
102
RTVSPropertyOp22
 70
     1
102
RTVSPropertyOp23
 70
     1
102
RTVSPropertyOp24
 70
     1
102
RTVSPropertyOp25
 70
     1
102
RTVSPropertyOp26
 70
     1
102
RTVSPropertyOp27
 70
     1
102
RTVSPropertyOp28
 70
     1
102
RTVSPropertyOp29
 70
     1
102
RTVSPropertyOp30
 70
     1
102
RTVSPropertyOp31
 70
     1
102
RTVSPropertyOp32
 70
     1
102
RTVSPropertyOp33
 70
     1
102
RTVSPropertyOp34
 70
     1
102
RTVSPropertyOp35
 70
     1
102
RTVSPropertyOp36
 70
     1
102
RTVSPropertyOp37
 70
     1
102
RTVSPropertyOp38
 70
     1
102
RTVSPropertyOp39
 70
     1
102
RTVSPropertyOp40
 70
     1
102
RTVSPropertyOp41
 70
     1
102
RTVSPropertyOp42
 70
     1
102
RTVSPropertyOp43
 70
     1
102
RTVSPropertyOp44
 70
     1
102
RTVSPropertyOp45
 70
     1
102
RTVSPropertyOp46
 70
     1
102
RTVSPropertyOp47
 70
     1
102
RTVSPropertyOp48
 70
     1
102
RTVSPropertyOp49
 70
     1
102
RTVSPropertyOp50
 70
     1
102
RTVSPropertyOp51
 70
     0
102
RTVSPropertyOp52
 70
     0
102
RTVSPropertyOp53
 70
     1
102
RTVSPropertyOp54
 70
     1
102
RTVSPropertyOp55
 70
     1
102
RTVSPropertyOp56
 70
     1
102
RTVSPropertyOp57
 70
     1
102
RTVSPropertyOp58
 70
     1
102
RTVSPropertyOp59
 70
     1
102
RTVSPropertyOp60
 70
     1
102
RTVSPropertyOp61
 70
     1
102
RTVSPropertyOp62
 70
     1
  0
XRECORD
  5
595B
102
{ACAD_REACTORS
330
595A
102
}
330
595A
100
AcDbXrecord
280
     1
102
RTVSPost2010Prop28
280
     0
102
RTVSPost2010PropOp28
 70
     1
102
RTVSPost2010Prop29
280
     1
102
RTVSPost2010PropOp29
 70
     1
102
RTVSPost2010Prop30
280
     1
102
RTVSPost2010PropOp30
 70
     1
102
RTVSPost2010Prop31
280
     0
102
RTVSPost2010PropOp31
 70
     1
102
RTVSPost2010Prop32
280
     0
102
RTVSPost2010PropOp32
 70
     1
102
RTVSPost2010Prop33
280
     0
102
RTVSPost2010PropOp33
 70
     1
102
RTVSPost2010Prop34
280
     0
102
RTVSPost2010PropOp34
 70
     1
102
RTVSPost2010Prop35
280
     0
102
RTVSPost2010PropOp35
 70
     1
102
RTVSPost2010Prop36
280
     0
102
RTVSPost2010PropOp36
 70
     1
102
RTVSPost2010Prop37
 90
       50
102
RTVSPost2010PropOp37
 70
     1
102
RTVSPost2010Prop38
140
0.0
102
RTVSPost2010PropOp38
 70
     1
102
RTVSPost2010Prop39
140
1.0
102
RTVSPost2010PropOp39
 70
     1
102
RTVSPost2010Prop40
 90
        0
102
RTVSPost2010PropOp40
 70
     1
102
RTVSPost2010Prop41ColorIndex
 90
       18
102
RTVSPost2010Prop41ColorRGB
 90
        0
102
RTVSPost2010PropOp41
 70
     1
102
RTVSPost2010Prop42
 90
       50
102
RTVSPost2010PropOp42
 70
     1
102
RTVSPost2010Prop43
 90
        3
102
RTVSPost2010PropOp43
 70
     1
102
RTVSPost2010Prop44ColorIndex
 90
        5
102
RTVSPost2010Prop44ColorRGB
 90
      255
102
RTVSPost2010PropOp44
 70
     1
102
RTVSPost2010Prop45
280
     0
102
RTVSPost2010PropOp45
 70
     1
102
RTVSPost2010Prop46
 90
       50
102
RTVSPost2010PropOp46
 70
     1
102
RTVSPost2010Prop47
 90
       50
102
RTVSPost2010PropOp47
 70
     1
102
RTVSPost2010Prop48
 90
       50
102
RTVSPost2010PropOp48
 70
     1
102
RTVSPost2010Prop49
280
     0
102
RTVSPost2010PropOp49
 70
     1
102
RTVSPost2010Prop50
 90
       50
102
RTVSPost2010PropOp50
 70
     1
102
RTVSPost2010Prop51ColorIndex
 90
      256
102
RTVSPost2010Prop51ColorRGB
 90
-16777216
102
RTVSPost2010PropOp51
 70
     0
102
RTVSPost2010Prop52
140
1.0
102
RTVSPost2010PropOp52
 70
     0
102
RTVSPost2010Prop53
 90
        2
102
RTVSPost2010PropOp53
 70
     1
102
RTVSPost2010Prop54
  1
strokes_ogs.tif
102
RTVSPost2010PropOp54
 70
     1
102
RTVSPost2010Prop55
280
     0
102
RTVSPost2010PropOp55
 70
     1
102
RTVSPost2010Prop56
140
1.0
102
RTVSPost2010PropOp56
 70
     1
102
RTVSPost2010Prop57
140
1.0
102
RTVSPost2010PropOp57
 70
     1
102
RTVSPropertyOp0
 70
     1
102
RTVSPropertyOp1
 70
     1
102
RTVSPropertyOp2
 70
     1
102
RTVSPropertyOp3
 70
     1
102
RTVSPropertyOp4
 70
     1
102
RTVSPropertyOp5
 70
     1
102
RTVSPropertyOp6
 70
     1
102
RTVSPropertyOp7
 70
     1
102
RTVSPropertyOp8
 70
     1
102
RTVSPropertyOp9
 70
     1
102
RTVSPropertyOp10
 70
     1
102
RTVSPropertyOp11
 70
     1
102
RTVSPropertyOp12
 70
     1
102
RTVSPropertyOp13
 70
     1
102
RTVSPropertyOp14
 70
     1
102
RTVSPropertyOp15
 70
     1
102
RTVSPropertyOp16
 70
     1
102
RTVSPropertyOp17
 70
     1
102
RTVSPropertyOp18
 70
     1
102
RTVSPropertyOp19
 70
     1
102
RTVSPropertyOp20
 70
     1
102
RTVSPropertyOp21
 70
     1
102
RTVSPropertyOp22
 70
     1
102
RTVSPropertyOp23
 70
     1
102
RTVSPropertyOp24
 70
     1
102
RTVSPropertyOp25
 70
     1
102
RTVSPropertyOp26
 70
     1
102
RTVSPropertyOp27
 70
     1
102
RTVSPropertyOp28
 70
     1
102
RTVSPropertyOp29
 70
     1
102
RTVSPropertyOp30
 70
     1
102
RTVSPropertyOp31
 70
     1
102
RTVSPropertyOp32
 70
     1
102
RTVSPropertyOp33
 70
     1
102
RTVSPropertyOp34
 70
     1
102
RTVSPropertyOp35
 70
     1
102
RTVSPropertyOp36
 70
     1
102
RTVSPropertyOp37
 70
     1
102
RTVSPropertyOp38
 70
     1
102
RTVSPropertyOp39
 70
     1
102
RTVSPropertyOp40
 70
     1
102
RTVSPropertyOp41
 70
     1
102
RTVSPropertyOp42
 70
     1
102
RTVSPropertyOp43
 70
     1
102
RTVSPropertyOp44
 70
     1
102
RTVSPropertyOp45
 70
     1
102
RTVSPropertyOp46
 70
     1
102
RTVSPropertyOp47
 70
     1
102
RTVSPropertyOp48
 70
     1
102
RTVSPropertyOp49
 70
     1
102
RTVSPropertyOp50
 70
     1
102
RTVSPropertyOp51
 70
     0
102
RTVSPropertyOp52
 70
     0
102
RTVSPropertyOp53
 70
     1
102
RTVSPropertyOp54
 70
     1
102
RTVSPropertyOp55
 70
     1
102
RTVSPropertyOp56
 70
     1
102
RTVSPropertyOp57
 70
     1
102
RTVSPropertyOp58
 70
     1
102
RTVSPropertyOp59
 70
     1
102
RTVSPropertyOp60
 70
     1
102
RTVSPropertyOp61
 70
     1
102
RTVSPropertyOp62
 70
     1
  0
XRECORD
  5
5977
102
{ACAD_REACTORS
330
5976
102
}
330
5976
100
AcDbXrecord
280
     1
102
RTVSPost2010Prop28
280
     0
102
RTVSPost2010PropOp28
 70
     1
102
RTVSPost2010Prop29
280
     1
102
RTVSPost2010PropOp29
 70
     1
102
RTVSPost2010Prop30
280
     1
102
RTVSPost2010PropOp30
 70
     1
102
RTVSPost2010Prop31
280
     0
102
RTVSPost2010PropOp31
 70
     1
102
RTVSPost2010Prop32
280
     0
102
RTVSPost2010PropOp32
 70
     1
102
RTVSPost2010Prop33
280
     0
102
RTVSPost2010PropOp33
 70
     1
102
RTVSPost2010Prop34
280
     0
102
RTVSPost2010PropOp34
 70
     1
102
RTVSPost2010Prop35
280
     0
102
RTVSPost2010PropOp35
 70
     1
102
RTVSPost2010Prop36
280
     0
102
RTVSPost2010PropOp36
 70
     1
102
RTVSPost2010Prop37
 90
       50
102
RTVSPost2010PropOp37
 70
     0
102
RTVSPost2010Prop38
140
0.0
102
RTVSPost2010PropOp38
 70
     0
102
RTVSPost2010Prop39
140
1.0
102
RTVSPost2010PropOp39
 70
     0
102
RTVSPost2010Prop40
 90
        0
102
RTVSPost2010PropOp40
 70
     0
102
RTVSPost2010Prop41ColorIndex
 90
       18
102
RTVSPost2010Prop41ColorRGB
 90
        0
102
RTVSPost2010PropOp41
 70
     0
102
RTVSPost2010Prop42
 90
       50
102
RTVSPost2010PropOp42
 70
     0
102
RTVSPost2010Prop43
 90
        3
102
RTVSPost2010PropOp43
 70
     0
102
RTVSPost2010Prop44ColorIndex
 90
        5
102
RTVSPost2010Prop44ColorRGB
 90
      255
102
RTVSPost2010PropOp44
 70
     0
102
RTVSPost2010Prop45
280
     0
102
RTVSPost2010PropOp45
 70
     1
102
RTVSPost2010Prop46
 90
       50
102
RTVSPost2010PropOp46
 70
     0
102
RTVSPost2010Prop47
 90
       50
102
RTVSPost2010PropOp47
 70
     0
102
RTVSPost2010Prop48
 90
       50
102
RTVSPost2010PropOp48
 70
     0
102
RTVSPost2010Prop49
280
     0
102
RTVSPost2010PropOp49
 70
     1
102
RTVSPost2010Prop50
 90
       50
102
RTVSPost2010PropOp50
 70
     0
102
RTVSPost2010Prop51ColorIndex
 90
      256
102
RTVSPost2010Prop51ColorRGB
 90
-16777216
102
RTVSPost2010PropOp51
 70
     0
102
RTVSPost2010Prop52
140
1.0
102
RTVSPost2010PropOp52
 70
     0
102
RTVSPost2010Prop53
 90
        2
102
RTVSPost2010PropOp53
 70
     0
102
RTVSPost2010Prop54
  1
strokes_ogs.tif
102
RTVSPost2010PropOp54
 70
     0
102
RTVSPost2010Prop55
280
     0
102
RTVSPost2010PropOp55
 70
     1
102
RTVSPost2010Prop56
140
1.0
102
RTVSPost2010PropOp56
 70
     0
102
RTVSPost2010Prop57
140
1.0
102
RTVSPost2010PropOp57
 70
     0
102
RTVSPropertyOp0
 70
     0
102
RTVSPropertyOp1
 70
     0
102
RTVSPropertyOp2
 70
     0
102
RTVSPropertyOp3
 70
     0
102
RTVSPropertyOp4
 70
     0
102
RTVSPropertyOp5
 70
     0
102
RTVSPropertyOp6
 70
     0
102
RTVSPropertyOp7
 70
     0
102
RTVSPropertyOp8
 70
     0
102
RTVSPropertyOp9
 70
     0
102
RTVSPropertyOp10
 70
     0
102
RTVSPropertyOp11
 70
     0
102
RTVSPropertyOp12
 70
     0
102
RTVSPropertyOp13
 70
     0
102
RTVSPropertyOp14
 70
     2
102
RTVSPropertyOp15
 70
     0
102
RTVSPropertyOp16
 70
     0
102
RTVSPropertyOp17
 70
     0
102
RTVSPropertyOp18
 70
     0
102
RTVSPropertyOp19
 70
     0
102
RTVSPropertyOp20
 70
     0
102
RTVSPropertyOp21
 70
     0
102
RTVSPropertyOp22
 70
     0
102
RTVSPropertyOp23
 70
     0
102
RTVSPropertyOp24
 70
     0
102
RTVSPropertyOp25
 70
     0
102
RTVSPropertyOp26
 70
     0
102
RTVSPropertyOp27
 70
     0
102
RTVSPropertyOp28
 70
     1
102
RTVSPropertyOp29
 70
     1
102
RTVSPropertyOp30
 70
     1
102
RTVSPropertyOp31
 70
     1
102
RTVSPropertyOp32
 70
     1
102
RTVSPropertyOp33
 70
     1
102
RTVSPropertyOp34
 70
     1
102
RTVSPropertyOp35
 70
     1
102
RTVSPropertyOp36
 70
     1
102
RTVSPropertyOp37
 70
     0
102
RTVSPropertyOp38
 70
     0
102
RTVSPropertyOp39
 70
     0
102
RTVSPropertyOp40
 70
     0
102
RTVSPropertyOp41
 70
     0
102
RTVSPropertyOp42
 70
     0
102
RTVSPropertyOp43
 70
     0
102
RTVSPropertyOp44
 70
     0
102
RTVSPropertyOp45
 70
     1
102
RTVSPropertyOp46
 70
     0
102
RTVSPropertyOp47
 70
     0
102
RTVSPropertyOp48
 70
     0
102
RTVSPropertyOp49
 70
     1
102
RTVSPropertyOp50
 70
     0
102
RTVSPropertyOp51
 70
     0
102
RTVSPropertyOp52
 70
     0
102
RTVSPropertyOp53
 70
     0
102
RTVSPropertyOp54
 70
     0
102
RTVSPropertyOp55
 70
     1
102
RTVSPropertyOp56
 70
     0
102
RTVSPropertyOp57
 70
     0
102
RTVSPropertyOp58
 70
     1
102
RTVSPropertyOp59
 70
     1
102
RTVSPropertyOp60
 70
     1
102
RTVSPropertyOp61
 70
     1
102
RTVSPropertyOp62
 70
     1
  0
XRECORD
  5
5967
102
{ACAD_REACTORS
330
5966
102
}
330
5966
100
AcDbXrecord
280
     1
102
RTVSPost2010Prop28
280
     0
102
RTVSPost2010PropOp28
 70
     1
102
RTVSPost2010Prop29
280
     1
102
RTVSPost2010PropOp29
 70
     1
102
RTVSPost2010Prop30
280
     1
102
RTVSPost2010PropOp30
 70
     1
102
RTVSPost2010Prop31
280
     0
102
RTVSPost2010PropOp31
 70
     1
102
RTVSPost2010Prop32
280
     0
102
RTVSPost2010PropOp32
 70
     1
102
RTVSPost2010Prop33
280
     0
102
RTVSPost2010PropOp33
 70
     1
102
RTVSPost2010Prop34
280
     0
102
RTVSPost2010PropOp34
 70
     1
102
RTVSPost2010Prop35
280
     0
102
RTVSPost2010PropOp35
 70
     1
102
RTVSPost2010Prop36
280
     0
102
RTVSPost2010PropOp36
 70
     1
102
RTVSPost2010Prop37
 90
       50
102
RTVSPost2010PropOp37
 70
     1
102
RTVSPost2010Prop38
140
0.0
102
RTVSPost2010PropOp38
 70
     1
102
RTVSPost2010Prop39
140
1.0
102
RTVSPost2010PropOp39
 70
     1
102
RTVSPost2010Prop40
 90
        0
102
RTVSPost2010PropOp40
 70
     1
102
RTVSPost2010Prop41ColorIndex
 90
       18
102
RTVSPost2010Prop41ColorRGB
 90
        0
102
RTVSPost2010PropOp41
 70
     1
102
RTVSPost2010Prop42
 90
       50
102
RTVSPost2010PropOp42
 70
     1
102
RTVSPost2010Prop43
 90
        3
102
RTVSPost2010PropOp43
 70
     1
102
RTVSPost2010Prop44ColorIndex
 90
        5
102
RTVSPost2010Prop44ColorRGB
 90
      255
102
RTVSPost2010PropOp44
 70
     1
102
RTVSPost2010Prop45
280
     0
102
RTVSPost2010PropOp45
 70
     1
102
RTVSPost2010Prop46
 90
       50
102
RTVSPost2010PropOp46
 70
     1
102
RTVSPost2010Prop47
 90
       50
102
RTVSPost2010PropOp47
 70
     1
102
RTVSPost2010Prop48
 90
       50
102
RTVSPost2010PropOp48
 70
     1
102
RTVSPost2010Prop49
280
     0
102
RTVSPost2010PropOp49
 70
     1
102
RTVSPost2010Prop50
 90
       50
102
RTVSPost2010PropOp50
 70
     1
102
RTVSPost2010Prop51ColorIndex
 90
      256
102
RTVSPost2010Prop51ColorRGB
 90
-16777216
102
RTVSPost2010PropOp51
 70
     0
102
RTVSPost2010Prop52
140
1.0
102
RTVSPost2010PropOp52
 70
     0
102
RTVSPost2010Prop53
 90
        2
102
RTVSPost2010PropOp53
 70
     1
102
RTVSPost2010Prop54
  1
strokes_ogs.tif
102
RTVSPost2010PropOp54
 70
     1
102
RTVSPost2010Prop55
280
     0
102
RTVSPost2010PropOp55
 70
     1
102
RTVSPost2010Prop56
140
1.0
102
RTVSPost2010PropOp56
 70
     1
102
RTVSPost2010Prop57
140
1.0
102
RTVSPost2010PropOp57
 70
     1
102
RTVSPropertyOp0
 70
     1
102
RTVSPropertyOp1
 70
     1
102
RTVSPropertyOp2
 70
     1
102
RTVSPropertyOp3
 70
     1
102
RTVSPropertyOp4
 70
     1
102
RTVSPropertyOp5
 70
     1
102
RTVSPropertyOp6
 70
     1
102
RTVSPropertyOp7
 70
     1
102
RTVSPropertyOp8
 70
     1
102
RTVSPropertyOp9
 70
     1
102
RTVSPropertyOp10
 70
     1
102
RTVSPropertyOp11
 70
     1
102
RTVSPropertyOp12
 70
     1
102
RTVSPropertyOp13
 70
     1
102
RTVSPropertyOp14
 70
     1
102
RTVSPropertyOp15
 70
     1
102
RTVSPropertyOp16
 70
     1
102
RTVSPropertyOp17
 70
     1
102
RTVSPropertyOp18
 70
     1
102
RTVSPropertyOp19
 70
     1
102
RTVSPropertyOp20
 70
     1
102
RTVSPropertyOp21
 70
     1
102
RTVSPropertyOp22
 70
     1
102
RTVSPropertyOp23
 70
     1
102
RTVSPropertyOp24
 70
     1
102
RTVSPropertyOp25
 70
     1
102
RTVSPropertyOp26
 70
     1
102
RTVSPropertyOp27
 70
     1
102
RTVSPropertyOp28
 70
     1
102
RTVSPropertyOp29
 70
     1
102
RTVSPropertyOp30
 70
     1
102
RTVSPropertyOp31
 70
     1
102
RTVSPropertyOp32
 70
     1
102
RTVSPropertyOp33
 70
     1
102
RTVSPropertyOp34
 70
     1
102
RTVSPropertyOp35
 70
     1
102
RTVSPropertyOp36
 70
     1
102
RTVSPropertyOp37
 70
     1
102
RTVSPropertyOp38
 70
     1
102
RTVSPropertyOp39
 70
     1
102
RTVSPropertyOp40
 70
     1
102
RTVSPropertyOp41
 70
     1
102
RTVSPropertyOp42
 70
     1
102
RTVSPropertyOp43
 70
     1
102
RTVSPropertyOp44
 70
     1
102
RTVSPropertyOp45
 70
     1
102
RTVSPropertyOp46
 70
     1
102
RTVSPropertyOp47
 70
     1
102
RTVSPropertyOp48
 70
     1
102
RTVSPropertyOp49
 70
     1
102
RTVSPropertyOp50
 70
     1
102
RTVSPropertyOp51
 70
     0
102
RTVSPropertyOp52
 70
     0
102
RTVSPropertyOp53
 70
     1
102
RTVSPropertyOp54
 70
     1
102
RTVSPropertyOp55
 70
     1
102
RTVSPropertyOp56
 70
     1
102
RTVSPropertyOp57
 70
     1
102
RTVSPropertyOp58
 70
     1
102
RTVSPropertyOp59
 70
     1
102
RTVSPropertyOp60
 70
     1
102
RTVSPropertyOp61
 70
     1
102
RTVSPropertyOp62
 70
     1
  0
XRECORD
  5
5979
102
{ACAD_REACTORS
330
5978
102
}
330
5978
100
AcDbXrecord
280
     1
102
RTVSPost2010Prop28
280
     0
102
RTVSPost2010PropOp28
 70
     1
102
RTVSPost2010Prop29
280
     1
102
RTVSPost2010PropOp29
 70
     1
102
RTVSPost2010Prop30
280
     1
102
RTVSPost2010PropOp30
 70
     1
102
RTVSPost2010Prop31
280
     0
102
RTVSPost2010PropOp31
 70
     1
102
RTVSPost2010Prop32
280
     0
102
RTVSPost2010PropOp32
 70
     1
102
RTVSPost2010Prop33
280
     0
102
RTVSPost2010PropOp33
 70
     1
102
RTVSPost2010Prop34
280
     0
102
RTVSPost2010PropOp34
 70
     1
102
RTVSPost2010Prop35
280
     0
102
RTVSPost2010PropOp35
 70
     1
102
RTVSPost2010Prop36
280
     0
102
RTVSPost2010PropOp36
 70
     1
102
RTVSPost2010Prop37
 90
       50
102
RTVSPost2010PropOp37
 70
     0
102
RTVSPost2010Prop38
140
0.0
102
RTVSPost2010PropOp38
 70
     0
102
RTVSPost2010Prop39
140
1.0
102
RTVSPost2010PropOp39
 70
     0
102
RTVSPost2010Prop40
 90
        0
102
RTVSPost2010PropOp40
 70
     0
102
RTVSPost2010Prop41ColorIndex
 90
       18
102
RTVSPost2010Prop41ColorRGB
 90
        0
102
RTVSPost2010PropOp41
 70
     0
102
RTVSPost2010Prop42
 90
       50
102
RTVSPost2010PropOp42
 70
     0
102
RTVSPost2010Prop43
 90
        3
102
RTVSPost2010PropOp43
 70
     0
102
RTVSPost2010Prop44ColorIndex
 90
        5
102
RTVSPost2010Prop44ColorRGB
 90
      255
102
RTVSPost2010PropOp44
 70
     0
102
RTVSPost2010Prop45
280
     0
102
RTVSPost2010PropOp45
 70
     1
102
RTVSPost2010Prop46
 90
       50
102
RTVSPost2010PropOp46
 70
     0
102
RTVSPost2010Prop47
 90
       50
102
RTVSPost2010PropOp47
 70
     0
102
RTVSPost2010Prop48
 90
       50
102
RTVSPost2010PropOp48
 70
     0
102
RTVSPost2010Prop49
280
     0
102
RTVSPost2010PropOp49
 70
     1
102
RTVSPost2010Prop50
 90
       50
102
RTVSPost2010PropOp50
 70
     0
102
RTVSPost2010Prop51ColorIndex
 90
      256
102
RTVSPost2010Prop51ColorRGB
 90
-16777216
102
RTVSPost2010PropOp51
 70
     0
102
RTVSPost2010Prop52
140
1.0
102
RTVSPost2010PropOp52
 70
     0
102
RTVSPost2010Prop53
 90
        2
102
RTVSPost2010PropOp53
 70
     0
102
RTVSPost2010Prop54
  1
strokes_ogs.tif
102
RTVSPost2010PropOp54
 70
     0
102
RTVSPost2010Prop55
280
     0
102
RTVSPost2010PropOp55
 70
     1
102
RTVSPost2010Prop56
140
1.0
102
RTVSPost2010PropOp56
 70
     0
102
RTVSPost2010Prop57
140
1.0
102
RTVSPost2010PropOp57
 70
     0
102
RTVSPropertyOp0
 70
     0
102
RTVSPropertyOp1
 70
     0
102
RTVSPropertyOp2
 70
     0
102
RTVSPropertyOp3
 70
     0
102
RTVSPropertyOp4
 70
     0
102
RTVSPropertyOp5
 70
     0
102
RTVSPropertyOp6
 70
     0
102
RTVSPropertyOp7
 70
     0
102
RTVSPropertyOp8
 70
     0
102
RTVSPropertyOp9
 70
     0
102
RTVSPropertyOp10
 70
     0
102
RTVSPropertyOp11
 70
     0
102
RTVSPropertyOp12
 70
     0
102
RTVSPropertyOp13
 70
     0
102
RTVSPropertyOp14
 70
     2
102
RTVSPropertyOp15
 70
     0
102
RTVSPropertyOp16
 70
     0
102
RTVSPropertyOp17
 70
     0
102
RTVSPropertyOp18
 70
     0
102
RTVSPropertyOp19
 70
     0
102
RTVSPropertyOp20
 70
     0
102
RTVSPropertyOp21
 70
     0
102
RTVSPropertyOp22
 70
     0
102
RTVSPropertyOp23
 70
     0
102
RTVSPropertyOp24
 70
     0
102
RTVSPropertyOp25
 70
     0
102
RTVSPropertyOp26
 70
     0
102
RTVSPropertyOp27
 70
     0
102
RTVSPropertyOp28
 70
     1
102
RTVSPropertyOp29
 70
     1
102
RTVSPropertyOp30
 70
     1
102
RTVSPropertyOp31
 70
     1
102
RTVSPropertyOp32
 70
     1
102
RTVSPropertyOp33
 70
     1
102
RTVSPropertyOp34
 70
     1
102
RTVSPropertyOp35
 70
     1
102
RTVSPropertyOp36
 70
     1
102
RTVSPropertyOp37
 70
     0
102
RTVSPropertyOp38
 70
     0
102
RTVSPropertyOp39
 70
     0
102
RTVSPropertyOp40
 70
     0
102
RTVSPropertyOp41
 70
     0
102
RTVSPropertyOp42
 70
     0
102
RTVSPropertyOp43
 70
     0
102
RTVSPropertyOp44
 70
     0
102
RTVSPropertyOp45
 70
     1
102
RTVSPropertyOp46
 70
     0
102
RTVSPropertyOp47
 70
     0
102
RTVSPropertyOp48
 70
     0
102
RTVSPropertyOp49
 70
     1
102
RTVSPropertyOp50
 70
     0
102
RTVSPropertyOp51
 70
     0
102
RTVSPropertyOp52
 70
     0
102
RTVSPropertyOp53
 70
     0
102
RTVSPropertyOp54
 70
     0
102
RTVSPropertyOp55
 70
     1
102
RTVSPropertyOp56
 70
     0
102
RTVSPropertyOp57
 70
     0
102
RTVSPropertyOp58
 70
     1
102
RTVSPropertyOp59
 70
     1
102
RTVSPropertyOp60
 70
     1
102
RTVSPropertyOp61
 70
     1
102
RTVSPropertyOp62
 70
     1
  0
XRECORD
  5
595F
102
{ACAD_REACTORS
330
595E
102
}
330
595E
100
AcDbXrecord
280
     1
102
RTVSPost2010Prop28
280
     0
102
RTVSPost2010PropOp28
 70
     1
102
RTVSPost2010Prop29
280
     1
102
RTVSPost2010PropOp29
 70
     1
102
RTVSPost2010Prop30
280
     1
102
RTVSPost2010PropOp30
 70
     1
102
RTVSPost2010Prop31
280
     0
102
RTVSPost2010PropOp31
 70
     1
102
RTVSPost2010Prop32
280
     0
102
RTVSPost2010PropOp32
 70
     1
102
RTVSPost2010Prop33
280
     0
102
RTVSPost2010PropOp33
 70
     1
102
RTVSPost2010Prop34
280
     0
102
RTVSPost2010PropOp34
 70
     1
102
RTVSPost2010Prop35
280
     0
102
RTVSPost2010PropOp35
 70
     1
102
RTVSPost2010Prop36
280
     0
102
RTVSPost2010PropOp36
 70
     1
102
RTVSPost2010Prop37
 90
       50
102
RTVSPost2010PropOp37
 70
     1
102
RTVSPost2010Prop38
140
0.0
102
RTVSPost2010PropOp38
 70
     1
102
RTVSPost2010Prop39
140
1.0
102
RTVSPost2010PropOp39
 70
     1
102
RTVSPost2010Prop40
 90
        0
102
RTVSPost2010PropOp40
 70
     1
102
RTVSPost2010Prop41ColorIndex
 90
       18
102
RTVSPost2010Prop41ColorRGB
 90
        0
102
RTVSPost2010PropOp41
 70
     1
102
RTVSPost2010Prop42
 90
       50
102
RTVSPost2010PropOp42
 70
     1
102
RTVSPost2010Prop43
 90
        3
102
RTVSPost2010PropOp43
 70
     1
102
RTVSPost2010Prop44ColorIndex
 90
        5
102
RTVSPost2010Prop44ColorRGB
 90
      255
102
RTVSPost2010PropOp44
 70
     1
102
RTVSPost2010Prop45
280
     0
102
RTVSPost2010PropOp45
 70
     1
102
RTVSPost2010Prop46
 90
       50
102
RTVSPost2010PropOp46
 70
     1
102
RTVSPost2010Prop47
 90
       50
102
RTVSPost2010PropOp47
 70
     1
102
RTVSPost2010Prop48
 90
       50
102
RTVSPost2010PropOp48
 70
     1
102
RTVSPost2010Prop49
280
     0
102
RTVSPost2010PropOp49
 70
     1
102
RTVSPost2010Prop50
 90
       50
102
RTVSPost2010PropOp50
 70
     1
102
RTVSPost2010Prop51ColorIndex
 90
      256
102
RTVSPost2010Prop51ColorRGB
 90
-16777216
102
RTVSPost2010PropOp51
 70
     0
102
RTVSPost2010Prop52
140
1.0
102
RTVSPost2010PropOp52
 70
     0
102
RTVSPost2010Prop53
 90
        2
102
RTVSPost2010PropOp53
 70
     1
102
RTVSPost2010Prop54
  1
strokes_ogs.tif
102
RTVSPost2010PropOp54
 70
     1
102
RTVSPost2010Prop55
280
     0
102
RTVSPost2010PropOp55
 70
     1
102
RTVSPost2010Prop56
140
1.0
102
RTVSPost2010PropOp56
 70
     1
102
RTVSPost2010Prop57
140
1.0
102
RTVSPost2010PropOp57
 70
     1
102
RTVSPropertyOp0
 70
     1
102
RTVSPropertyOp1
 70
     1
102
RTVSPropertyOp2
 70
     1
102
RTVSPropertyOp3
 70
     1
102
RTVSPropertyOp4
 70
     1
102
RTVSPropertyOp5
 70
     1
102
RTVSPropertyOp6
 70
     1
102
RTVSPropertyOp7
 70
     1
102
RTVSPropertyOp8
 70
     1
102
RTVSPropertyOp9
 70
     1
102
RTVSPropertyOp10
 70
     1
102
RTVSPropertyOp11
 70
     1
102
RTVSPropertyOp12
 70
     1
102
RTVSPropertyOp13
 70
     1
102
RTVSPropertyOp14
 70
     1
102
RTVSPropertyOp15
 70
     1
102
RTVSPropertyOp16
 70
     1
102
RTVSPropertyOp17
 70
     1
102
RTVSPropertyOp18
 70
     1
102
RTVSPropertyOp19
 70
     1
102
RTVSPropertyOp20
 70
     1
102
RTVSPropertyOp21
 70
     1
102
RTVSPropertyOp22
 70
     1
102
RTVSPropertyOp23
 70
     1
102
RTVSPropertyOp24
 70
     1
102
RTVSPropertyOp25
 70
     1
102
RTVSPropertyOp26
 70
     1
102
RTVSPropertyOp27
 70
     1
102
RTVSPropertyOp28
 70
     1
102
RTVSPropertyOp29
 70
     1
102
RTVSPropertyOp30
 70
     1
102
RTVSPropertyOp31
 70
     1
102
RTVSPropertyOp32
 70
     1
102
RTVSPropertyOp33
 70
     1
102
RTVSPropertyOp34
 70
     1
102
RTVSPropertyOp35
 70
     1
102
RTVSPropertyOp36
 70
     1
102
RTVSPropertyOp37
 70
     1
102
RTVSPropertyOp38
 70
     1
102
RTVSPropertyOp39
 70
     1
102
RTVSPropertyOp40
 70
     1
102
RTVSPropertyOp41
 70
     1
102
RTVSPropertyOp42
 70
     1
102
RTVSPropertyOp43
 70
     1
102
RTVSPropertyOp44
 70
     1
102
RTVSPropertyOp45
 70
     1
102
RTVSPropertyOp46
 70
     1
102
RTVSPropertyOp47
 70
     1
102
RTVSPropertyOp48
 70
     1
102
RTVSPropertyOp49
 70
     1
102
RTVSPropertyOp50
 70
     1
102
RTVSPropertyOp51
 70
     0
102
RTVSPropertyOp52
 70
     0
102
RTVSPropertyOp53
 70
     1
102
RTVSPropertyOp54
 70
     1
102
RTVSPropertyOp55
 70
     1
102
RTVSPropertyOp56
 70
     1
102
RTVSPropertyOp57
 70
     1
102
RTVSPropertyOp58
 70
     1
102
RTVSPropertyOp59
 70
     1
102
RTVSPropertyOp60
 70
     1
102
RTVSPropertyOp61
 70
     1
102
RTVSPropertyOp62
 70
     1
  0
XRECORD
  5
5975
102
{ACAD_REACTORS
330
5974
102
}
330
5974
100
AcDbXrecord
280
     1
102
RTVSPost2010Prop28
280
     0
102
RTVSPost2010PropOp28
 70
     1
102
RTVSPost2010Prop29
280
     1
102
RTVSPost2010PropOp29
 70
     1
102
RTVSPost2010Prop30
280
     1
102
RTVSPost2010PropOp30
 70
     1
102
RTVSPost2010Prop31
280
     0
102
RTVSPost2010PropOp31
 70
     1
102
RTVSPost2010Prop32
280
     0
102
RTVSPost2010PropOp32
 70
     1
102
RTVSPost2010Prop33
280
     0
102
RTVSPost2010PropOp33
 70
     1
102
RTVSPost2010Prop34
280
     0
102
RTVSPost2010PropOp34
 70
     1
102
RTVSPost2010Prop35
280
     0
102
RTVSPost2010PropOp35
 70
     1
102
RTVSPost2010Prop36
280
     0
102
RTVSPost2010PropOp36
 70
     1
102
RTVSPost2010Prop37
 90
       50
102
RTVSPost2010PropOp37
 70
     1
102
RTVSPost2010Prop38
140
0.0
102
RTVSPost2010PropOp38
 70
     1
102
RTVSPost2010Prop39
140
1.0
102
RTVSPost2010PropOp39
 70
     1
102
RTVSPost2010Prop40
 90
        0
102
RTVSPost2010PropOp40
 70
     1
102
RTVSPost2010Prop41ColorIndex
 90
       18
102
RTVSPost2010Prop41ColorRGB
 90
        0
102
RTVSPost2010PropOp41
 70
     1
102
RTVSPost2010Prop42
 90
       50
102
RTVSPost2010PropOp42
 70
     1
102
RTVSPost2010Prop43
 90
        3
102
RTVSPost2010PropOp43
 70
     1
102
RTVSPost2010Prop44ColorIndex
 90
        5
102
RTVSPost2010Prop44ColorRGB
 90
      255
102
RTVSPost2010PropOp44
 70
     1
102
RTVSPost2010Prop45
280
     0
102
RTVSPost2010PropOp45
 70
     1
102
RTVSPost2010Prop46
 90
       50
102
RTVSPost2010PropOp46
 70
     1
102
RTVSPost2010Prop47
 90
       50
102
RTVSPost2010PropOp47
 70
     1
102
RTVSPost2010Prop48
 90
       50
102
RTVSPost2010PropOp48
 70
     1
102
RTVSPost2010Prop49
280
     0
102
RTVSPost2010PropOp49
 70
     1
102
RTVSPost2010Prop50
 90
       50
102
RTVSPost2010PropOp50
 70
     1
102
RTVSPost2010Prop51ColorIndex
 90
      256
102
RTVSPost2010Prop51ColorRGB
 90
-16777216
102
RTVSPost2010PropOp51
 70
     0
102
RTVSPost2010Prop52
140
1.0
102
RTVSPost2010PropOp52
 70
     0
102
RTVSPost2010Prop53
 90
        2
102
RTVSPost2010PropOp53
 70
     1
102
RTVSPost2010Prop54
  1
strokes_ogs.tif
102
RTVSPost2010PropOp54
 70
     1
102
RTVSPost2010Prop55
280
     0
102
RTVSPost2010PropOp55
 70
     1
102
RTVSPost2010Prop56
140
1.0
102
RTVSPost2010PropOp56
 70
     1
102
RTVSPost2010Prop57
140
1.0
102
RTVSPost2010PropOp57
 70
     1
102
RTVSPropertyOp0
 70
     1
102
RTVSPropertyOp1
 70
     1
102
RTVSPropertyOp2
 70
     1
102
RTVSPropertyOp3
 70
     1
102
RTVSPropertyOp4
 70
     1
102
RTVSPropertyOp5
 70
     1
102
RTVSPropertyOp6
 70
     1
102
RTVSPropertyOp7
 70
     1
102
RTVSPropertyOp8
 70
     1
102
RTVSPropertyOp9
 70
     1
102
RTVSPropertyOp10
 70
     1
102
RTVSPropertyOp11
 70
     1
102
RTVSPropertyOp12
 70
     1
102
RTVSPropertyOp13
 70
     1
102
RTVSPropertyOp14
 70
     1
102
RTVSPropertyOp15
 70
     1
102
RTVSPropertyOp16
 70
     1
102
RTVSPropertyOp17
 70
     1
102
RTVSPropertyOp18
 70
     1
102
RTVSPropertyOp19
 70
     1
102
RTVSPropertyOp20
 70
     1
102
RTVSPropertyOp21
 70
     1
102
RTVSPropertyOp22
 70
     1
102
RTVSPropertyOp23
 70
     1
102
RTVSPropertyOp24
 70
     1
102
RTVSPropertyOp25
 70
     1
102
RTVSPropertyOp26
 70
     1
102
RTVSPropertyOp27
 70
     1
102
RTVSPropertyOp28
 70
     1
102
RTVSPropertyOp29
 70
     1
102
RTVSPropertyOp30
 70
     1
102
RTVSPropertyOp31
 70
     1
102
RTVSPropertyOp32
 70
     1
102
RTVSPropertyOp33
 70
     1
102
RTVSPropertyOp34
 70
     1
102
RTVSPropertyOp35
 70
     1
102
RTVSPropertyOp36
 70
     1
102
RTVSPropertyOp37
 70
     1
102
RTVSPropertyOp38
 70
     1
102
RTVSPropertyOp39
 70
     1
102
RTVSPropertyOp40
 70
     1
102
RTVSPropertyOp41
 70
     1
102
RTVSPropertyOp42
 70
     1
102
RTVSPropertyOp43
 70
     1
102
RTVSPropertyOp44
 70
     1
102
RTVSPropertyOp45
 70
     1
102
RTVSPropertyOp46
 70
     1
102
RTVSPropertyOp47
 70
     1
102
RTVSPropertyOp48
 70
     1
102
RTVSPropertyOp49
 70
     1
102
RTVSPropertyOp50
 70
     1
102
RTVSPropertyOp51
 70
     0
102
RTVSPropertyOp52
 70
     0
102
RTVSPropertyOp53
 70
     1
102
RTVSPropertyOp54
 70
     1
102
RTVSPropertyOp55
 70
     1
102
RTVSPropertyOp56
 70
     1
102
RTVSPropertyOp57
 70
     1
102
RTVSPropertyOp58
 70
     1
102
RTVSPropertyOp59
 70
     1
102
RTVSPropertyOp60
 70
     1
102
RTVSPropertyOp61
 70
     1
102
RTVSPropertyOp62
 70
     1
  0
XRECORD
  5
5973
102
{ACAD_REACTORS
330
5972
102
}
330
5972
100
AcDbXrecord
280
     1
102
RTVSPost2010Prop28
280
     0
102
RTVSPost2010PropOp28
 70
     1
102
RTVSPost2010Prop29
280
     1
102
RTVSPost2010PropOp29
 70
     1
102
RTVSPost2010Prop30
280
     1
102
RTVSPost2010PropOp30
 70
     1
102
RTVSPost2010Prop31
280
     0
102
RTVSPost2010PropOp31
 70
     1
102
RTVSPost2010Prop32
280
     0
102
RTVSPost2010PropOp32
 70
     1
102
RTVSPost2010Prop33
280
     0
102
RTVSPost2010PropOp33
 70
     1
102
RTVSPost2010Prop34
280
     0
102
RTVSPost2010PropOp34
 70
     1
102
RTVSPost2010Prop35
280
     0
102
RTVSPost2010PropOp35
 70
     1
102
RTVSPost2010Prop36
280
     0
102
RTVSPost2010PropOp36
 70
     1
102
RTVSPost2010Prop37
 90
       50
102
RTVSPost2010PropOp37
 70
     1
102
RTVSPost2010Prop38
140
0.0
102
RTVSPost2010PropOp38
 70
     1
102
RTVSPost2010Prop39
140
1.0
102
RTVSPost2010PropOp39
 70
     1
102
RTVSPost2010Prop40
 90
        0
102
RTVSPost2010PropOp40
 70
     1
102
RTVSPost2010Prop41ColorIndex
 90
       18
102
RTVSPost2010Prop41ColorRGB
 90
        0
102
RTVSPost2010PropOp41
 70
     1
102
RTVSPost2010Prop42
 90
       50
102
RTVSPost2010PropOp42
 70
     1
102
RTVSPost2010Prop43
 90
        3
102
RTVSPost2010PropOp43
 70
     1
102
RTVSPost2010Prop44ColorIndex
 90
        5
102
RTVSPost2010Prop44ColorRGB
 90
      255
102
RTVSPost2010PropOp44
 70
     1
102
RTVSPost2010Prop45
280
     0
102
RTVSPost2010PropOp45
 70
     1
102
RTVSPost2010Prop46
 90
       50
102
RTVSPost2010PropOp46
 70
     1
102
RTVSPost2010Prop47
 90
       50
102
RTVSPost2010PropOp47
 70
     1
102
RTVSPost2010Prop48
 90
       50
102
RTVSPost2010PropOp48
 70
     1
102
RTVSPost2010Prop49
280
     0
102
RTVSPost2010PropOp49
 70
     1
102
RTVSPost2010Prop50
 90
       50
102
RTVSPost2010PropOp50
 70
     1
102
RTVSPost2010Prop51ColorIndex
 90
      256
102
RTVSPost2010Prop51ColorRGB
 90
-16777216
102
RTVSPost2010PropOp51
 70
     0
102
RTVSPost2010Prop52
140
1.0
102
RTVSPost2010PropOp52
 70
     0
102
RTVSPost2010Prop53
 90
        2
102
RTVSPost2010PropOp53
 70
     1
102
RTVSPost2010Prop54
  1
strokes_ogs.tif
102
RTVSPost2010PropOp54
 70
     1
102
RTVSPost2010Prop55
280
     0
102
RTVSPost2010PropOp55
 70
     1
102
RTVSPost2010Prop56
140
1.0
102
RTVSPost2010PropOp56
 70
     1
102
RTVSPost2010Prop57
140
1.0
102
RTVSPost2010PropOp57
 70
     1
102
RTVSPropertyOp0
 70
     1
102
RTVSPropertyOp1
 70
     1
102
RTVSPropertyOp2
 70
     1
102
RTVSPropertyOp3
 70
     1
102
RTVSPropertyOp4
 70
     1
102
RTVSPropertyOp5
 70
     1
102
RTVSPropertyOp6
 70
     1
102
RTVSPropertyOp7
 70
     1
102
RTVSPropertyOp8
 70
     1
102
RTVSPropertyOp9
 70
     1
102
RTVSPropertyOp10
 70
     1
102
RTVSPropertyOp11
 70
     1
102
RTVSPropertyOp12
 70
     1
102
RTVSPropertyOp13
 70
     1
102
RTVSPropertyOp14
 70
     1
102
RTVSPropertyOp15
 70
     1
102
RTVSPropertyOp16
 70
     1
102
RTVSPropertyOp17
 70
     1
102
RTVSPropertyOp18
 70
     1
102
RTVSPropertyOp19
 70
     1
102
RTVSPropertyOp20
 70
     1
102
RTVSPropertyOp21
 70
     1
102
RTVSPropertyOp22
 70
     1
102
RTVSPropertyOp23
 70
     1
102
RTVSPropertyOp24
 70
     1
102
RTVSPropertyOp25
 70
     1
102
RTVSPropertyOp26
 70
     1
102
RTVSPropertyOp27
 70
     1
102
RTVSPropertyOp28
 70
     1
102
RTVSPropertyOp29
 70
     1
102
RTVSPropertyOp30
 70
     1
102
RTVSPropertyOp31
 70
     1
102
RTVSPropertyOp32
 70
     1
102
RTVSPropertyOp33
 70
     1
102
RTVSPropertyOp34
 70
     1
102
RTVSPropertyOp35
 70
     1
102
RTVSPropertyOp36
 70
     1
102
RTVSPropertyOp37
 70
     1
102
RTVSPropertyOp38
 70
     1
102
RTVSPropertyOp39
 70
     1
102
RTVSPropertyOp40
 70
     1
102
RTVSPropertyOp41
 70
     1
102
RTVSPropertyOp42
 70
     1
102
RTVSPropertyOp43
 70
     1
102
RTVSPropertyOp44
 70
     1
102
RTVSPropertyOp45
 70
     1
102
RTVSPropertyOp46
 70
     1
102
RTVSPropertyOp47
 70
     1
102
RTVSPropertyOp48
 70
     1
102
RTVSPropertyOp49
 70
     1
102
RTVSPropertyOp50
 70
     1
102
RTVSPropertyOp51
 70
     0
102
RTVSPropertyOp52
 70
     0
102
RTVSPropertyOp53
 70
     1
102
RTVSPropertyOp54
 70
     1
102
RTVSPropertyOp55
 70
     1
102
RTVSPropertyOp56
 70
     1
102
RTVSPropertyOp57
 70
     1
102
RTVSPropertyOp58
 70
     1
102
RTVSPropertyOp59
 70
     1
102
RTVSPropertyOp60
 70
     1
102
RTVSPropertyOp61
 70
     1
102
RTVSPropertyOp62
 70
     1
  0
XRECORD
  5
596D
102
{ACAD_REACTORS
330
596C
102
}
330
596C
100
AcDbXrecord
280
     1
102
RTVSPost2010Prop28
280
     0
102
RTVSPost2010PropOp28
 70
     1
102
RTVSPost2010Prop29
280
     1
102
RTVSPost2010PropOp29
 70
     1
102
RTVSPost2010Prop30
280
     1
102
RTVSPost2010PropOp30
 70
     1
102
RTVSPost2010Prop31
280
     0
102
RTVSPost2010PropOp31
 70
     1
102
RTVSPost2010Prop32
280
     0
102
RTVSPost2010PropOp32
 70
     1
102
RTVSPost2010Prop33
280
     0
102
RTVSPost2010PropOp33
 70
     1
102
RTVSPost2010Prop34
280
     0
102
RTVSPost2010PropOp34
 70
     1
102
RTVSPost2010Prop35
280
     0
102
RTVSPost2010PropOp35
 70
     1
102
RTVSPost2010Prop36
280
     0
102
RTVSPost2010PropOp36
 70
     1
102
RTVSPost2010Prop37
 90
       50
102
RTVSPost2010PropOp37
 70
     1
102
RTVSPost2010Prop38
140
0.0
102
RTVSPost2010PropOp38
 70
     1
102
RTVSPost2010Prop39
140
1.0
102
RTVSPost2010PropOp39
 70
     1
102
RTVSPost2010Prop40
 90
        0
102
RTVSPost2010PropOp40
 70
     1
102
RTVSPost2010Prop41ColorIndex
 90
       18
102
RTVSPost2010Prop41ColorRGB
 90
        0
102
RTVSPost2010PropOp41
 70
     1
102
RTVSPost2010Prop42
 90
       50
102
RTVSPost2010PropOp42
 70
     1
102
RTVSPost2010Prop43
 90
        3
102
RTVSPost2010PropOp43
 70
     1
102
RTVSPost2010Prop44ColorIndex
 90
        5
102
RTVSPost2010Prop44ColorRGB
 90
      255
102
RTVSPost2010PropOp44
 70
     1
102
RTVSPost2010Prop45
280
     0
102
RTVSPost2010PropOp45
 70
     1
102
RTVSPost2010Prop46
 90
       50
102
RTVSPost2010PropOp46
 70
     1
102
RTVSPost2010Prop47
 90
       50
102
RTVSPost2010PropOp47
 70
     1
102
RTVSPost2010Prop48
 90
       50
102
RTVSPost2010PropOp48
 70
     1
102
RTVSPost2010Prop49
280
     0
102
RTVSPost2010PropOp49
 70
     1
102
RTVSPost2010Prop50
 90
       50
102
RTVSPost2010PropOp50
 70
     1
102
RTVSPost2010Prop51ColorIndex
 90
      256
102
RTVSPost2010Prop51ColorRGB
 90
-16777216
102
RTVSPost2010PropOp51
 70
     0
102
RTVSPost2010Prop52
140
1.0
102
RTVSPost2010PropOp52
 70
     0
102
RTVSPost2010Prop53
 90
        2
102
RTVSPost2010PropOp53
 70
     1
102
RTVSPost2010Prop54
  1
strokes_ogs.tif
102
RTVSPost2010PropOp54
 70
     1
102
RTVSPost2010Prop55
280
     0
102
RTVSPost2010PropOp55
 70
     1
102
RTVSPost2010Prop56
140
1.0
102
RTVSPost2010PropOp56
 70
     1
102
RTVSPost2010Prop57
140
1.0
102
RTVSPost2010PropOp57
 70
     1
102
RTVSPropertyOp0
 70
     1
102
RTVSPropertyOp1
 70
     1
102
RTVSPropertyOp2
 70
     1
102
RTVSPropertyOp3
 70
     1
102
RTVSPropertyOp4
 70
     1
102
RTVSPropertyOp5
 70
     1
102
RTVSPropertyOp6
 70
     1
102
RTVSPropertyOp7
 70
     1
102
RTVSPropertyOp8
 70
     1
102
RTVSPropertyOp9
 70
     1
102
RTVSPropertyOp10
 70
     1
102
RTVSPropertyOp11
 70
     1
102
RTVSPropertyOp12
 70
     1
102
RTVSPropertyOp13
 70
     1
102
RTVSPropertyOp14
 70
     1
102
RTVSPropertyOp15
 70
     1
102
RTVSPropertyOp16
 70
     1
102
RTVSPropertyOp17
 70
     1
102
RTVSPropertyOp18
 70
     1
102
RTVSPropertyOp19
 70
     1
102
RTVSPropertyOp20
 70
     1
102
RTVSPropertyOp21
 70
     1
102
RTVSPropertyOp22
 70
     1
102
RTVSPropertyOp23
 70
     1
102
RTVSPropertyOp24
 70
     1
102
RTVSPropertyOp25
 70
     1
102
RTVSPropertyOp26
 70
     1
102
RTVSPropertyOp27
 70
     1
102
RTVSPropertyOp28
 70
     1
102
RTVSPropertyOp29
 70
     1
102
RTVSPropertyOp30
 70
     1
102
RTVSPropertyOp31
 70
     1
102
RTVSPropertyOp32
 70
     1
102
RTVSPropertyOp33
 70
     1
102
RTVSPropertyOp34
 70
     1
102
RTVSPropertyOp35
 70
     1
102
RTVSPropertyOp36
 70
     1
102
RTVSPropertyOp37
 70
     1
102
RTVSPropertyOp38
 70
     1
102
RTVSPropertyOp39
 70
     1
102
RTVSPropertyOp40
 70
     1
102
RTVSPropertyOp41
 70
     1
102
RTVSPropertyOp42
 70
     1
102
RTVSPropertyOp43
 70
     1
102
RTVSPropertyOp44
 70
     1
102
RTVSPropertyOp45
 70
     1
102
RTVSPropertyOp46
 70
     1
102
RTVSPropertyOp47
 70
     1
102
RTVSPropertyOp48
 70
     1
102
RTVSPropertyOp49
 70
     1
102
RTVSPropertyOp50
 70
     1
102
RTVSPropertyOp51
 70
     0
102
RTVSPropertyOp52
 70
     0
102
RTVSPropertyOp53
 70
     1
102
RTVSPropertyOp54
 70
     1
102
RTVSPropertyOp55
 70
     1
102
RTVSPropertyOp56
 70
     1
102
RTVSPropertyOp57
 70
     1
102
RTVSPropertyOp58
 70
     1
102
RTVSPropertyOp59
 70
     1
102
RTVSPropertyOp60
 70
     1
102
RTVSPropertyOp61
 70
     1
102
RTVSPropertyOp62
 70
     1
  0
XRECORD
  5
596F
102
{ACAD_REACTORS
330
596E
102
}
330
596E
100
AcDbXrecord
280
     1
102
RTVSPost2010Prop28
280
     0
102
RTVSPost2010PropOp28
 70
     1
102
RTVSPost2010Prop29
280
     1
102
RTVSPost2010PropOp29
 70
     1
102
RTVSPost2010Prop30
280
     1
102
RTVSPost2010PropOp30
 70
     1
102
RTVSPost2010Prop31
280
     0
102
RTVSPost2010PropOp31
 70
     1
102
RTVSPost2010Prop32
280
     0
102
RTVSPost2010PropOp32
 70
     1
102
RTVSPost2010Prop33
280
     0
102
RTVSPost2010PropOp33
 70
     1
102
RTVSPost2010Prop34
280
     0
102
RTVSPost2010PropOp34
 70
     1
102
RTVSPost2010Prop35
280
     0
102
RTVSPost2010PropOp35
 70
     1
102
RTVSPost2010Prop36
280
     0
102
RTVSPost2010PropOp36
 70
     1
102
RTVSPost2010Prop37
 90
       50
102
RTVSPost2010PropOp37
 70
     1
102
RTVSPost2010Prop38
140
0.0
102
RTVSPost2010PropOp38
 70
     1
102
RTVSPost2010Prop39
140
1.0
102
RTVSPost2010PropOp39
 70
     1
102
RTVSPost2010Prop40
 90
        0
102
RTVSPost2010PropOp40
 70
     1
102
RTVSPost2010Prop41ColorIndex
 90
       18
102
RTVSPost2010Prop41ColorRGB
 90
        0
102
RTVSPost2010PropOp41
 70
     1
102
RTVSPost2010Prop42
 90
       50
102
RTVSPost2010PropOp42
 70
     1
102
RTVSPost2010Prop43
 90
        3
102
RTVSPost2010PropOp43
 70
     1
102
RTVSPost2010Prop44ColorIndex
 90
        5
102
RTVSPost2010Prop44ColorRGB
 90
      255
102
RTVSPost2010PropOp44
 70
     1
102
RTVSPost2010Prop45
280
     0
102
RTVSPost2010PropOp45
 70
     1
102
RTVSPost2010Prop46
 90
       50
102
RTVSPost2010PropOp46
 70
     1
102
RTVSPost2010Prop47
 90
       50
102
RTVSPost2010PropOp47
 70
     1
102
RTVSPost2010Prop48
 90
       50
102
RTVSPost2010PropOp48
 70
     1
102
RTVSPost2010Prop49
280
     0
102
RTVSPost2010PropOp49
 70
     1
102
RTVSPost2010Prop50
 90
       50
102
RTVSPost2010PropOp50
 70
     1
102
RTVSPost2010Prop51ColorIndex
 90
      256
102
RTVSPost2010Prop51ColorRGB
 90
-16777216
102
RTVSPost2010PropOp51
 70
     0
102
RTVSPost2010Prop52
140
1.0
102
RTVSPost2010PropOp52
 70
     0
102
RTVSPost2010Prop53
 90
        2
102
RTVSPost2010PropOp53
 70
     1
102
RTVSPost2010Prop54
  1
strokes_ogs.tif
102
RTVSPost2010PropOp54
 70
     1
102
RTVSPost2010Prop55
280
     0
102
RTVSPost2010PropOp55
 70
     1
102
RTVSPost2010Prop56
140
1.0
102
RTVSPost2010PropOp56
 70
     1
102
RTVSPost2010Prop57
140
1.0
102
RTVSPost2010PropOp57
 70
     1
102
RTVSPropertyOp0
 70
     1
102
RTVSPropertyOp1
 70
     1
102
RTVSPropertyOp2
 70
     1
102
RTVSPropertyOp3
 70
     1
102
RTVSPropertyOp4
 70
     1
102
RTVSPropertyOp5
 70
     1
102
RTVSPropertyOp6
 70
     1
102
RTVSPropertyOp7
 70
     1
102
RTVSPropertyOp8
 70
     1
102
RTVSPropertyOp9
 70
     1
102
RTVSPropertyOp10
 70
     1
102
RTVSPropertyOp11
 70
     1
102
RTVSPropertyOp12
 70
     1
102
RTVSPropertyOp13
 70
     1
102
RTVSPropertyOp14
 70
     1
102
RTVSPropertyOp15
 70
     1
102
RTVSPropertyOp16
 70
     1
102
RTVSPropertyOp17
 70
     1
102
RTVSPropertyOp18
 70
     1
102
RTVSPropertyOp19
 70
     1
102
RTVSPropertyOp20
 70
     1
102
RTVSPropertyOp21
 70
     1
102
RTVSPropertyOp22
 70
     1
102
RTVSPropertyOp23
 70
     1
102
RTVSPropertyOp24
 70
     1
102
RTVSPropertyOp25
 70
     1
102
RTVSPropertyOp26
 70
     1
102
RTVSPropertyOp27
 70
     1
102
RTVSPropertyOp28
 70
     1
102
RTVSPropertyOp29
 70
     1
102
RTVSPropertyOp30
 70
     1
102
RTVSPropertyOp31
 70
     1
102
RTVSPropertyOp32
 70
     1
102
RTVSPropertyOp33
 70
     1
102
RTVSPropertyOp34
 70
     1
102
RTVSPropertyOp35
 70
     1
102
RTVSPropertyOp36
 70
     1
102
RTVSPropertyOp37
 70
     1
102
RTVSPropertyOp38
 70
     1
102
RTVSPropertyOp39
 70
     1
102
RTVSPropertyOp40
 70
     1
102
RTVSPropertyOp41
 70
     1
102
RTVSPropertyOp42
 70
     1
102
RTVSPropertyOp43
 70
     1
102
RTVSPropertyOp44
 70
     1
102
RTVSPropertyOp45
 70
     1
102
RTVSPropertyOp46
 70
     1
102
RTVSPropertyOp47
 70
     1
102
RTVSPropertyOp48
 70
     1
102
RTVSPropertyOp49
 70
     1
102
RTVSPropertyOp50
 70
     1
102
RTVSPropertyOp51
 70
     0
102
RTVSPropertyOp52
 70
     0
102
RTVSPropertyOp53
 70
     1
102
RTVSPropertyOp54
 70
     1
102
RTVSPropertyOp55
 70
     1
102
RTVSPropertyOp56
 70
     1
102
RTVSPropertyOp57
 70
     1
102
RTVSPropertyOp58
 70
     1
102
RTVSPropertyOp59
 70
     1
102
RTVSPropertyOp60
 70
     1
102
RTVSPropertyOp61
 70
     1
102
RTVSPropertyOp62
 70
     1
  0
XRECORD
  5
5965
102
{ACAD_REACTORS
330
5964
102
}
330
5964
100
AcDbXrecord
280
     1
102
RTVSPost2010Prop28
280
     0
102
RTVSPost2010PropOp28
 70
     1
102
RTVSPost2010Prop29
280
     1
102
RTVSPost2010PropOp29
 70
     1
102
RTVSPost2010Prop30
280
     1
102
RTVSPost2010PropOp30
 70
     1
102
RTVSPost2010Prop31
280
     0
102
RTVSPost2010PropOp31
 70
     1
102
RTVSPost2010Prop32
280
     0
102
RTVSPost2010PropOp32
 70
     1
102
RTVSPost2010Prop33
280
     0
102
RTVSPost2010PropOp33
 70
     1
102
RTVSPost2010Prop34
280
     0
102
RTVSPost2010PropOp34
 70
     1
102
RTVSPost2010Prop35
280
     0
102
RTVSPost2010PropOp35
 70
     1
102
RTVSPost2010Prop36
280
     0
102
RTVSPost2010PropOp36
 70
     1
102
RTVSPost2010Prop37
 90
       50
102
RTVSPost2010PropOp37
 70
     1
102
RTVSPost2010Prop38
140
0.0
102
RTVSPost2010PropOp38
 70
     1
102
RTVSPost2010Prop39
140
1.0
102
RTVSPost2010PropOp39
 70
     1
102
RTVSPost2010Prop40
 90
        0
102
RTVSPost2010PropOp40
 70
     1
102
RTVSPost2010Prop41ColorIndex
 90
       18
102
RTVSPost2010Prop41ColorRGB
 90
        0
102
RTVSPost2010PropOp41
 70
     1
102
RTVSPost2010Prop42
 90
       50
102
RTVSPost2010PropOp42
 70
     1
102
RTVSPost2010Prop43
 90
        3
102
RTVSPost2010PropOp43
 70
     1
102
RTVSPost2010Prop44ColorIndex
 90
        5
102
RTVSPost2010Prop44ColorRGB
 90
      255
102
RTVSPost2010PropOp44
 70
     1
102
RTVSPost2010Prop45
280
     0
102
RTVSPost2010PropOp45
 70
     1
102
RTVSPost2010Prop46
 90
       50
102
RTVSPost2010PropOp46
 70
     1
102
RTVSPost2010Prop47
 90
       50
102
RTVSPost2010PropOp47
 70
     1
102
RTVSPost2010Prop48
 90
       50
102
RTVSPost2010PropOp48
 70
     1
102
RTVSPost2010Prop49
280
     0
102
RTVSPost2010PropOp49
 70
     1
102
RTVSPost2010Prop50
 90
       50
102
RTVSPost2010PropOp50
 70
     1
102
RTVSPost2010Prop51ColorIndex
 90
      256
102
RTVSPost2010Prop51ColorRGB
 90
-16777216
102
RTVSPost2010PropOp51
 70
     0
102
RTVSPost2010Prop52
140
1.0
102
RTVSPost2010PropOp52
 70
     0
102
RTVSPost2010Prop53
 90
        2
102
RTVSPost2010PropOp53
 70
     1
102
RTVSPost2010Prop54
  1
strokes_ogs.tif
102
RTVSPost2010PropOp54
 70
     1
102
RTVSPost2010Prop55
280
     0
102
RTVSPost2010PropOp55
 70
     1
102
RTVSPost2010Prop56
140
1.0
102
RTVSPost2010PropOp56
 70
     1
102
RTVSPost2010Prop57
140
1.0
102
RTVSPost2010PropOp57
 70
     1
102
RTVSPropertyOp0
 70
     1
102
RTVSPropertyOp1
 70
     1
102
RTVSPropertyOp2
 70
     1
102
RTVSPropertyOp3
 70
     1
102
RTVSPropertyOp4
 70
     1
102
RTVSPropertyOp5
 70
     1
102
RTVSPropertyOp6
 70
     1
102
RTVSPropertyOp7
 70
     1
102
RTVSPropertyOp8
 70
     1
102
RTVSPropertyOp9
 70
     1
102
RTVSPropertyOp10
 70
     1
102
RTVSPropertyOp11
 70
     1
102
RTVSPropertyOp12
 70
     1
102
RTVSPropertyOp13
 70
     1
102
RTVSPropertyOp14
 70
     1
102
RTVSPropertyOp15
 70
     1
102
RTVSPropertyOp16
 70
     1
102
RTVSPropertyOp17
 70
     1
102
RTVSPropertyOp18
 70
     1
102
RTVSPropertyOp19
 70
     1
102
RTVSPropertyOp20
 70
     1
102
RTVSPropertyOp21
 70
     1
102
RTVSPropertyOp22
 70
     1
102
RTVSPropertyOp23
 70
     1
102
RTVSPropertyOp24
 70
     1
102
RTVSPropertyOp25
 70
     1
102
RTVSPropertyOp26
 70
     1
102
RTVSPropertyOp27
 70
     1
102
RTVSPropertyOp28
 70
     1
102
RTVSPropertyOp29
 70
     1
102
RTVSPropertyOp30
 70
     1
102
RTVSPropertyOp31
 70
     1
102
RTVSPropertyOp32
 70
     1
102
RTVSPropertyOp33
 70
     1
102
RTVSPropertyOp34
 70
     1
102
RTVSPropertyOp35
 70
     1
102
RTVSPropertyOp36
 70
     1
102
RTVSPropertyOp37
 70
     1
102
RTVSPropertyOp38
 70
     1
102
RTVSPropertyOp39
 70
     1
102
RTVSPropertyOp40
 70
     1
102
RTVSPropertyOp41
 70
     1
102
RTVSPropertyOp42
 70
     1
102
RTVSPropertyOp43
 70
     1
102
RTVSPropertyOp44
 70
     1
102
RTVSPropertyOp45
 70
     1
102
RTVSPropertyOp46
 70
     1
102
RTVSPropertyOp47
 70
     1
102
RTVSPropertyOp48
 70
     1
102
RTVSPropertyOp49
 70
     1
102
RTVSPropertyOp50
 70
     1
102
RTVSPropertyOp51
 70
     0
102
RTVSPropertyOp52
 70
     0
102
RTVSPropertyOp53
 70
     1
102
RTVSPropertyOp54
 70
     1
102
RTVSPropertyOp55
 70
     1
102
RTVSPropertyOp56
 70
     1
102
RTVSPropertyOp57
 70
     1
102
RTVSPropertyOp58
 70
     1
102
RTVSPropertyOp59
 70
     1
102
RTVSPropertyOp60
 70
     1
102
RTVSPropertyOp61
 70
     1
102
RTVSPropertyOp62
 70
     1
  0
XRECORD
  5
5959
102
{ACAD_REACTORS
330
5958
102
}
330
5958
100
AcDbXrecord
280
     1
102
RTVSPost2010Prop28
280
     0
102
RTVSPost2010PropOp28
 70
     1
102
RTVSPost2010Prop29
280
     1
102
RTVSPost2010PropOp29
 70
     1
102
RTVSPost2010Prop30
280
     1
102
RTVSPost2010PropOp30
 70
     1
102
RTVSPost2010Prop31
280
     0
102
RTVSPost2010PropOp31
 70
     1
102
RTVSPost2010Prop32
280
     0
102
RTVSPost2010PropOp32
 70
     1
102
RTVSPost2010Prop33
280
     0
102
RTVSPost2010PropOp33
 70
     1
102
RTVSPost2010Prop34
280
     0
102
RTVSPost2010PropOp34
 70
     1
102
RTVSPost2010Prop35
280
     0
102
RTVSPost2010PropOp35
 70
     1
102
RTVSPost2010Prop36
280
     0
102
RTVSPost2010PropOp36
 70
     1
102
RTVSPost2010Prop37
 90
       50
102
RTVSPost2010PropOp37
 70
     1
102
RTVSPost2010Prop38
140
0.0
102
RTVSPost2010PropOp38
 70
     1
102
RTVSPost2010Prop39
140
1.0
102
RTVSPost2010PropOp39
 70
     1
102
RTVSPost2010Prop40
 90
        0
102
RTVSPost2010PropOp40
 70
     1
102
RTVSPost2010Prop41ColorIndex
 90
       18
102
RTVSPost2010Prop41ColorRGB
 90
        0
102
RTVSPost2010PropOp41
 70
     1
102
RTVSPost2010Prop42
 90
       50
102
RTVSPost2010PropOp42
 70
     1
102
RTVSPost2010Prop43
 90
        3
102
RTVSPost2010PropOp43
 70
     1
102
RTVSPost2010Prop44ColorIndex
 90
        5
102
RTVSPost2010Prop44ColorRGB
 90
      255
102
RTVSPost2010PropOp44
 70
     1
102
RTVSPost2010Prop45
280
     0
102
RTVSPost2010PropOp45
 70
     1
102
RTVSPost2010Prop46
 90
       50
102
RTVSPost2010PropOp46
 70
     1
102
RTVSPost2010Prop47
 90
       50
102
RTVSPost2010PropOp47
 70
     1
102
RTVSPost2010Prop48
 90
       50
102
RTVSPost2010PropOp48
 70
     1
102
RTVSPost2010Prop49
280
     0
102
RTVSPost2010PropOp49
 70
     1
102
RTVSPost2010Prop50
 90
       50
102
RTVSPost2010PropOp50
 70
     1
102
RTVSPost2010Prop51ColorIndex
 90
      256
102
RTVSPost2010Prop51ColorRGB
 90
-16777216
102
RTVSPost2010PropOp51
 70
     0
102
RTVSPost2010Prop52
140
1.0
102
RTVSPost2010PropOp52
 70
     0
102
RTVSPost2010Prop53
 90
        2
102
RTVSPost2010PropOp53
 70
     1
102
RTVSPost2010Prop54
  1
strokes_ogs.tif
102
RTVSPost2010PropOp54
 70
     1
102
RTVSPost2010Prop55
280
     0
102
RTVSPost2010PropOp55
 70
     1
102
RTVSPost2010Prop56
140
1.0
102
RTVSPost2010PropOp56
 70
     1
102
RTVSPost2010Prop57
140
1.0
102
RTVSPost2010PropOp57
 70
     1
102
RTVSPropertyOp0
 70
     1
102
RTVSPropertyOp1
 70
     1
102
RTVSPropertyOp2
 70
     1
102
RTVSPropertyOp3
 70
     1
102
RTVSPropertyOp4
 70
     1
102
RTVSPropertyOp5
 70
     1
102
RTVSPropertyOp6
 70
     1
102
RTVSPropertyOp7
 70
     1
102
RTVSPropertyOp8
 70
     1
102
RTVSPropertyOp9
 70
     1
102
RTVSPropertyOp10
 70
     1
102
RTVSPropertyOp11
 70
     1
102
RTVSPropertyOp12
 70
     1
102
RTVSPropertyOp13
 70
     1
102
RTVSPropertyOp14
 70
     1
102
RTVSPropertyOp15
 70
     1
102
RTVSPropertyOp16
 70
     1
102
RTVSPropertyOp17
 70
     1
102
RTVSPropertyOp18
 70
     1
102
RTVSPropertyOp19
 70
     1
102
RTVSPropertyOp20
 70
     1
102
RTVSPropertyOp21
 70
     1
102
RTVSPropertyOp22
 70
     1
102
RTVSPropertyOp23
 70
     1
102
RTVSPropertyOp24
 70
     1
102
RTVSPropertyOp25
 70
     1
102
RTVSPropertyOp26
 70
     1
102
RTVSPropertyOp27
 70
     1
102
RTVSPropertyOp28
 70
     1
102
RTVSPropertyOp29
 70
     1
102
RTVSPropertyOp30
 70
     1
102
RTVSPropertyOp31
 70
     1
102
RTVSPropertyOp32
 70
     1
102
RTVSPropertyOp33
 70
     1
102
RTVSPropertyOp34
 70
     1
102
RTVSPropertyOp35
 70
     1
102
RTVSPropertyOp36
 70
     1
102
RTVSPropertyOp37
 70
     1
102
RTVSPropertyOp38
 70
     1
102
RTVSPropertyOp39
 70
     1
102
RTVSPropertyOp40
 70
     1
102
RTVSPropertyOp41
 70
     1
102
RTVSPropertyOp42
 70
     1
102
RTVSPropertyOp43
 70
     1
102
RTVSPropertyOp44
 70
     1
102
RTVSPropertyOp45
 70
     1
102
RTVSPropertyOp46
 70
     1
102
RTVSPropertyOp47
 70
     1
102
RTVSPropertyOp48
 70
     1
102
RTVSPropertyOp49
 70
     1
102
RTVSPropertyOp50
 70
     1
102
RTVSPropertyOp51
 70
     0
102
RTVSPropertyOp52
 70
     0
102
RTVSPropertyOp53
 70
     1
102
RTVSPropertyOp54
 70
     1
102
RTVSPropertyOp55
 70
     1
102
RTVSPropertyOp56
 70
     1
102
RTVSPropertyOp57
 70
     1
102
RTVSPropertyOp58
 70
     1
102
RTVSPropertyOp59
 70
     1
102
RTVSPropertyOp60
 70
     1
102
RTVSPropertyOp61
 70
     1
102
RTVSPropertyOp62
 70
     1
  0
XRECORD
  5
5971
102
{ACAD_REACTORS
330
5970
102
}
330
5970
100
AcDbXrecord
280
     1
102
RTVSPost2010Prop28
280
     0
102
RTVSPost2010PropOp28
 70
     1
102
RTVSPost2010Prop29
280
     1
102
RTVSPost2010PropOp29
 70
     1
102
RTVSPost2010Prop30
280
     1
102
RTVSPost2010PropOp30
 70
     1
102
RTVSPost2010Prop31
280
     0
102
RTVSPost2010PropOp31
 70
     1
102
RTVSPost2010Prop32
280
     0
102
RTVSPost2010PropOp32
 70
     1
102
RTVSPost2010Prop33
280
     0
102
RTVSPost2010PropOp33
 70
     1
102
RTVSPost2010Prop34
280
     0
102
RTVSPost2010PropOp34
 70
     1
102
RTVSPost2010Prop35
280
     0
102
RTVSPost2010PropOp35
 70
     1
102
RTVSPost2010Prop36
280
     0
102
RTVSPost2010PropOp36
 70
     1
102
RTVSPost2010Prop37
 90
       50
102
RTVSPost2010PropOp37
 70
     1
102
RTVSPost2010Prop38
140
0.0
102
RTVSPost2010PropOp38
 70
     1
102
RTVSPost2010Prop39
140
1.0
102
RTVSPost2010PropOp39
 70
     1
102
RTVSPost2010Prop40
 90
        0
102
RTVSPost2010PropOp40
 70
     1
102
RTVSPost2010Prop41ColorIndex
 90
       18
102
RTVSPost2010Prop41ColorRGB
 90
        0
102
RTVSPost2010PropOp41
 70
     1
102
RTVSPost2010Prop42
 90
       50
102
RTVSPost2010PropOp42
 70
     1
102
RTVSPost2010Prop43
 90
        3
102
RTVSPost2010PropOp43
 70
     1
102
RTVSPost2010Prop44ColorIndex
 90
        5
102
RTVSPost2010Prop44ColorRGB
 90
      255
102
RTVSPost2010PropOp44
 70
     1
102
RTVSPost2010Prop45
280
     0
102
RTVSPost2010PropOp45
 70
     1
102
RTVSPost2010Prop46
 90
       50
102
RTVSPost2010PropOp46
 70
     1
102
RTVSPost2010Prop47
 90
       50
102
RTVSPost2010PropOp47
 70
     1
102
RTVSPost2010Prop48
 90
       50
102
RTVSPost2010PropOp48
 70
     1
102
RTVSPost2010Prop49
280
     0
102
RTVSPost2010PropOp49
 70
     1
102
RTVSPost2010Prop50
 90
       50
102
RTVSPost2010PropOp50
 70
     1
102
RTVSPost2010Prop51ColorIndex
 90
      256
102
RTVSPost2010Prop51ColorRGB
 90
-16777216
102
RTVSPost2010PropOp51
 70
     0
102
RTVSPost2010Prop52
140
1.0
102
RTVSPost2010PropOp52
 70
     0
102
RTVSPost2010Prop53
 90
        2
102
RTVSPost2010PropOp53
 70
     1
102
RTVSPost2010Prop54
  1
strokes_ogs.tif
102
RTVSPost2010PropOp54
 70
     1
102
RTVSPost2010Prop55
280
     0
102
RTVSPost2010PropOp55
 70
     1
102
RTVSPost2010Prop56
140
1.0
102
RTVSPost2010PropOp56
 70
     1
102
RTVSPost2010Prop57
140
1.0
102
RTVSPost2010PropOp57
 70
     1
102
RTVSPropertyOp0
 70
     1
102
RTVSPropertyOp1
 70
     1
102
RTVSPropertyOp2
 70
     1
102
RTVSPropertyOp3
 70
     1
102
RTVSPropertyOp4
 70
     1
102
RTVSPropertyOp5
 70
     1
102
RTVSPropertyOp6
 70
     1
102
RTVSPropertyOp7
 70
     1
102
RTVSPropertyOp8
 70
     1
102
RTVSPropertyOp9
 70
     1
102
RTVSPropertyOp10
 70
     1
102
RTVSPropertyOp11
 70
     1
102
RTVSPropertyOp12
 70
     1
102
RTVSPropertyOp13
 70
     1
102
RTVSPropertyOp14
 70
     1
102
RTVSPropertyOp15
 70
     1
102
RTVSPropertyOp16
 70
     1
102
RTVSPropertyOp17
 70
     1
102
RTVSPropertyOp18
 70
     1
102
RTVSPropertyOp19
 70
     1
102
RTVSPropertyOp20
 70
     1
102
RTVSPropertyOp21
 70
     1
102
RTVSPropertyOp22
 70
     1
102
RTVSPropertyOp23
 70
     1
102
RTVSPropertyOp24
 70
     1
102
RTVSPropertyOp25
 70
     1
102
RTVSPropertyOp26
 70
     1
102
RTVSPropertyOp27
 70
     1
102
RTVSPropertyOp28
 70
     1
102
RTVSPropertyOp29
 70
     1
102
RTVSPropertyOp30
 70
     1
102
RTVSPropertyOp31
 70
     1
102
RTVSPropertyOp32
 70
     1
102
RTVSPropertyOp33
 70
     1
102
RTVSPropertyOp34
 70
     1
102
RTVSPropertyOp35
 70
     1
102
RTVSPropertyOp36
 70
     1
102
RTVSPropertyOp37
 70
     1
102
RTVSPropertyOp38
 70
     1
102
RTVSPropertyOp39
 70
     1
102
RTVSPropertyOp40
 70
     1
102
RTVSPropertyOp41
 70
     1
102
RTVSPropertyOp42
 70
     1
102
RTVSPropertyOp43
 70
     1
102
RTVSPropertyOp44
 70
     1
102
RTVSPropertyOp45
 70
     1
102
RTVSPropertyOp46
 70
     1
102
RTVSPropertyOp47
 70
     1
102
RTVSPropertyOp48
 70
     1
102
RTVSPropertyOp49
 70
     1
102
RTVSPropertyOp50
 70
     1
102
RTVSPropertyOp51
 70
     0
102
RTVSPropertyOp52
 70
     0
102
RTVSPropertyOp53
 70
     1
102
RTVSPropertyOp54
 70
     1
102
RTVSPropertyOp55
 70
     1
102
RTVSPropertyOp56
 70
     1
102
RTVSPropertyOp57
 70
     1
102
RTVSPropertyOp58
 70
     1
102
RTVSPropertyOp59
 70
     1
102
RTVSPropertyOp60
 70
     1
102
RTVSPropertyOp61
 70
     1
102
RTVSPropertyOp62
 70
     1
  0
ENDSEC
  0
EOF
