  0
SECTION
  2
HEADER
  9
$ACADVER
  1
AC1024
  9
$ACADMAINTVER
 70
   226
  9
$DWGCODEPAGE
  3
ANSI_932
  9
$LASTSAVEDBY
  1
hirotaka.yamamoto
  9
$INSBASE
 10
0.0
 20
0.0
 30
0.0
  9
$EXTMIN
 10
3813.871060185854
 20
-10135.27758700691
 30
0.0
  9
$EXTMAX
 10
4536.004683487534
 20
-9831.170545153513
 30
0.0
  9
$LIMMIN
 10
0.0
 20
0.0
  9
$LIMMAX
 10
420.0
 20
297.0
  9
$ORTHOMODE
 70
     0
  9
$REGENMODE
 70
     1
  9
$FILLMODE
 70
     1
  9
$QTEXTMODE
 70
     0
  9
$MIRRTEXT
 70
     1
  9
$LTSCALE
 40
1.0
  9
$ATTMODE
 70
     1
  9
$TEXTSIZE
 40
2.0
  9
$TRACEWID
 40
1.0
  9
$TEXTSTYLE
  7
KANJI
  9
$CLAYER
  8
1外形線
  9
$CELTYPE
  6
BYLAYER
  9
$CECOLOR
 62
   256
  9
$CELTSCALE
 40
1.0
  9
$DISPSILH
 70
     0
  9
$DIMSCALE
 40
0.0
  9
$DIMASZ
 40
1.8
  9
$DIMEXO
 40
1.0
  9
$DIMDLI
 40
0.0
  9
$DIMRND
 40
0.0
  9
$DIMDLE
 40
0.0
  9
$DIMEXE
 40
1.0
  9
$DIMTP
 40
0.0
  9
$DIMTM
 40
0.0
  9
$DIMTXT
 40
2.5
  9
$DIMCEN
 40
0.0
  9
$DIMTSZ
 40
0.0
  9
$DIMTOL
 70
     0
  9
$DIMLIM
 70
     0
  9
$DIMTIH
 70
     0
  9
$DIMTOH
 70
     0
  9
$DIMSE1
 70
     0
  9
$DIMSE2
 70
     0
  9
$DIMTAD
 70
     1
  9
$DIMZIN
 70
     8
  9
$DIMBLK
  1

  9
$DIMASO
 70
     1
  9
$DIMSHO
 70
     1
  9
$DIMPOST
  1

  9
$DIMAPOST
  1

  9
$DIMALT
 70
     0
  9
$DIMALTD
 70
     2
  9
$DIMALTF
 40
25.4
  9
$DIMLFAC
 40
1.0
  9
$DIMTOFL
 70
     1
  9
$DIMTVP
 40
0.0
  9
$DIMTIX
 70
     0
  9
$DIMSOXD
 70
     0
  9
$DIMSAH
 70
     1
  9
$DIMBLK1
  1
2
  9
$DIMBLK2
  1
2
  9
$DIMSTYLE
  2
M
  9
$DIMCLRD
 70
     0
  9
$DIMCLRE
 70
     0
  9
$DIMCLRT
 70
     0
  9
$DIMTFAC
 40
1.0
  9
$DIMGAP
 40
0.5
  9
$DIMJUST
 70
     0
  9
$DIMSD1
 70
     0
  9
$DIMSD2
 70
     0
  9
$DIMTOLJ
 70
     1
  9
$DIMTZIN
 70
     8
  9
$DIMALTZ
 70
     0
  9
$DIMALTTZ
 70
     0
  9
$DIMUPT
 70
     0
  9
$DIMDEC
 70
     4
  9
$DIMTDEC
 70
     4
  9
$DIMALTU
 70
     2
  9
$DIMALTTD
 70
     2
  9
$DIMTXSTY
  7
KANJI
  9
$DIMAUNIT
 70
     0
  9
$DIMADEC
 70
     0
  9
$DIMALTRND
 40
0.0
  9
$DIMAZIN
 70
     0
  9
$DIMDSEP
 70
    46
  9
$DIMATFIT
 70
     3
  9
$DIMFRAC
 70
     0
  9
$DIMLDRBLK
  1
2
  9
$DIMLUNIT
 70
     2
  9
$DIMLWD
 70
    -2
  9
$DIMLWE
 70
    -2
  9
$DIMTMOVE
 70
     0
  9
$DIMFXL
 40
1.0
  9
$DIMFXLON
 70
     0
  9
$DIMJOGANG
 40
0.7853981633974483
  9
$DIMTFILL
 70
     0
  9
$DIMTFILLCLR
 70
     0
  9
$DIMARCSYM
 70
     0
  9
$DIMLTYPE
  6

  9
$DIMLTEX1
  6

  9
$DIMLTEX2
  6

  9
$DIMTXTDIRECTION
 70
     0
  9
$LUNITS
 70
     2
  9
$LUPREC
 70
     3
  9
$SKETCHINC
 40
1.0
  9
$FILLETRAD
 40
0.0
  9
$AUNITS
 70
     0
  9
$AUPREC
 70
     1
  9
$MENU
  1
.
  9
$ELEVATION
 40
0.0
  9
$PELEVATION
 40
0.0
  9
$THICKNESS
 40
0.0
  9
$LIMCHECK
 70
     0
  9
$CHAMFERA
 40
10.0
  9
$CHAMFERB
 40
10.0
  9
$CHAMFERC
 40
20.0
  9
$CHAMFERD
 40
0.0
  9
$SKPOLY
 70
     0
  9
$TDCREATE
 40
2454568.399710648
  9
$TDUCREATE
 40
2454568.024718241
  9
$TDUPDATE
 40
2459732.477962963
  9
$TDUUPDATE
 40
2459732.102962963
  9
$TDINDWG
 40
8.4286640046
  9
$TDUSRTIMER
 40
8.4286640046
  9
$USRTIMER
 70
     1
  9
$ANGBASE
 50
0.0
  9
$ANGDIR
 70
     0
  9
$PDMODE
 70
     0
  9
$PDSIZE
 40
0.0
  9
$PLINEWID
 40
0.0
  9
$SPLFRAME
 70
     0
  9
$SPLINETYPE
 70
     6
  9
$SPLINESEGS
 70
     8
  9
$HANDSEED
  5
657E4
  9
$SURFTAB1
 70
     6
  9
$SURFTAB2
 70
     6
  9
$SURFTYPE
 70
     6
  9
$SURFU
 70
     6
  9
$SURFV
 70
     6
  9
$UCSBASE
  2

  9
$UCSNAME
  2

  9
$UCSORG
 10
0.0
 20
0.0
 30
0.0
  9
$UCSXDIR
 10
1.0
 20
0.0
 30
0.0
  9
$UCSYDIR
 10
0.0
 20
1.0
 30
0.0
  9
$UCSORTHOREF
  2

  9
$UCSORTHOVIEW
 70
     0
  9
$UCSORGTOP
 10
0.0
 20
0.0
 30
0.0
  9
$UCSORGBOTTOM
 10
0.0
 20
0.0
 30
0.0
  9
$UCSORGLEFT
 10
0.0
 20
0.0
 30
0.0
  9
$UCSORGRIGHT
 10
0.0
 20
0.0
 30
0.0
  9
$UCSORGFRONT
 10
0.0
 20
0.0
 30
0.0
  9
$UCSORGBACK
 10
0.0
 20
0.0
 30
0.0
  9
$PUCSBASE
  2

  9
$PUCSNAME
  2

  9
$PUCSORG
 10
0.0
 20
0.0
 30
0.0
  9
$PUCSXDIR
 10
1.0
 20
0.0
 30
0.0
  9
$PUCSYDIR
 10
0.0
 20
1.0
 30
0.0
  9
$PUCSORTHOREF
  2

  9
$PUCSORTHOVIEW
 70
     0
  9
$PUCSORGTOP
 10
0.0
 20
0.0
 30
0.0
  9
$PUCSORGBOTTOM
 10
0.0
 20
0.0
 30
0.0
  9
$PUCSORGLEFT
 10
0.0
 20
0.0
 30
0.0
  9
$PUCSORGRIGHT
 10
0.0
 20
0.0
 30
0.0
  9
$PUCSORGFRONT
 10
0.0
 20
0.0
 30
0.0
  9
$PUCSORGBACK
 10
0.0
 20
0.0
 30
0.0
  9
$USERI1
 70
     0
  9
$USERI2
 70
     0
  9
$USERI3
 70
     0
  9
$USERI4
 70
     0
  9
$USERI5
 70
     0
  9
$USERR1
 40
0.0
  9
$USERR2
 40
0.0
  9
$USERR3
 40
0.0
  9
$USERR4
 40
0.0
  9
$USERR5
 40
0.0
  9
$WORLDVIEW
 70
     1
  9
$SHADEDGE
 70
     3
  9
$SHADEDIF
 70
    70
  9
$TILEMODE
 70
     1
  9
$MAXACTVP
 70
    48
  9
$PINSBASE
 10
0.0
 20
0.0
 30
0.0
  9
$PLIMCHECK
 70
     0
  9
$PEXTMIN
 10
26.66999878883363
 20
20.31999878883363
 30
0.0
  9
$PEXTMAX
 10
240.0299890995026
 20
182.8799890995025
 30
0.0
  9
$PLIMMIN
 10
-6.350006103515625
 20
-6.349999904632568
  9
$PLIMMAX
 10
273.0499877929688
 20
209.5499939918518
  9
$UNITMODE
 70
     0
  9
$VISRETAIN
 70
     1
  9
$PLINEGEN
 70
     0
  9
$PSLTSCALE
 70
     1
  9
$TREEDEPTH
 70
  3020
  9
$CMLSTYLE
  2
STANDARD
  9
$CMLJUST
 70
     0
  9
$CMLSCALE
 40
20.0
  9
$PROXYGRAPHICS
 70
     1
  9
$MEASUREMENT
 70
     1
  9
$CELWEIGHT
370
    -1
  9
$ENDCAPS
280
     0
  9
$JOINSTYLE
280
     0
  9
$LWDISPLAY
290
     0
  9
$INSUNITS
 70
     0
  9
$HYPERLINKBASE
  1

  9
$STYLESHEET
  1
1mizukoshi.ctb
  9
$XEDIT
290
     1
  9
$CEPSNTYPE
380
     0
  9
$PSTYLEMODE
290
     1
  9
$FINGERPRINTGUID
  2
{1A717817-EF10-40FC-89A7-D7D4B6B15B08}
  9
$VERSIONGUID
  2
{321EFA63-AFDE-5440-9B45-B89379919E89}
  9
$EXTNAMES
290
     1
  9
$PSVPSCALE
 40
0.0
  9
$OLESTARTUP
290
     0
  9
$SORTENTS
280
     1
  9
$INDEXCTL
280
     0
  9
$HIDETEXT
280
     0
  9
$XCLIPFRAME
280
     2
  9
$HALOGAP
280
     0
  9
$OBSCOLOR
 70
   257
  9
$OBSLTYPE
280
     0
  9
$INTERSECTIONDISPLAY
280
     0
  9
$INTERSECTIONCOLOR
 70
   257
  9
$DIMASSOC
280
     1
  9
$PROJECTNAME
  1

  9
$CAMERADISPLAY
290
     0
  9
$LENSLENGTH
 40
50.0
  9
$CAMERAHEIGHT
 40
0.0
  9
$STEPSPERSEC
 40
2.0
  9
$STEPSIZE
 40
6.0
  9
$3DDWFPREC
 40
2.0
  9
$PSOLWIDTH
 40
0.25
  9
$PSOLHEIGHT
 40
4.0
  9
$LOFTANG1
 40
1.570796326794896
  9
$LOFTANG2
 40
1.570796326794896
  9
$LOFTMAG1
 40
0.0
  9
$LOFTMAG2
 40
0.0
  9
$LOFTPARAM
 70
     7
  9
$LOFTNORMALS
280
     1
  9
$LATITUDE
 40
37.795
  9
$LONGITUDE
 40
-122.394
  9
$NORTHDIRECTION
 40
0.0
  9
$TIMEZONE
 70
 -8000
  9
$LIGHTGLYPHDISPLAY
280
     1
  9
$TILEMODELIGHTSYNCH
280
     1
  9
$CMATERIAL
347
6503B
  9
$SOLIDHIST
280
     0
  9
$SHOWHIST
280
     1
  9
$DWFFRAME
280
     2
  9
$DGNFRAME
280
     0
  9
$REALWORLDSCALE
290
     1
  9
$INTERFERECOLOR
 62
     1
  9
$INTERFEREOBJVS
345
65048
  9
$INTERFEREVPVS
346
655E3
  9
$CSHADOW
280
     0
  9
$SHADOWPLANELOCATION
 40
0.0
  0
ENDSEC
  0
SECTION
  2
CLASSES
  0
CLASS
  1
DICTIONARYVAR
  2
AcDbDictionaryVar
  3
ObjectDBX Classes
 90
        0
 91
       12
280
     0
281
     0
  0
CLASS
  1
ACDBDICTIONARYWDFLT
  2
AcDbDictionaryWithDefault
  3
ObjectDBX Classes
 90
        0
 91
        1
280
     0
281
     0
  0
CLASS
  1
MATERIAL
  2
AcDbMaterial
  3
ObjectDBX Classes
 90
     1153
 91
        3
280
     0
281
     0
  0
CLASS
  1
VISUALSTYLE
  2
AcDbVisualStyle
  3
ObjectDBX Classes
 90
     4095
 91
       26
280
     0
281
     0
  0
CLASS
  1
TABLESTYLE
  2
AcDbTableStyle
  3
ObjectDBX Classes
 90
     4095
 91
        1
280
     0
281
     0
  0
CLASS
  1
SCALE
  2
AcDbScale
  3
ObjectDBX Classes
 90
     1153
 91
       17
280
     0
281
     0
  0
CLASS
  1
MLEADERSTYLE
  2
AcDbMLeaderStyle
  3
ACDB_MLEADERSTYLE_CLASS
 90
     4095
 91
        1
280
     0
281
     0
  0
CLASS
  1
ACDBSECTIONVIEWSTYLE
  2
AcDbSectionViewStyle
  3
ObjectDBX Classes
 90
     1025
 91
        1
280
     0
281
     0
  0
CLASS
  1
ACDBDETAILVIEWSTYLE
  2
AcDbDetailViewStyle
  3
ObjectDBX Classes
 90
     1025
 91
        1
280
     0
281
     0
  0
CLASS
  1
SORTENTSTABLE
  2
AcDbSortentsTable
  3
ObjectDBX Classes
 90
        0
 91
        0
280
     0
281
     0
  0
CLASS
  1
CELLSTYLEMAP
  2
AcDbCellStyleMap
  3
ObjectDBX Classes
 90
     1152
 91
        1
280
     0
281
     0
  0
ENDSEC
  0
SECTION
  2
TABLES
  0
TABLE
  2
VPORT
  5
8
102
{ACAD_XDICTIONARY
360
65130
102
}
330
0
100
AcDbSymbolTable
 70
     1
  0
VPORT
  5
655E1
330
8
100
AcDbSymbolTableRecord
100
AcDbViewportTableRecord
  2
*Active
 70
     0
 10
0.0
 20
0.0
 11
1.0
 21
1.0
 12
3886.06854367141
 22
-10064.26997137176
 13
0.0
 23
0.0
 14
10.0
 24
10.0
 15
10.0
 25
10.0
 16
0.0
 26
0.0
 36
1.0
 17
0.0
 27
0.0
 37
0.0
 40
463.0809424439466
 41
1.896758703481392
 42
50.0
 43
0.0
 44
0.0
 50
0.0
 51
0.0
 71
     0
 72
   100
 73
     1
 74
     1
 75
     0
 76
     1
 77
     0
 78
     0
281
     0
 65
     1
110
0.0
120
0.0
130
0.0
111
1.0
121
0.0
131
0.0
112
0.0
122
1.0
132
0.0
 79
     0
146
0.0
348
65044
 60
     3
 61
     5
292
     1
282
     1
141
0.0
142
0.0
 63
   250
421
  3355443
1001
ACAD_NAV_VCDISPLAY
1070
     3
  0
ENDTAB
  0
TABLE
  2
LTYPE
  5
5
330
0
100
AcDbSymbolTable
 70
    23
  0
LTYPE
  5
12
330
5
100
AcDbSymbolTableRecord
100
AcDbLinetypeTableRecord
  2
BYBLOCK
 70
     0
  3

 72
    65
 73
     0
 40
0.0
  0
LTYPE
  5
13
330
5
100
AcDbSymbolTableRecord
100
AcDbLinetypeTableRecord
  2
BYLAYER
 70
     0
  3

 72
    65
 73
     0
 40
0.0
  0
LTYPE
  5
14
330
5
100
AcDbSymbolTableRecord
100
AcDbLinetypeTableRecord
  2
CONTINUOUS
 70
     0
  3
Solid line
 72
    65
 73
     0
 40
0.0
  0
LTYPE
  5
28
330
5
100
AcDbSymbolTableRecord
100
AcDbLinetypeTableRecord
  2
CENTER
 70
     0
  3
Center ____ _ ____ _ ____ _ ____ _ ____ _ ____
 72
    65
 73
     4
 40
50.8
 49
31.75
 74
     0
 49
-6.349999999999999
 74
     0
 49
6.349999999999999
 74
     0
 49
-6.349999999999999
 74
     0
  0
LTYPE
  5
29
330
5
100
AcDbSymbolTableRecord
100
AcDbLinetypeTableRecord
  2
HIDDEN
 70
     0
  3
Hidden __ __ __ __ __ __ __ __ __ __ __ __ __ _
 72
    65
 73
     2
 40
9.524999999999998
 49
6.349999999999999
 74
     0
 49
-3.174999999999999
 74
     0
  0
LTYPE
  5
2A
330
5
100
AcDbSymbolTableRecord
100
AcDbLinetypeTableRecord
  2
PHANTOM
 70
     0
  3
Phantom ______  __  __  ______  __  __  ______
 72
    65
 73
     6
 40
63.5
 49
31.75
 74
     0
 49
-6.349999999999999
 74
     0
 49
6.349999999999999
 74
     0
 49
-6.349999999999999
 74
     0
 49
6.349999999999999
 74
     0
 49
-6.349999999999999
 74
     0
  0
LTYPE
  5
1B3
330
5
100
AcDbSymbolTableRecord
100
AcDbLinetypeTableRecord
  2
PHANTOM2
 70
     0
  3
Phantom (.5x) ___ _ _ ___ _ _ ___ _ _ ___ _ _
 72
    65
 73
     6
 40
31.75
 49
15.875
 74
     0
 49
-3.174999999999999
 74
     0
 49
3.174999999999999
 74
     0
 49
-3.174999999999999
 74
     0
 49
3.174999999999999
 74
     0
 49
-3.174999999999999
 74
     0
  0
LTYPE
  5
8C46
330
5
100
AcDbSymbolTableRecord
100
AcDbLinetypeTableRecord
  2
PHANTOM1
 70
     0
  3
______  __  __  ______  __  __  ______  __  __ 
 72
    65
 73
     6
 40
2.5
 49
1.25
 74
     0
 49
-0.25
 74
     0
 49
0.25
 74
     0
 49
-0.25
 74
     0
 49
0.25
 74
     0
 49
-0.25
 74
     0
  0
LTYPE
  5
8C47
330
5
100
AcDbSymbolTableRecord
100
AcDbLinetypeTableRecord
  2
HIDDEN2
 70
     0
  3
Hidden (.5x) _ _ _ _ _ _ _ _ _ _ _ _ _ _ _ _ _
 72
    65
 73
     2
 40
4.762499999999999
 49
3.174999999999999
 74
     0
 49
-1.587499999999999
 74
     0
  0
LTYPE
  5
8C48
330
5
100
AcDbSymbolTableRecord
100
AcDbLinetypeTableRecord
  2
HIDDENX2
 70
     0
  3
Hidden (2x) ____ ____ ____ ____ ____ ____ ____
 72
    65
 73
     2
 40
19.05
 49
12.7
 74
     0
 49
-6.349999999999999
 74
     0
  0
LTYPE
  5
E60C
330
5
100
AcDbSymbolTableRecord
100
AcDbLinetypeTableRecord
  2
DASHDOT
 70
     0
  3
--･--･--･--･--･--･--･--
 72
    65
 73
     4
 40
50.5
 49
30.0
 74
     0
 49
-9.0
 74
     0
 49
2.5
 74
     0
 49
-9.0
 74
     0
  0
LTYPE
  5
E6CE
330
5
100
AcDbSymbolTableRecord
100
AcDbLinetypeTableRecord
  2
DIVIDE
 70
     0
  3
--･･--･･--･･--･･--･･--
 72
    65
 73
     6
 40
58.0
 49
30.0
 74
     0
 49
-9.0
 74
     0
 49
2.5
 74
     0
 49
-5.0
 74
     0
 49
2.5
 74
     0
 49
-9.0
 74
     0
  0
LTYPE
  5
FD2C
330
5
100
AcDbSymbolTableRecord
100
AcDbLinetypeTableRecord
  2
POINT1
 70
     0
  3
一点鎖線（通常）
 72
    65
 73
     4
 40
23.0
 49
20.0
 74
     0
 49
-1.0
 74
     0
 49
1.0
 74
     0
 49
-1.0
 74
     0
  0
LTYPE
  5
5C870
330
5
100
AcDbSymbolTableRecord
100
AcDbLinetypeTableRecord
  2
ASULTYPE
 70
     0
  3
実線
 72
    65
 73
     2
 40
3.0
 49
2.5
 74
     0
 49
0.5
 74
     0
  0
LTYPE
  5
5C871
330
5
100
AcDbSymbolTableRecord
100
AcDbLinetypeTableRecord
  2
ASVLTYPE
 70
     0
  3
__ __ __ __ __ __ __ __ __ __ __ __ __ __ __ __ __ __ __ __ __
 72
    65
 73
     2
 40
0.75
 49
0.5
 74
     0
 49
-0.25
 74
     0
  0
LTYPE
  5
5C872
330
5
100
AcDbSymbolTableRecord
100
AcDbLinetypeTableRecord
  2
AM_ISO02W050
 70
     0
  3
__ __ __ __ __ __ __ __ __ __ __ __ __ __ __
 72
    65
 73
     2
 40
7.5
 49
6.0
 74
     0
 49
-1.5
 74
     0
  0
LTYPE
  5
5C873
330
5
100
AcDbSymbolTableRecord
100
AcDbLinetypeTableRecord
  2
AM_ISO08W050
 70
     0
  3
____ . ____ . ____ . ____ . ____ . ____ . ____
 72
    65
 73
     4
 40
18.0
 49
12.0
 74
     0
 49
-1.5
 74
     0
 49
3.0
 74
     0
 49
-1.5
 74
     0
  0
LTYPE
  5
5C874
330
5
100
AcDbSymbolTableRecord
100
AcDbLinetypeTableRecord
  2
AM_ISO09W050
 70
     0
  3
_____ . . _____ . . _____ . . ____ .. ____
 72
    65
 73
     6
 40
22.5
 49
12.0
 74
     0
 49
-1.5
 74
     0
 49
3.0
 74
     0
 49
-1.5
 74
     0
 49
3.0
 74
     0
 49
-1.5
 74
     0
  0
LTYPE
  5
5C875
330
5
100
AcDbSymbolTableRecord
100
AcDbLinetypeTableRecord
  2
Amconstr
 70
     0
  3
_______________________
 72
    65
 73
     2
 40
9999.0
 49
9999.0
 74
     0
 49
0.0
 74
     0
  0
LTYPE
  5
5C876
330
5
100
AcDbSymbolTableRecord
100
AcDbLinetypeTableRecord
  2
AM_ISO08W050x2
 70
     0
  3
__ . __ . __ . __ . __ . __
 72
    65
 73
     4
 40
9.0
 49
6.0
 74
     0
 49
-0.75
 74
     0
 49
1.5
 74
     0
 49
-0.75
 74
     0
  0
LTYPE
  5
5C877
330
5
100
AcDbSymbolTableRecord
100
AcDbLinetypeTableRecord
  2
AM_ISO02W050x2
 70
     0
  3
 _ _ _ _ _ _ _ _ _ _ _ _
 72
    65
 73
     2
 40
3.75
 49
3.0
 74
     0
 49
-0.75
 74
     0
  0
LTYPE
  5
5C878
330
5
100
AcDbSymbolTableRecord
100
AcDbLinetypeTableRecord
  2
Amzigzag
 70
     0
  3
/\/-/\/-/\/-/\/-/\/-/\/
 72
    65
 73
     2
 40
11.0001
 49
0.0001
 74
     4
 75
   135
340
27
 46
0.04
 50
0.0
 44
0.0
 45
0.0
 49
-11.0
 74
     0
  0
LTYPE
  5
5C879
330
5
100
AcDbSymbolTableRecord
100
AcDbLinetypeTableRecord
  2
ACISOWELD
 70
     0
  3
_ _ _ _ _
 72
    65
 73
     2
 40
2.0
 49
2.0
 74
     0
 49
-1.0
 74
     0
  0
LTYPE
  5
5C87A
330
5
100
AcDbSymbolTableRecord
100
AcDbLinetypeTableRecord
  2
ACISOTGB
 70
     0
  3
__ . . __ . .
 72
    65
 73
     6
 40
9.0
 49
4.0
 74
     0
 49
-1.0
 74
     0
 49
1.0
 74
     0
 49
-1.0
 74
     0
 49
1.0
 74
     0
 49
-1.0
 74
     0
  0
LTYPE
  5
5C87B
330
5
100
AcDbSymbolTableRecord
100
AcDbLinetypeTableRecord
  2
ACISOTGL
 70
     0
  3
_ _ _ _ _
 72
    65
 73
     2
 40
3.0
 49
2.0
 74
     0
 49
-1.0
 74
     0
  0
ENDTAB
  0
TABLE
  2
LAYER
  5
2
102
{ACAD_XDICTIONARY
360
1E74
102
}
330
0
100
AcDbSymbolTable
 70
    32
  0
LAYER
  5
E
102
{ACAD_XDICTIONARY
360
6561A
102
}
330
2
100
AcDbSymbolTableRecord
100
AcDbLayerTableRecord
  2
0
 70
     0
 62
     7
  6
CONTINUOUS
370
    -3
390
15D
347
6503D
  0
LAYER
  5
20
102
{ACAD_XDICTIONARY
360
6561C
102
}
330
2
100
AcDbSymbolTableRecord
100
AcDbLayerTableRecord
  2
1外形線
 70
     0
 62
     3
  6
CONTINUOUS
370
    -3
390
15D
347
6503D
  0
LAYER
  5
21
102
{ACAD_XDICTIONARY
360
6561E
102
}
330
2
100
AcDbSymbolTableRecord
100
AcDbLayerTableRecord
  2
2寸法線
 70
     0
 62
     2
  6
CONTINUOUS
370
    -3
390
15D
347
6503D
  0
LAYER
  5
22
102
{ACAD_XDICTIONARY
360
65620
102
}
330
2
100
AcDbSymbolTableRecord
100
AcDbLayerTableRecord
  2
3補助線
 70
     0
 62
     4
  6
CONTINUOUS
370
    -3
390
15D
347
6503D
  0
LAYER
  5
23
102
{ACAD_XDICTIONARY
360
65622
102
}
330
2
100
AcDbSymbolTableRecord
100
AcDbLayerTableRecord
  2
4太線
 70
     0
 62
     6
  6
CONTINUOUS
370
    -3
390
15D
347
6503D
  0
LAYER
  5
24
102
{ACAD_XDICTIONARY
360
65624
102
}
330
2
100
AcDbSymbolTableRecord
100
AcDbLayerTableRecord
  2
5その他
 70
     0
 62
     5
  6
CONTINUOUS
370
    -3
390
15D
347
6503D
  0
LAYER
  5
25
102
{ACAD_XDICTIONARY
360
65626
102
}
330
2
100
AcDbSymbolTableRecord
100
AcDbLayerTableRecord
  2
6図枠
 70
     0
 62
     7
  6
CONTINUOUS
370
    -3
390
15D
347
6503D
  0
LAYER
  5
94
330
2
100
AcDbSymbolTableRecord
100
AcDbLayerTableRecord
  2
DEFPOINTS
 70
     0
 62
     7
  6
CONTINUOUS
290
     0
370
    -3
390
15D
347
6503D
  0
LAYER
  5
1B4
102
{ACAD_XDICTIONARY
360
65628
102
}
330
2
100
AcDbSymbolTableRecord
100
AcDbLayerTableRecord
  2
1ﾀﾞｸﾄｶﾊﾞｰ
 70
     0
 62
     3
  6
CONTINUOUS
370
    -3
390
15D
347
6503D
  0
LAYER
  5
292
102
{ACAD_XDICTIONARY
360
6562A
102
}
330
2
100
AcDbSymbolTableRecord
100
AcDbLayerTableRecord
  2
1ﾀﾞｸﾄﾍﾞｰｽ
 70
     0
 62
     3
  6
CONTINUOUS
370
    -3
390
15D
347
6503D
  0
LAYER
  5
525
102
{ACAD_XDICTIONARY
360
6562C
102
}
330
2
100
AcDbSymbolTableRecord
100
AcDbLayerTableRecord
  2
2VP
 70
     0
 62
     4
  6
CONTINUOUS
370
    -3
390
15D
347
6503D
  0
LAYER
  5
94D
102
{ACAD_XDICTIONARY
360
6562E
102
}
330
2
100
AcDbSymbolTableRecord
100
AcDbLayerTableRecord
  2
C1
 70
     0
 62
     5
  6
CONTINUOUS
370
    -3
390
15D
347
6503D
  0
LAYER
  5
94E
102
{ACAD_XDICTIONARY
360
65630
102
}
330
2
100
AcDbSymbolTableRecord
100
AcDbLayerTableRecord
  2
C2
 70
     0
 62
     1
  6
CONTINUOUS
370
    -3
390
15D
347
6503D
  0
LAYER
  5
94F
102
{ACAD_XDICTIONARY
360
65632
102
}
330
2
100
AcDbSymbolTableRecord
100
AcDbLayerTableRecord
  2
C3
 70
     0
 62
     6
  6
CONTINUOUS
370
    -3
390
15D
347
6503D
  0
LAYER
  5
950
102
{ACAD_XDICTIONARY
360
65634
102
}
330
2
100
AcDbSymbolTableRecord
100
AcDbLayerTableRecord
  2
C4
 70
     0
 62
     3
  6
CONTINUOUS
370
    -3
390
15D
347
6503D
  0
LAYER
  5
951
102
{ACAD_XDICTIONARY
360
65636
102
}
330
2
100
AcDbSymbolTableRecord
100
AcDbLayerTableRecord
  2
C6
 70
     0
 62
     2
  6
CONTINUOUS
370
    -3
390
15D
347
6503D
  0
LAYER
  5
952
102
{ACAD_XDICTIONARY
360
65638
102
}
330
2
100
AcDbSymbolTableRecord
100
AcDbLayerTableRecord
  2
C7
 70
     0
 62
     7
  6
CONTINUOUS
370
    -3
390
15D
347
6503D
  0
LAYER
  5
953
102
{ACAD_XDICTIONARY
360
6563A
102
}
330
2
100
AcDbSymbolTableRecord
100
AcDbLayerTableRecord
  2
SUNPOU
 70
     0
 62
     2
  6
CONTINUOUS
370
    -3
390
15D
347
6503D
  0
LAYER
  5
8C49
102
{ACAD_XDICTIONARY
360
6563C
102
}
330
2
100
AcDbSymbolTableRecord
100
AcDbLayerTableRecord
  2
4量試検査NO
 70
     0
 62
     3
  6
CONTINUOUS
370
    -3
390
15D
347
6503D
  0
LAYER
  5
8C4C
102
{ACAD_XDICTIONARY
360
6563E
102
}
330
2
100
AcDbSymbolTableRecord
100
AcDbLayerTableRecord
  2
WAKU
 70
     0
 62
     7
  6
CONTINUOUS
370
    -3
390
15D
347
6503D
  0
LAYER
  5
8C4F
102
{ACAD_XDICTIONARY
360
65640
102
}
330
2
100
AcDbSymbolTableRecord
100
AcDbLayerTableRecord
  2
ブラケットH
 70
     0
 62
     1
  6
CONTINUOUS
370
    -3
390
15D
347
6503D
  0
LAYER
  5
8C52
102
{ACAD_XDICTIONARY
360
65642
102
}
330
2
100
AcDbSymbolTableRecord
100
AcDbLayerTableRecord
  2
C5
 70
     0
 62
     4
  6
CONTINUOUS
370
    -3
390
15D
347
6503D
  0
LAYER
  5
8C55
102
{ACAD_XDICTIONARY
360
65644
102
}
330
2
100
AcDbSymbolTableRecord
100
AcDbLayerTableRecord
  2
HOJYOSEN
 70
     0
 62
     5
  6
CONTINUOUS
370
    -3
390
15D
347
6503D
  0
LAYER
  5
8C58
102
{ACAD_XDICTIONARY
360
65646
102
}
330
2
100
AcDbSymbolTableRecord
100
AcDbLayerTableRecord
  2
BUNKATUTEN
 70
     0
 62
     5
  6
CONTINUOUS
370
    -3
390
15D
347
6503D
  0
LAYER
  5
8C5B
102
{ACAD_XDICTIONARY
360
65648
102
}
330
2
100
AcDbSymbolTableRecord
100
AcDbLayerTableRecord
  2
SUNPOUN
 70
     0
 62
     2
  6
CONTINUOUS
370
    -3
390
15D
347
6503D
  0
LAYER
  5
8C5E
102
{ACAD_XDICTIONARY
360
6564A
102
}
330
2
100
AcDbSymbolTableRecord
100
AcDbLayerTableRecord
  2
SUNPOUA
 70
     0
 62
     2
  6
CONTINUOUS
370
    -3
390
15D
347
6503D
  0
LAYER
  5
8C61
102
{ACAD_XDICTIONARY
360
6564C
102
}
330
2
100
AcDbSymbolTableRecord
100
AcDbLayerTableRecord
  2
CENTER
 70
     0
 62
     1
  6
CENTER
370
    -3
390
15D
347
6503D
  0
LAYER
  5
8C64
102
{ACAD_XDICTIONARY
360
6564E
102
}
330
2
100
AcDbSymbolTableRecord
100
AcDbLayerTableRecord
  2
SCALE
 70
     0
 62
     4
  6
CONTINUOUS
370
    -3
390
15D
347
6503D
  0
LAYER
  5
8C67
102
{ACAD_XDICTIONARY
360
65650
102
}
330
2
100
AcDbSymbolTableRecord
100
AcDbLayerTableRecord
  2
1
 70
     0
 62
     7
  6
CONTINUOUS
370
    -3
390
15D
347
6503D
  0
LAYER
  5
FD2D
102
{ACAD_XDICTIONARY
360
65652
102
}
330
2
100
AcDbSymbolTableRecord
100
AcDbLayerTableRecord
  2
CORE
 70
     0
 62
     4
  6
CONTINUOUS
370
    -3
390
15D
347
6503D
  0
LAYER
  5
FD2E
102
{ACAD_XDICTIONARY
360
65654
102
}
330
2
100
AcDbSymbolTableRecord
100
AcDbLayerTableRecord
  2
TEXT
 70
     0
 62
     7
  6
CONTINUOUS
370
    -3
390
15D
347
6503D
  0
LAYER
  5
16D98
102
{ACAD_XDICTIONARY
360
65656
102
}
330
2
100
AcDbSymbolTableRecord
100
AcDbLayerTableRecord
  2
キャップ
 70
     0
 62
     5
  6
CONTINUOUS
370
    -3
390
15D
347
6503D
  0
ENDTAB
  0
TABLE
  2
STYLE
  5
3
330
0
100
AcDbSymbolTable
 70
    10
  0
STYLE
  5
F
330
3
100
AcDbSymbolTableRecord
100
AcDbTextStyleTableRecord
  2
STANDARD
 70
     0
 40
0.0
 41
1.0
 50
0.0
 71
     0
 42
2.5
  3
txt
  4

  0
STYLE
  5
27
330
3
100
AcDbSymbolTableRecord
100
AcDbTextStyleTableRecord
  2

 70
     1
 40
0.0
 41
1.0
 50
0.0
 71
     0
 42
2.5
  3
ltypeshp.shx
  4

  0
STYLE
  5
30
330
3
100
AcDbSymbolTableRecord
100
AcDbTextStyleTableRecord
  2
KANJI
 70
     0
 40
0.0
 41
1.0
 50
0.0
 71
     0
 42
2.0
  3
simplex.shx
  4
bigfont.shx
  0
STYLE
  5
8C6A
330
3
100
AcDbSymbolTableRecord
100
AcDbTextStyleTableRecord
  2
ｺﾞｼｯｸ
 70
     0
 40
0.0
 41
1.0
 50
0.0
 71
     0
 42
2.5
  3

  4

1001
ACAD
1000
MS PGothic
1071
    32818
  0
STYLE
  5
8C6B
330
3
100
AcDbSymbolTableRecord
100
AcDbTextStyleTableRecord
  2
NAKAMUKI
 70
     0
 40
0.0
 41
1.0
 50
0.0
 71
     0
 42
4.0
  3
swissbo.ttf
  4

1001
ACAD
1000
Swis721 BdOul BT
1071
       82
  0
STYLE
  5
8C6C
330
3
100
AcDbSymbolTableRecord
100
AcDbTextStyleTableRecord
  2
CMP-SET
 70
     0
 40
0.0
 41
1.0
 50
0.0
 71
     0
 42
3.0
  3
SIMPLEX
  4
BIGFONT
  0
STYLE
  5
FD2F
330
3
100
AcDbSymbolTableRecord
100
AcDbTextStyleTableRecord
  2
35FONT
 70
     0
 40
3.5
 41
0.75
 50
15.0
 71
     0
 42
3.5
  3
simplex
  4
bigfont
  0
STYLE
  5
FD30
330
3
100
AcDbSymbolTableRecord
100
AcDbTextStyleTableRecord
  2
20FONT
 70
     0
 40
2.0
 41
0.75
 50
15.0
 71
     0
 42
2.0
  3
SIMPLEX.shx
  4
BIGFONT.shx
  0
STYLE
  5
5C87C
330
3
100
AcDbSymbolTableRecord
100
AcDbTextStyleTableRecord
  2
ACISOTS
 70
     0
 40
1.0
 41
1.0
 50
0.0
 71
     0
 42
2.0
  3
isocp.shx
  4
extfont.shx
  0
STYLE
  5
5C87D
330
3
100
AcDbSymbolTableRecord
100
AcDbTextStyleTableRecord
  2
ACISOGDT
 70
     0
 40
0.0
 41
1.0
 50
0.0
 71
     0
 42
2.0
  3
amgdt.shx
  4

  0
ENDTAB
  0
TABLE
  2
VIEW
  5
6
330
0
100
AcDbSymbolTable
 70
     0
  0
ENDTAB
  0
TABLE
  2
UCS
  5
7
330
0
100
AcDbSymbolTable
 70
     0
  0
ENDTAB
  0
TABLE
  2
APPID
  5
9
330
0
100
AcDbSymbolTable
 70
    17
  0
APPID
  5
10
330
9
100
AcDbSymbolTableRecord
100
AcDbRegAppTableRecord
  2
ACAD
 70
     0
  0
APPID
  5
5C887
330
9
100
AcDbSymbolTableRecord
100
AcDbRegAppTableRecord
  2
GENIUS_GENDIM_13
 70
     0
  0
APPID
  5
5C888
330
9
100
AcDbSymbolTableRecord
100
AcDbRegAppTableRecord
  2
GENIUS_GENDTOL_13
 70
     0
  0
APPID
  5
5C889
330
9
100
AcDbSymbolTableRecord
100
AcDbRegAppTableRecord
  2
GENIUS_GE3DTOL_13
 70
     0
  0
APPID
  5
5C88A
330
9
100
AcDbSymbolTableRecord
100
AcDbRegAppTableRecord
  2
MCAD_NO_VIS
 70
     0
  0
APPID
  5
5C88B
330
9
100
AcDbSymbolTableRecord
100
AcDbRegAppTableRecord
  2
ACAD_TEMP_GRAPHIC
 70
     0
  0
APPID
  5
5C88C
330
9
100
AcDbSymbolTableRecord
100
AcDbRegAppTableRecord
  2
AD_DRAW
 70
     0
  0
APPID
  5
5C88D
330
9
100
AcDbSymbolTableRecord
100
AcDbRegAppTableRecord
  2
ACATTRIBSERVICES
 70
     0
  0
APPID
  5
5C88E
330
9
100
AcDbSymbolTableRecord
100
AcDbRegAppTableRecord
  2
ASURF_PCURVE_APPNAME
 70
     0
  0
APPID
  5
5C88F
330
9
100
AcDbSymbolTableRecord
100
AcDbRegAppTableRecord
  2
AMG_3D2D_5.0
 70
     0
  0
APPID
  5
5C890
330
9
100
AcDbSymbolTableRecord
100
AcDbRegAppTableRecord
  2
DESIGNERASSEMBLIES
 70
     0
  0
APPID
  5
5C891
330
9
100
AcDbSymbolTableRecord
100
AcDbRegAppTableRecord
  2
ACADM_DIM_EDIT
 70
     0
  0
APPID
  5
5C892
330
9
100
AcDbSymbolTableRecord
100
AcDbRegAppTableRecord
  2
AMDT_DM_ADJ
 70
     0
  0
APPID
  5
5C893
330
9
100
AcDbSymbolTableRecord
100
AcDbRegAppTableRecord
  2
ACAD_EXEMPT_FROM_CAD_STANDARDS
 70
     0
  0
APPID
  5
5C894
330
9
100
AcDbSymbolTableRecord
100
AcDbRegAppTableRecord
  2
ACAD_PSEXT
 70
     0
  0
APPID
  5
65611
330
9
100
AcDbSymbolTableRecord
100
AcDbRegAppTableRecord
  2
ACAD_NAV_VCDISPLAY
 70
     0
  0
APPID
  5
65676
330
9
100
AcDbSymbolTableRecord
100
AcDbRegAppTableRecord
  2
Acad_TC
 70
     0
  0
ENDTAB
  0
TABLE
  2
DIMSTYLE
  5
A
330
0
100
AcDbSymbolTable
 70
    21
100
AcDbDimStyleTable
 71
     1
340
E2
  0
DIMSTYLE
105
1D
330
A
100
AcDbSymbolTableRecord
100
AcDbDimStyleTableRecord
  2
STANDARD
 70
     0
 73
     0
 74
     0
172
     1
340
F
  0
DIMSTYLE
105
DA
330
A
100
AcDbSymbolTableRecord
100
AcDbDimStyleTableRecord
  2
STANDARD$4
 70
     0
 40
0.0
 41
2.0
 42
1.0
 43
0.0
 44
1.0
 73
     0
 77
     1
 78
     8
140
2.5
141
0.0
143
0.0394
147
0.5
171
     4
173
     1
272
     1
273
     8
274
     4
284
     8
340
30
341
74
343
74
344
74
  0
DIMSTYLE
105
E2
330
A
100
AcDbSymbolTableRecord
100
AcDbDimStyleTableRecord
  2
M
 70
     0
 40
0.0
 41
2.0
 42
1.0
 43
0.0
 44
1.0
 73
     0
 74
     0
 77
     1
 78
     8
140
2.5
141
0.0
147
0.5
172
     1
173
     1
284
     8
340
30
341
74
343
74
344
74
  0
DIMSTYLE
105
E4
330
A
100
AcDbSymbolTableRecord
100
AcDbDimStyleTableRecord
  2
M$4
 70
     0
 40
0.0
 41
2.0
 42
1.0
 43
0.0
 44
1.0
 73
     0
 77
     1
 78
     8
140
2.5
141
0.0
147
0.5
173
     1
284
     8
340
30
341
74
343
74
344
74
  0
DIMSTYLE
105
2C7A
330
A
100
AcDbSymbolTableRecord
100
AcDbDimStyleTableRecord
  2
補助線（外水平）
 70
     0
 41
1.0
 42
1.0
 43
6.0
 44
1.0
 73
     0
 74
     0
 77
     1
 78
     8
140
2.5
141
0.0
147
0.5
172
     1
173
     1
284
     8
285
     8
286
     8
340
30
341
2C75
343
2C75
344
2C75
  0
DIMSTYLE
105
8C6D
330
A
100
AcDbSymbolTableRecord
100
AcDbDimStyleTableRecord
  2
標準
 70
     0
 41
1.0
 42
1.0
 43
6.0
 44
1.0
 73
     0
 74
     0
 77
     1
 78
     8
140
2.5
141
0.0
147
0.5
172
     1
173
     1
284
     8
285
     8
286
     8
340
30
341
176
343
176
344
176
  0
DIMSTYLE
105
8C6E
330
A
100
AcDbSymbolTableRecord
100
AcDbDimStyleTableRecord
  2
補助線削除（第１）
 70
     0
 41
1.0
 42
1.0
 43
6.0
 44
1.0
 73
     0
 74
     0
 75
     1
 77
     1
 78
     8
140
2.5
141
0.0
147
0.5
172
     1
173
     1
284
     8
285
     8
286
     8
340
30
341
176
343
176
344
176
  0
DIMSTYLE
105
8C6F
330
A
100
AcDbSymbolTableRecord
100
AcDbDimStyleTableRecord
  2
補助線削除（第2）
 70
     0
 41
1.0
 42
1.0
 43
6.0
 44
1.0
 73
     0
 74
     0
 76
     1
 77
     1
 78
     8
140
2.5
141
0.0
147
0.5
172
     1
173
     1
284
     8
285
     8
286
     8
340
30
341
176
343
176
344
176
  0
DIMSTYLE
105
8C70
330
A
100
AcDbSymbolTableRecord
100
AcDbDimStyleTableRecord
  2
矢印黒丸（第1）
 70
     0
 41
1.0
 42
1.0
 43
6.0
 44
1.0
 73
     0
 74
     0
 77
     1
 78
     8
140
2.5
141
0.0
147
0.5
172
     1
173
     1
284
     8
285
     8
286
     8
340
30
341
4BEE
343
4BEE
344
176
  0
DIMSTYLE
105
8C71
330
A
100
AcDbSymbolTableRecord
100
AcDbDimStyleTableRecord
  2
矢印黒丸（第2）
 70
     0
 41
1.0
 42
1.0
 43
6.0
 44
1.0
 73
     0
 74
     0
 77
     1
 78
     8
140
2.5
141
0.0
147
0.5
172
     1
173
     1
284
     8
285
     8
286
     8
340
30
341
176
343
176
344
4BEE
  0
DIMSTYLE
105
FD31
330
A
100
AcDbSymbolTableRecord
100
AcDbDimStyleTableRecord
  2
DEFAULT
 70
     0
 41
3.5
 42
0.0
 43
3.75
 44
3.0
 73
     0
 74
     0
 78
     8
140
3.5
141
2.5
143
0.0394
145
0.8
147
0.0
171
     4
172
     1
273
     8
274
     4
277
     6
288
     1
340
FD2F
  0
DIMSTYLE
105
FD32
330
A
100
AcDbSymbolTableRecord
100
AcDbDimStyleTableRecord
  2
DIMAA
 70
     0
 41
0.0
 42
0.0
 43
3.75
 44
3.0
 73
     0
 74
     0
 78
     8
140
3.5
141
2.5
143
0.0394
145
0.8
147
0.0
171
     4
172
     1
174
     1
273
     8
274
     4
277
     6
289
     0
340
FD2F
343
FD1D
344
FD1D
  0
DIMSTYLE
105
5C87E
330
A
100
AcDbSymbolTableRecord
100
AcDbDimStyleTableRecord
  2
STANDARD×（1／2）
 70
     0
 41
1.0
 42
1.0
 43
6.0
 44
1.0
 73
     0
 74
     0
 77
     1
 78
     8
140
2.5
141
0.0
144
0.5
147
0.5
172
     1
173
     1
284
     8
285
     8
286
     8
340
30
341
172
343
172
344
172
  0
DIMSTYLE
105
5C87F
330
A
100
AcDbSymbolTableRecord
100
AcDbDimStyleTableRecord
  2
STANDARD×（1／5）
 70
     0
 41
1.0
 42
1.0
 43
6.0
 44
1.0
 73
     0
 74
     0
 77
     1
 78
     8
140
2.5
141
0.0
144
0.2
147
0.5
172
     1
173
     1
284
     8
285
     8
286
     8
340
30
341
172
343
172
344
172
  0
DIMSTYLE
105
5C880
330
A
100
AcDbSymbolTableRecord
100
AcDbDimStyleTableRecord
  2
AM_ISO
 70
     0
  4
"
 41
2.5
 42
1.0
 43
10.0
 44
1.0
 47
0.1
 48
0.1
 73
     0
 74
     0
 77
     1
 78
     8
 79
     2
140
3.5
141
0.0
143
0.0393701
146
0.71
147
1.5
172
     1
176
   256
177
   256
178
     2
271
     2
272
     3
274
     4
283
     0
284
     8
340
F
371
    -1
372
    -1
  0
DIMSTYLE
105
5C881
330
A
100
AcDbSymbolTableRecord
100
AcDbDimStyleTableRecord
  2
AM_ISO$3
 70
     0
  4
"
 41
2.5
 42
1.0
 43
10.0
 44
1.0
 47
0.1
 48
0.1
 73
     0
 77
     1
 78
     8
 79
     2
140
3.5
141
0.0
143
0.0393701
146
0.71
147
1.5
176
   256
177
   256
178
     2
271
     2
272
     3
274
     4
283
     0
284
     8
288
     1
289
     0
340
F
371
    -1
372
    -1
  0
DIMSTYLE
105
5C882
330
A
100
AcDbSymbolTableRecord
100
AcDbDimStyleTableRecord
  2
AM_ISO$4
 70
     0
  4
"
 41
2.5
 42
1.0
 43
10.0
 44
1.0
 47
0.1
 48
0.1
 73
     0
 77
     1
 78
     8
 79
     2
140
3.5
141
0.0
143
0.0393701
146
0.71
147
1.5
176
   256
177
   256
178
     2
271
     2
272
     3
274
     4
283
     0
284
     8
288
     1
289
     0
340
F
371
    -1
372
    -1
  0
DIMSTYLE
105
5C883
330
A
100
AcDbSymbolTableRecord
100
AcDbDimStyleTableRecord
  2
AM_ISO$6
 70
     0
  4
"
 41
2.5
 42
1.0
 43
10.0
 44
1.0
 47
0.1
 48
0.1
 73
     0
 74
     0
 78
     8
 79
     2
140
3.5
141
0.0
143
0.0393701
146
0.71
147
1.5
172
     1
176
   256
177
   256
178
     2
271
     2
272
     3
274
     4
283
     0
284
     8
340
F
371
    -1
372
    -1
  0
DIMSTYLE
105
5C884
330
A
100
AcDbSymbolTableRecord
100
AcDbDimStyleTableRecord
  2
AM_ISO$7
 70
     0
  4
"
 41
2.5
 42
1.0
 43
10.0
 44
1.0
 47
0.1
 48
0.1
 73
     0
 74
     0
 77
     1
 78
     8
 79
     2
140
5.0
141
0.0
143
0.0393701
146
0.71
147
1.5
172
     1
176
   256
177
   256
178
     2
271
     2
272
     3
274
     4
283
     0
284
     8
340
F
371
    -1
372
    -1
  0
DIMSTYLE
105
5C885
330
A
100
AcDbSymbolTableRecord
100
AcDbDimStyleTableRecord
  2
AM_ISO$SF
 70
     0
  4
"
 41
2.5
 42
1.0
 43
10.0
 44
1.0
 47
0.1
 48
0.1
 73
     0
 74
     0
 75
     1
 76
     1
 77
     1
 78
     8
 79
     2
140
3.5
141
0.0
143
0.0393701
146
0.71
147
1.5
172
     1
176
   256
177
   256
178
     2
271
     2
272
     3
274
     4
283
     0
284
     8
340
F
371
    -1
372
    -1
  0
DIMSTYLE
105
5C886
330
A
100
AcDbSymbolTableRecord
100
AcDbDimStyleTableRecord
  2
AM_ISO$SH
 70
     0
  4
"
 41
2.5
 42
1.0
 43
10.0
 44
1.0
 47
0.1
 48
0.1
 73
     0
 74
     0
 75
     1
 76
     1
 77
     1
 78
     8
 79
     2
140
3.5
141
0.0
143
0.0393701
144
2.0
146
0.71
147
1.5
172
     1
173
     1
176
   256
177
   256
178
     2
271
     2
272
     3
274
     4
283
     0
284
     8
340
F
343
5C4BE
371
    -1
372
    -1
  0
ENDTAB
  0
TABLE
  2
BLOCK_RECORD
  5
1
330
0
100
AcDbSymbolTable
 70
    63
  0
BLOCK_RECORD
  5
18
102
{ACAD_XDICTIONARY
360
777
102
}
330
1
100
AcDbSymbolTableRecord
100
AcDbBlockTableRecord
  2
*MODEL_SPACE
340
160
 70
     0
280
     1
281
     0
  0
BLOCK_RECORD
  5
15
102
{ACAD_XDICTIONARY
360
775
102
}
330
1
100
AcDbSymbolTableRecord
100
AcDbBlockTableRecord
  2
*PAPER_SPACE
340
161
 70
     0
280
     1
281
     0
  0
BLOCK_RECORD
  5
74
330
1
100
AcDbSymbolTableRecord
100
AcDbBlockTableRecord
  2
2
340
0
102
{BLKREFS
331
415FB
331
41604
331
41605
331
4160C
331
41611
331
41617
331
4161D
331
41623
331
41629
331
4162F
331
41635
331
41636
331
41640
331
41641
331
4164A
331
4164B
331
41653
331
41654
331
4165D
331
4165E
331
41667
331
41668
331
41672
331
41673
331
4167B
331
41692
331
41699
331
416A1
331
416A2
331
416AA
331
416AB
331
416B3
331
416B9
331
416BF
331
41571
331
41572
331
4157B
331
4157C
331
41593
331
41599
331
4159A
331
415CB
331
415CC
331
415D4
331
415DA
331
415E0
331
415E8
331
415E9
331
415F3
331
410BB
331
410BC
331
41081
331
41082
331
65574
331
65575
331
6558A
331
6558B
331
655A4
331
655A5
331
655BE
331
655BF
331
65757
331
6575F
331
65760
331
65768
331
65769
331
65771
331
65772
331
6577A
331
6577B
331
65783
331
65784
331
6578E
331
6578F
331
65799
331
6579A
102
}
 70
     0
280
     1
281
     0
  0
BLOCK_RECORD
  5
147
330
1
100
AcDbSymbolTableRecord
100
AcDbBlockTableRecord
  2
3
340
0
102
{BLKREFS
331
415FC
331
415F2
102
}
 70
     0
280
     1
281
     0
  0
BLOCK_RECORD
  5
172
330
1
100
AcDbSymbolTableRecord
100
AcDbBlockTableRecord
  2
1
340
0
 70
     0
280
     1
281
     0
  0
BLOCK_RECORD
  5
176
330
1
100
AcDbSymbolTableRecord
100
AcDbBlockTableRecord
  2
Y2
340
0
 70
     0
280
     1
281
     0
  0
BLOCK_RECORD
  5
2C75
330
1
100
AcDbSymbolTableRecord
100
AcDbBlockTableRecord
  2
Y1
340
0
 70
     0
280
     1
281
     0
  0
BLOCK_RECORD
  5
2FE1
330
1
100
AcDbSymbolTableRecord
100
AcDbBlockTableRecord
  2
A左
340
0
 70
     0
280
     1
281
     0
  0
BLOCK_RECORD
  5
4BEE
330
1
100
AcDbSymbolTableRecord
100
AcDbBlockTableRecord
  2
_DOT
340
0
 70
     0
280
     1
281
     0
  0
BLOCK_RECORD
  5
6EEF
330
1
100
AcDbSymbolTableRecord
100
AcDbBlockTableRecord
  2
A$C2AD55BA3
340
0
 70
     0
280
     1
281
     0
  0
BLOCK_RECORD
  5
FD1D
330
1
100
AcDbSymbolTableRecord
100
AcDbBlockTableRecord
  2
ALW100
340
0
 70
     0
280
     1
281
     0
  0
BLOCK_RECORD
  5
18766
330
1
100
AcDbSymbolTableRecord
100
AcDbBlockTableRecord
  2
Aダッシュ左
340
0
 70
     0
280
     1
281
     0
  0
BLOCK_RECORD
  5
2913B
330
1
100
AcDbSymbolTableRecord
100
AcDbBlockTableRecord
  2
B下
340
0
 70
     0
280
     1
281
     0
  0
BLOCK_RECORD
  5
29148
330
1
100
AcDbSymbolTableRecord
100
AcDbBlockTableRecord
  2
Bダッシュ下
340
0
 70
     0
280
     1
281
     0
  0
BLOCK_RECORD
  5
3C467
330
1
100
AcDbSymbolTableRecord
100
AcDbBlockTableRecord
  2
C左
340
0
 70
     0
280
     1
281
     0
  0
BLOCK_RECORD
  5
3C474
330
1
100
AcDbSymbolTableRecord
100
AcDbBlockTableRecord
  2
Cダッシュ左
340
0
 70
     0
280
     1
281
     0
  0
BLOCK_RECORD
  5
40FD8
330
1
100
AcDbSymbolTableRecord
100
AcDbBlockTableRecord
  2
*D14
340
0
 70
     0
280
     1
281
     0
  0
BLOCK_RECORD
  5
40FE2
330
1
100
AcDbSymbolTableRecord
100
AcDbBlockTableRecord
  2
*D15
340
0
 70
     0
280
     1
281
     0
  0
BLOCK_RECORD
  5
40FEC
330
1
100
AcDbSymbolTableRecord
100
AcDbBlockTableRecord
  2
*D16
340
0
 70
     0
280
     1
281
     0
  0
BLOCK_RECORD
  5
40FF6
330
1
100
AcDbSymbolTableRecord
100
AcDbBlockTableRecord
  2
*D17
340
0
 70
     0
280
     1
281
     0
  0
BLOCK_RECORD
  5
41003
330
1
100
AcDbSymbolTableRecord
100
AcDbBlockTableRecord
  2
*D18
340
0
 70
     0
280
     1
281
     0
  0
BLOCK_RECORD
  5
41028
330
1
100
AcDbSymbolTableRecord
100
AcDbBlockTableRecord
  2
*D19
340
0
 70
     0
280
     1
281
     0
  0
BLOCK_RECORD
  5
41060
330
1
100
AcDbSymbolTableRecord
100
AcDbBlockTableRecord
  2
*D20
340
0
 70
     0
280
     1
281
     0
  0
BLOCK_RECORD
  5
4109D
330
1
100
AcDbSymbolTableRecord
100
AcDbBlockTableRecord
  2
*D21
340
0
 70
     0
280
     1
281
     0
  0
BLOCK_RECORD
  5
410DF
330
1
100
AcDbSymbolTableRecord
100
AcDbBlockTableRecord
  2
*D22
340
0
 70
     0
280
     1
281
     0
  0
BLOCK_RECORD
  5
410EC
330
1
100
AcDbSymbolTableRecord
100
AcDbBlockTableRecord
  2
*D23
340
0
 70
     0
280
     1
281
     0
  0
BLOCK_RECORD
  5
410FA
330
1
100
AcDbSymbolTableRecord
100
AcDbBlockTableRecord
  2
*D24
340
0
 70
     0
280
     1
281
     0
  0
BLOCK_RECORD
  5
41103
330
1
100
AcDbSymbolTableRecord
100
AcDbBlockTableRecord
  2
*D25
340
0
 70
     0
280
     1
281
     0
  0
BLOCK_RECORD
  5
41111
330
1
100
AcDbSymbolTableRecord
100
AcDbBlockTableRecord
  2
*D26
340
0
 70
     0
280
     1
281
     0
  0
BLOCK_RECORD
  5
4111E
330
1
100
AcDbSymbolTableRecord
100
AcDbBlockTableRecord
  2
*D27
340
0
 70
     0
280
     1
281
     0
  0
BLOCK_RECORD
  5
4112A
330
1
100
AcDbSymbolTableRecord
100
AcDbBlockTableRecord
  2
*D28
340
0
 70
     0
280
     1
281
     0
  0
BLOCK_RECORD
  5
41137
330
1
100
AcDbSymbolTableRecord
100
AcDbBlockTableRecord
  2
*D29
340
0
 70
     0
280
     1
281
     0
  0
BLOCK_RECORD
  5
411A8
330
1
100
AcDbSymbolTableRecord
100
AcDbBlockTableRecord
  2
*D30
340
0
 70
     0
280
     1
281
     0
  0
BLOCK_RECORD
  5
411B2
330
1
100
AcDbSymbolTableRecord
100
AcDbBlockTableRecord
  2
*D31
340
0
 70
     0
280
     1
281
     0
  0
BLOCK_RECORD
  5
411BC
330
1
100
AcDbSymbolTableRecord
100
AcDbBlockTableRecord
  2
*D32
340
0
 70
     0
280
     1
281
     0
  0
BLOCK_RECORD
  5
411C6
330
1
100
AcDbSymbolTableRecord
100
AcDbBlockTableRecord
  2
*D33
340
0
 70
     0
280
     1
281
     0
  0
BLOCK_RECORD
  5
411D0
330
1
100
AcDbSymbolTableRecord
100
AcDbBlockTableRecord
  2
*D34
340
0
 70
     0
280
     1
281
     0
  0
BLOCK_RECORD
  5
411DA
330
1
100
AcDbSymbolTableRecord
100
AcDbBlockTableRecord
  2
*D35
340
0
 70
     0
280
     1
281
     0
  0
BLOCK_RECORD
  5
411E8
330
1
100
AcDbSymbolTableRecord
100
AcDbBlockTableRecord
  2
*D36
340
0
 70
     0
280
     1
281
     0
  0
BLOCK_RECORD
  5
411F7
330
1
100
AcDbSymbolTableRecord
100
AcDbBlockTableRecord
  2
*D37
340
0
 70
     0
280
     1
281
     0
  0
BLOCK_RECORD
  5
41206
330
1
100
AcDbSymbolTableRecord
100
AcDbBlockTableRecord
  2
*D38
340
0
 70
     0
280
     1
281
     0
  0
BLOCK_RECORD
  5
41215
330
1
100
AcDbSymbolTableRecord
100
AcDbBlockTableRecord
  2
*D39
340
0
 70
     0
280
     1
281
     0
  0
BLOCK_RECORD
  5
4124A
330
1
100
AcDbSymbolTableRecord
100
AcDbBlockTableRecord
  2
*D40
340
0
 70
     0
280
     1
281
     0
  0
BLOCK_RECORD
  5
41264
330
1
100
AcDbSymbolTableRecord
100
AcDbBlockTableRecord
  2
*D41
340
0
 70
     0
280
     1
281
     0
  0
BLOCK_RECORD
  5
4126E
330
1
100
AcDbSymbolTableRecord
100
AcDbBlockTableRecord
  2
*D42
340
0
 70
     0
280
     1
281
     0
  0
BLOCK_RECORD
  5
41278
330
1
100
AcDbSymbolTableRecord
100
AcDbBlockTableRecord
  2
*D43
340
0
 70
     0
280
     1
281
     0
  0
BLOCK_RECORD
  5
4151F
330
1
100
AcDbSymbolTableRecord
100
AcDbBlockTableRecord
  2
*D44
340
0
 70
     0
280
     1
281
     0
  0
BLOCK_RECORD
  5
4152C
330
1
100
AcDbSymbolTableRecord
100
AcDbBlockTableRecord
  2
*D45
340
0
 70
     0
280
     1
281
     0
  0
BLOCK_RECORD
  5
4154D
330
1
100
AcDbSymbolTableRecord
100
AcDbBlockTableRecord
  2
*D46
340
0
 70
     0
280
     1
281
     0
  0
BLOCK_RECORD
  5
41559
330
1
100
AcDbSymbolTableRecord
100
AcDbBlockTableRecord
  2
*D47
340
0
 70
     0
280
     1
281
     0
  0
BLOCK_RECORD
  5
415A2
330
1
100
AcDbSymbolTableRecord
100
AcDbBlockTableRecord
  2
*D48
340
0
 70
     0
280
     1
281
     0
  0
BLOCK_RECORD
  5
41680
330
1
100
AcDbSymbolTableRecord
100
AcDbBlockTableRecord
  2
*D49
340
0
 70
     0
280
     1
281
     0
  0
BLOCK_RECORD
  5
5C4BE
330
1
100
AcDbSymbolTableRecord
100
AcDbBlockTableRecord
  2
GENAXEH
340
0
 70
     0
280
     1
281
     0
  0
BLOCK_RECORD
  5
65565
330
1
100
AcDbSymbolTableRecord
100
AcDbBlockTableRecord
  2
*D51
340
0
 70
     0
280
     1
281
     0
  0
BLOCK_RECORD
  5
6557B
330
1
100
AcDbSymbolTableRecord
100
AcDbBlockTableRecord
  2
*D52
340
0
 70
     0
280
     1
281
     0
  0
BLOCK_RECORD
  5
65591
330
1
100
AcDbSymbolTableRecord
100
AcDbBlockTableRecord
  2
*D53
340
0
 70
     0
280
     1
281
     0
  0
BLOCK_RECORD
  5
655AB
330
1
100
AcDbSymbolTableRecord
100
AcDbBlockTableRecord
  2
*D54
340
0
 70
     0
280
     1
281
     0
  0
BLOCK_RECORD
  5
656F1
330
1
100
AcDbSymbolTableRecord
100
AcDbBlockTableRecord
  2
*D55
340
0
 70
     0
280
     1
281
     0
  0
BLOCK_RECORD
  5
656FA
330
1
100
AcDbSymbolTableRecord
100
AcDbBlockTableRecord
  2
*D56
340
0
 70
     0
280
     1
281
     0
  0
BLOCK_RECORD
  5
65708
330
1
100
AcDbSymbolTableRecord
100
AcDbBlockTableRecord
  2
*D57
340
0
 70
     0
280
     1
281
     0
  0
BLOCK_RECORD
  5
65714
330
1
100
AcDbSymbolTableRecord
100
AcDbBlockTableRecord
  2
*D58
340
0
 70
     0
280
     1
281
     0
  0
BLOCK_RECORD
  5
65720
330
1
100
AcDbSymbolTableRecord
100
AcDbBlockTableRecord
  2
*D59
340
0
 70
     0
280
     1
281
     0
  0
BLOCK_RECORD
  5
6572C
330
1
100
AcDbSymbolTableRecord
100
AcDbBlockTableRecord
  2
*D60
340
0
 70
     0
280
     1
281
     0
  0
BLOCK_RECORD
  5
65738
330
1
100
AcDbSymbolTableRecord
100
AcDbBlockTableRecord
  2
*D61
340
0
 70
     0
280
     1
281
     0
  0
BLOCK_RECORD
  5
65746
330
1
100
AcDbSymbolTableRecord
100
AcDbBlockTableRecord
  2
*D62
340
0
 70
     0
280
     1
281
     0
  0
ENDTAB
  0
ENDSEC
  0
SECTION
  2
BLOCKS
  0
BLOCK
  5
19
330
18
100
AcDbEntity
  8
0
100
AcDbBlockBegin
  2
*MODEL_SPACE
 70
     0
 10
0.0
 20
0.0
 30
0.0
  3
*MODEL_SPACE
  1

  0
ENDBLK
  5
1A
330
18
100
AcDbEntity
  8
0
100
AcDbBlockEnd
  0
BLOCK
  5
16
330
15
100
AcDbEntity
 67
     1
  8
0
100
AcDbBlockBegin
  2
*PAPER_SPACE
 70
     0
 10
0.0
 20
0.0
 30
0.0
  3
*PAPER_SPACE
  1

  0
ENDBLK
  5
17
330
15
100
AcDbEntity
 67
     1
  8
0
100
AcDbBlockEnd
  0
BLOCK
  5
130
330
74
100
AcDbEntity
  8
0
 48
3.0
100
AcDbBlockBegin
  2
2
 70
     0
 10
0.0
 20
0.0
 30
0.0
  3
2
  1

  0
HATCH
  5
131
330
74
100
AcDbEntity
  8
0
  6
ByBlock
 62
     0
 48
3.0
100
AcDbHatch
 10
0.0
 20
0.0
 30
0.0
210
0.0
220
0.0
230
1.0
  2
SOLID
 70
     1
 71
     0
 91
        1
 92
        1
 93
        3
 72
     1
 10
-0.9999999999983515
 20
0.2679491924306774
 11
0.0
 21
0.0
 72
     1
 10
0.0
 20
0.0
 11
-0.9999999999983515
 21
-0.2679491924306765
 72
     1
 10
-0.9999999999983524
 20
-0.267949192430676
 11
-0.9999999999983524
 21
0.2679491924306774
 97
        0
 75
     0
 76
     1
 98
        1
 10
2.995745117231336
 20
-4.124946096263201
450
        0
451
        0
460
0.0
461
0.0
452
        0
462
0.0
453
        0
470

  0
ENDBLK
  5
132
330
74
100
AcDbEntity
  8
0
 48
3.0
100
AcDbBlockEnd
  0
BLOCK
  5
148
330
147
100
AcDbEntity
  8
0
 48
3.0
100
AcDbBlockBegin
  2
3
 70
     0
 10
0.0
 20
0.0
 30
0.0
  3
3
  1

  0
HATCH
  5
149
330
147
100
AcDbEntity
  8
0
  6
ByBlock
 62
     0
 48
3.0
100
AcDbHatch
 10
0.0
 20
0.0
 30
0.0
210
0.0
220
0.0
230
1.0
  2
SOLID
 70
     1
 71
     0
 91
        1
 92
        1
 93
        1
 72
     2
 10
0.0
 20
0.0
 40
0.25
 50
0.0
 51
360.0
 73
     1
 97
        0
 75
     0
 76
     1
 98
        1
 10
2.789654453480295
 20
-4.828347107262324
450
        0
451
        0
460
0.0
461
0.0
452
        0
462
0.0
453
        0
470

  0
LINE
  5
14A
330
147
100
AcDbEntity
  8
0
  6
ByBlock
 62
     0
 48
3.0
100
AcDbLine
 10
-1.0
 20
0.0
 30
0.0
 11
0.0
 21
0.0
 31
0.0
  0
ENDBLK
  5
14B
330
147
100
AcDbEntity
  8
0
 48
3.0
100
AcDbBlockEnd
  0
BLOCK
  5
174
330
172
100
AcDbEntity
  8
0
 48
2.0
100
AcDbBlockBegin
  2
1
 70
     0
 10
0.0
 20
0.0
 30
0.0
  3
1
  1

  0
SOLID
  5
173
330
172
100
AcDbEntity
  8
0
  6
ByBlock
 62
     0
100
AcDbTrace
 10
-1.811110924292052
 20
0.4852857095671653
 30
0.0
 11
-1.811110924292052
 21
-0.4852857095673642
 31
0.0
 12
0.0
 22
0.0
 32
0.0
 13
0.0
 23
0.0
 33
0.0
  0
ENDBLK
  5
175
330
172
100
AcDbEntity
  8
0
 48
2.0
100
AcDbBlockEnd
  0
BLOCK
  5
178
330
176
100
AcDbEntity
  8
0
 48
2.0
100
AcDbBlockBegin
  2
Y2
 70
     0
 10
0.0
 20
0.0
 30
0.0
  3
Y2
  1

  0
SOLID
  5
177
330
176
100
AcDbEntity
  8
0
  6
ByBlock
 62
     0
100
AcDbTrace
 10
-1.811110924292108
 20
0.485285709567151
 30
0.0
 11
-1.811110924292108
 21
-0.4852857095673784
 31
0.0
 12
-0.0000000000000568
 22
-0.0000000000000142
 32
0.0
 13
-0.0000000000000568
 23
-0.0000000000000142
 33
0.0
  0
ENDBLK
  5
179
330
176
100
AcDbEntity
  8
0
 48
2.0
100
AcDbBlockEnd
  0
BLOCK
  5
2C78
330
2C75
100
AcDbEntity
  8
0
 48
2.0
100
AcDbBlockBegin
  2
Y1
 70
     0
 10
0.0
 20
0.0
 30
0.0
  3
Y1
  1

  0
LINE
  5
2C76
330
2C75
100
AcDbEntity
  8
0
  6
ByBlock
 62
     0
 48
2.0
100
AcDbLine
 10
-4.000000000000056
 20
-0.0000000000000142
 30
0.0
 11
-0.0000000000000568
 21
0.0
 31
0.0
  0
SOLID
  5
2C77
330
2C75
100
AcDbEntity
  8
0
  6
ByBlock
 62
     0
100
AcDbTrace
 10
-1.811110924292108
 20
0.485285709567151
 30
0.0
 11
-1.811110924292108
 21
-0.4852857095673784
 31
0.0
 12
-0.0000000000000568
 22
-0.0000000000000142
 32
0.0
 13
-0.0000000000000568
 23
-0.0000000000000142
 33
0.0
  0
ENDBLK
  5
2C79
330
2C75
100
AcDbEntity
  8
0
 48
2.0
100
AcDbBlockEnd
  0
BLOCK
  5
2FEB
330
2FE1
100
AcDbEntity
  8
0
100
AcDbBlockBegin
  2
A左
 70
     0
 10
0.0
 20
0.0
 30
0.0
  3
A左
  1

  0
MTEXT
  5
2FE2
330
2FE1
100
AcDbEntity
  8
2寸法線
 48
3.0
100
AcDbMText
 10
4.056638492392266
 20
6.185669693484214
 30
0.0
 40
4.0
 41
5.411710672623538
 46
0.0
 71
     1
 72
     5
  1
\fSwis721 BlkOul BT|b0|i0|c0|p82;A
  7
KANJI
 73
     1
 44
1.0
  0
LINE
  5
2FE3
330
2FE1
100
AcDbEntity
  8
2寸法線
 62
     1
100
AcDbLine
 10
4.0
 20
1.0
 30
0.0
 11
8.0
 21
1.0
 31
0.0
  0
LINE
  5
2FE4
330
2FE1
100
AcDbEntity
  8
2寸法線
 62
     1
100
AcDbLine
 10
4.0
 20
-1.0
 30
0.0
 11
8.0
 21
-1.0
 31
0.0
  0
LINE
  5
2FE5
330
2FE1
100
AcDbEntity
  8
2寸法線
 62
     1
100
AcDbLine
 10
0.0
 20
0.0
 30
0.0
 11
4.0
 21
-2.0
 31
0.0
  0
LINE
  5
2FE6
330
2FE1
100
AcDbEntity
  8
2寸法線
 62
     1
100
AcDbLine
 10
0.0
 20
1.0
 30
0.0
 11
0.0
 21
-1.0
 31
0.0
  0
LINE
  5
2FE7
330
2FE1
100
AcDbEntity
  8
2寸法線
 62
     1
100
AcDbLine
 10
4.0
 20
-1.0
 30
0.0
 11
4.0
 21
-2.0
 31
0.0
  0
LINE
  5
2FE8
330
2FE1
100
AcDbEntity
  8
2寸法線
 62
     1
100
AcDbLine
 10
4.0
 20
2.0
 30
0.0
 11
0.0
 21
0.0
 31
0.0
  0
LINE
  5
2FE9
330
2FE1
100
AcDbEntity
  8
2寸法線
 62
     1
100
AcDbLine
 10
4.0
 20
2.0
 30
0.0
 11
4.0
 21
1.0
 31
0.0
  0
LINE
  5
2FEA
330
2FE1
100
AcDbEntity
  8
2寸法線
 62
     1
100
AcDbLine
 10
8.0
 20
1.0
 30
0.0
 11
8.0
 21
-1.0
 31
0.0
  0
ENDBLK
  5
2FEC
330
2FE1
100
AcDbEntity
  8
0
100
AcDbBlockEnd
  0
BLOCK
  5
4BF1
330
4BEE
100
AcDbEntity
  8
0
 48
2.0
100
AcDbBlockBegin
  2
_DOT
 70
     0
 10
0.0
 20
0.0
 30
0.0
  3
_DOT
  1

  0
LWPOLYLINE
  5
4BEF
330
4BEE
100
AcDbEntity
  8
0
  6
ByBlock
 62
     0
 48
2.0
380
     1
100
AcDbPolyline
 90
        2
 70
     1
 43
0.5
 10
-0.25
 20
0.0
 42
1.0
 10
0.25
 20
0.0
 42
1.0
  0
LINE
  5
4BF0
330
4BEE
100
AcDbEntity
  8
0
  6
ByBlock
 62
     0
 48
2.0
380
     1
100
AcDbLine
 10
-0.5
 20
0.0
 30
0.0
 11
-1.0
 21
0.0
 31
0.0
  0
ENDBLK
  5
4BF2
330
4BEE
100
AcDbEntity
  8
0
 48
2.0
100
AcDbBlockEnd
  0
BLOCK
  5
6EF1
330
6EEF
100
AcDbEntity
  8
0
100
AcDbBlockBegin
  2
A$C2AD55BA3
 70
     0
 10
0.0
 20
0.0
 30
0.0
  3
A$C2AD55BA3
  1

  0
ELLIPSE
  5
6EF0
330
6EEF
100
AcDbEntity
  8
1外形線
 48
3.0
100
AcDbEllipse
 10
5.117555401790014
 20
3.214478393543686
 30
0.0
 11
5.119170149657293
 21
0.0
 31
0.0
210
0.0
220
0.0
230
1.0
 40
0.6279789825534993
 41
0.0
 42
6.283185307179586
  0
ENDBLK
  5
6EF2
330
6EEF
100
AcDbEntity
  8
0
100
AcDbBlockEnd
  0
BLOCK
  5
FD20
330
FD1D
100
AcDbEntity
  8
0
100
AcDbBlockBegin
  2
ALW100
 70
     0
 10
0.0
 20
0.0
 30
0.0
  3
ALW100
  1

  0
LINE
  5
FD1E
330
FD1D
100
AcDbEntity
  8
0
  6
ByBlock
 62
     0
100
AcDbLine
 10
0.0
 20
0.0
 30
0.0
 11
-0.8279364225334973
 21
-0.2218448958021497
 31
0.0
  0
LINE
  5
FD1F
330
FD1D
100
AcDbEntity
  8
0
  6
ByBlock
 62
     0
100
AcDbLine
 10
0.0
 20
0.0
 30
0.0
 11
-0.8279364225334973
 21
0.2218448958021497
 31
0.0
  0
ENDBLK
  5
FD21
330
FD1D
100
AcDbEntity
  8
0
100
AcDbBlockEnd
  0
BLOCK
  5
18770
330
18766
100
AcDbEntity
  8
0
100
AcDbBlockBegin
  2
Aダッシュ左
 70
     0
 10
0.0
 20
0.0
 30
0.0
  3
Aダッシュ左
  1

  0
LINE
  5
18767
330
18766
100
AcDbEntity
  8
2寸法線
 62
     1
100
AcDbLine
 10
0.0
 20
0.0
 30
0.0
 11
4.0
 21
2.0
 31
0.0
  0
LINE
  5
18768
330
18766
100
AcDbEntity
  8
2寸法線
 62
     1
100
AcDbLine
 10
4.0
 20
1.0
 30
0.0
 11
4.0
 21
2.0
 31
0.0
  0
MTEXT
  5
18769
330
18766
100
AcDbEntity
  8
2寸法線
 48
3.0
100
AcDbMText
 10
4.123084182318962
 20
-1.977318778531753
 30
0.0
 40
4.0
 41
9.252299999999999
 46
0.0
 71
     1
 72
     5
  1
\fSwis721 BlkOul BT|b0|i0|c0|p82;A'
  7
KANJI
 73
     1
 44
1.0
  0
LINE
  5
1876A
330
18766
100
AcDbEntity
  8
2寸法線
 62
     1
100
AcDbLine
 10
4.0
 20
-1.0
 30
0.0
 11
8.0
 21
-1.0
 31
0.0
  0
LINE
  5
1876B
330
18766
100
AcDbEntity
  8
2寸法線
 62
     1
100
AcDbLine
 10
4.0
 20
1.0
 30
0.0
 11
8.0
 21
1.0
 31
0.0
  0
LINE
  5
1876C
330
18766
100
AcDbEntity
  8
2寸法線
 62
     1
100
AcDbLine
 10
4.0
 20
-2.0
 30
0.0
 11
0.0
 21
0.0
 31
0.0
  0
LINE
  5
1876D
330
18766
100
AcDbEntity
  8
2寸法線
 62
     1
100
AcDbLine
 10
0.0
 20
-1.0
 30
0.0
 11
0.0
 21
1.0
 31
0.0
  0
LINE
  5
1876E
330
18766
100
AcDbEntity
  8
2寸法線
 62
     1
100
AcDbLine
 10
4.0
 20
-2.0
 30
0.0
 11
4.0
 21
-1.0
 31
0.0
  0
LINE
  5
1876F
330
18766
100
AcDbEntity
  8
2寸法線
 62
     1
100
AcDbLine
 10
8.0
 20
-1.0
 30
0.0
 11
8.0
 21
1.0
 31
0.0
  0
ENDBLK
  5
18771
330
18766
100
AcDbEntity
  8
0
100
AcDbBlockEnd
  0
BLOCK
  5
29145
330
2913B
100
AcDbEntity
  8
0
100
AcDbBlockBegin
  2
B下
 70
     0
 10
0.0
 20
0.0
 30
0.0
  3
B下
  1

  0
MTEXT
  5
2913C
330
2913B
100
AcDbEntity
  8
2寸法線
 48
3.0
100
AcDbMText
 10
-5.912729122725068
 20
8.054572713239849
 30
0.0
 40
4.0
 41
5.411699999999999
 46
0.0
 71
     1
 72
     5
  1
\fSwis721 BlkOul BT|b0|i0|c0|p82;B
  7
KANJI
 73
     1
 44
1.0
  0
LINE
  5
2913D
330
2913B
100
AcDbEntity
  8
2寸法線
 62
     1
100
AcDbLine
 10
-2.0
 20
4.0
 30
0.0
 11
0.0
 21
0.0
 31
0.0
  0
LINE
  5
2913E
330
2913B
100
AcDbEntity
  8
2寸法線
 62
     1
100
AcDbLine
 10
-2.0
 20
4.0
 30
0.0
 11
-1.0
 21
4.0
 31
0.0
  0
LINE
  5
2913F
330
2913B
100
AcDbEntity
  8
2寸法線
 62
     1
100
AcDbLine
 10
0.0
 20
0.0
 30
0.0
 11
2.0
 21
4.0
 31
0.0
  0
LINE
  5
29140
330
2913B
100
AcDbEntity
  8
2寸法線
 62
     1
100
AcDbLine
 10
-1.0
 20
0.0
 30
0.0
 11
1.0
 21
0.0
 31
0.0
  0
LINE
  5
29141
330
2913B
100
AcDbEntity
  8
2寸法線
 62
     1
100
AcDbLine
 10
-1.0
 20
8.0
 30
0.0
 11
1.0
 21
8.0
 31
0.0
  0
LINE
  5
29142
330
2913B
100
AcDbEntity
  8
2寸法線
 62
     1
100
AcDbLine
 10
-1.0
 20
4.0
 30
0.0
 11
-1.0
 21
8.0
 31
0.0
  0
LINE
  5
29143
330
2913B
100
AcDbEntity
  8
2寸法線
 62
     1
100
AcDbLine
 10
1.0
 20
4.0
 30
0.0
 11
1.0
 21
8.0
 31
0.0
  0
LINE
  5
29144
330
2913B
100
AcDbEntity
  8
2寸法線
 62
     1
100
AcDbLine
 10
1.0
 20
4.0
 30
0.0
 11
2.0
 21
4.0
 31
0.0
  0
ENDBLK
  5
29146
330
2913B
100
AcDbEntity
  8
0
100
AcDbBlockEnd
  0
BLOCK
  5
29152
330
29148
100
AcDbEntity
  8
0
100
AcDbBlockBegin
  2
Bダッシュ下
 70
     0
 10
0.0
 20
0.0
 30
0.0
  3
Bダッシュ下
  1

  0
LINE
  5
29149
330
29148
100
AcDbEntity
  8
2寸法線
 62
     1
100
AcDbLine
 10
0.0
 20
0.0
 30
0.0
 11
-2.0
 21
4.0
 31
0.0
  0
LINE
  5
2914A
330
29148
100
AcDbEntity
  8
2寸法線
 62
     1
100
AcDbLine
 10
-1.0
 20
4.0
 30
0.0
 11
-2.0
 21
4.0
 31
0.0
  0
MTEXT
  5
2914B
330
29148
100
AcDbEntity
  8
2寸法線
 48
3.0
100
AcDbMText
 10
2.727610415721301
 20
8.104396171036114
 30
0.0
 40
4.0
 41
9.252299999999999
 46
0.0
 71
     1
 72
     5
  1
\fSwis721 BlkOul BT|b0|i0|c0|p82;B'
  7
KANJI
 73
     1
 44
1.0
  0
LINE
  5
2914C
330
29148
100
AcDbEntity
  8
2寸法線
 62
     1
100
AcDbLine
 10
2.0
 20
4.0
 30
0.0
 11
0.0
 21
0.0
 31
0.0
  0
LINE
  5
2914D
330
29148
100
AcDbEntity
  8
2寸法線
 62
     1
100
AcDbLine
 10
1.0
 20
0.0
 30
0.0
 11
-1.0
 21
0.0
 31
0.0
  0
LINE
  5
2914E
330
29148
100
AcDbEntity
  8
2寸法線
 62
     1
100
AcDbLine
 10
1.0
 20
8.0
 30
0.0
 11
-1.0
 21
8.0
 31
0.0
  0
LINE
  5
2914F
330
29148
100
AcDbEntity
  8
2寸法線
 62
     1
100
AcDbLine
 10
1.0
 20
4.0
 30
0.0
 11
1.0
 21
8.0
 31
0.0
  0
LINE
  5
29150
330
29148
100
AcDbEntity
  8
2寸法線
 62
     1
100
AcDbLine
 10
-1.0
 20
4.0
 30
0.0
 11
-1.0
 21
8.0
 31
0.0
  0
LINE
  5
29151
330
29148
100
AcDbEntity
  8
2寸法線
 62
     1
100
AcDbLine
 10
2.0
 20
4.0
 30
0.0
 11
1.0
 21
4.0
 31
0.0
  0
ENDBLK
  5
29153
330
29148
100
AcDbEntity
  8
0
100
AcDbBlockEnd
  0
BLOCK
  5
3C471
330
3C467
100
AcDbEntity
  8
0
100
AcDbBlockBegin
  2
C左
 70
     0
 10
0.0
 20
0.0
 30
0.0
  3
C左
  1

  0
MTEXT
  5
3C468
330
3C467
100
AcDbEntity
  8
2寸法線
 48
3.0
100
AcDbMText
 10
4.056638492392266
 20
6.185669693484214
 30
0.0
 40
4.0
 41
5.411699999999999
 46
0.0
 71
     1
 72
     5
  1
\fSwis721 BlkOul BT|b0|i0|c0|p82;C
  7
KANJI
 73
     1
 44
1.0
  0
LINE
  5
3C469
330
3C467
100
AcDbEntity
  8
2寸法線
 62
     1
100
AcDbLine
 10
4.0
 20
-1.0
 30
0.0
 11
8.0
 21
-1.0
 31
0.0
  0
LINE
  5
3C46A
330
3C467
100
AcDbEntity
  8
2寸法線
 62
     1
100
AcDbLine
 10
4.0
 20
1.0
 30
0.0
 11
8.0
 21
1.0
 31
0.0
  0
LINE
  5
3C46B
330
3C467
100
AcDbEntity
  8
2寸法線
 62
     1
100
AcDbLine
 10
0.0
 20
0.0
 30
0.0
 11
4.0
 21
-2.0
 31
0.0
  0
LINE
  5
3C46C
330
3C467
100
AcDbEntity
  8
2寸法線
 62
     1
100
AcDbLine
 10
0.0
 20
1.0
 30
0.0
 11
0.0
 21
-1.0
 31
0.0
  0
LINE
  5
3C46D
330
3C467
100
AcDbEntity
  8
2寸法線
 62
     1
100
AcDbLine
 10
4.0
 20
-1.0
 30
0.0
 11
4.0
 21
-2.0
 31
0.0
  0
LINE
  5
3C46E
330
3C467
100
AcDbEntity
  8
2寸法線
 62
     1
100
AcDbLine
 10
4.0
 20
2.0
 30
0.0
 11
0.0
 21
0.0
 31
0.0
  0
LINE
  5
3C46F
330
3C467
100
AcDbEntity
  8
2寸法線
 62
     1
100
AcDbLine
 10
4.0
 20
2.0
 30
0.0
 11
4.0
 21
1.0
 31
0.0
  0
LINE
  5
3C470
330
3C467
100
AcDbEntity
  8
2寸法線
 62
     1
100
AcDbLine
 10
8.0
 20
1.0
 30
0.0
 11
8.0
 21
-1.0
 31
0.0
  0
ENDBLK
  5
3C472
330
3C467
100
AcDbEntity
  8
0
100
AcDbBlockEnd
  0
BLOCK
  5
3C47E
330
3C474
100
AcDbEntity
  8
0
100
AcDbBlockBegin
  2
Cダッシュ左
 70
     0
 10
0.0
 20
0.0
 30
0.0
  3
Cダッシュ左
  1

  0
LINE
  5
3C475
330
3C474
100
AcDbEntity
  8
2寸法線
 62
     1
100
AcDbLine
 10
0.0
 20
0.0
 30
0.0
 11
4.0
 21
2.0
 31
0.0
  0
LINE
  5
3C476
330
3C474
100
AcDbEntity
  8
2寸法線
 62
     1
100
AcDbLine
 10
4.0
 20
1.0
 30
0.0
 11
4.0
 21
2.0
 31
0.0
  0
LINE
  5
3C477
330
3C474
100
AcDbEntity
  8
2寸法線
 62
     1
100
AcDbLine
 10
4.0
 20
-1.0
 30
0.0
 11
8.0
 21
-1.0
 31
0.0
  0
MTEXT
  5
3C478
330
3C474
100
AcDbEntity
  8
2寸法線
 48
3.0
100
AcDbMText
 10
4.123084182318962
 20
-1.977318778531753
 30
0.0
 40
4.0
 41
9.252299999999999
 46
0.0
 71
     1
 72
     5
  1
\fSwis721 BlkOul BT|b0|i0|c0|p82;C'
  7
KANJI
 73
     1
 44
1.0
  0
LINE
  5
3C479
330
3C474
100
AcDbEntity
  8
2寸法線
 62
     1
100
AcDbLine
 10
4.0
 20
1.0
 30
0.0
 11
8.0
 21
1.0
 31
0.0
  0
LINE
  5
3C47A
330
3C474
100
AcDbEntity
  8
2寸法線
 62
     1
100
AcDbLine
 10
4.0
 20
-2.0
 30
0.0
 11
0.0
 21
0.0
 31
0.0
  0
LINE
  5
3C47B
330
3C474
100
AcDbEntity
  8
2寸法線
 62
     1
100
AcDbLine
 10
0.0
 20
-1.0
 30
0.0
 11
0.0
 21
1.0
 31
0.0
  0
LINE
  5
3C47C
330
3C474
100
AcDbEntity
  8
2寸法線
 62
     1
100
AcDbLine
 10
4.0
 20
-2.0
 30
0.0
 11
4.0
 21
-1.0
 31
0.0
  0
LINE
  5
3C47D
330
3C474
100
AcDbEntity
  8
2寸法線
 62
     1
100
AcDbLine
 10
8.0
 20
-1.0
 30
0.0
 11
8.0
 21
1.0
 31
0.0
  0
ENDBLK
  5
3C47F
330
3C474
100
AcDbEntity
  8
0
100
AcDbBlockEnd
  0
BLOCK
  5
40FDF
330
40FD8
100
AcDbEntity
  8
0
100
AcDbBlockBegin
  2
*D14
 70
     1
 10
0.0
 20
0.0
 30
0.0
  3
*D14
  1

  0
LINE
  5
416BC
330
40FD8
100
AcDbEntity
  8
2寸法線
 62
     0
440
 16777216
370
    -2
100
AcDbLine
 10
4320.569941337764
 20
-9895.211507016689
 30
0.0
 11
4327.141369909191
 21
-9895.211507016689
 31
0.0
  0
LINE
  5
416BD
330
40FD8
100
AcDbEntity
  8
2寸法線
 62
     0
440
 16777216
370
    -2
100
AcDbLine
 10
4327.141369909191
 20
-9895.211507016689
 30
0.0
 11
4333.04680837186
 21
-9900.22931972912
 31
0.0
  0
MTEXT
  5
416BE
330
40FD8
100
AcDbEntity
  8
2寸法線
 62
     0
440
 16777216
100
AcDbMText
 10
4323.605655623477
 20
-9893.461507016688
 30
0.0
 40
2.5
 41
0.0
 46
0.0
 71
     5
 72
     1
  1
\A1;R12
  7
KANJI
 73
     1
 44
1.0
  0
INSERT
  5
416BF
330
40FD8
100
AcDbEntity
  8
2寸法線
 62
     0
440
 16777216
370
    -2
100
AcDbBlockReference
  2
2
 10
4334.418506584841
 20
-9901.394842793026
 30
0.0
 41
1.8
 42
1.8
 43
1.8
 50
319.6456599220157
  0
POINT
  5
416C0
330
40FD8
100
AcDbEntity
  8
DEFPOINTS
 62
     0
440
 16777216
100
AcDbPoint
 10
4334.418506584841
 20
-9901.394842793026
 30
0.0
  0
POINT
  5
416C1
330
40FD8
100
AcDbEntity
  8
DEFPOINTS
 62
     0
440
 16777216
100
AcDbPoint
 10
4352.707816091278
 20
-9916.935150311786
 30
0.0
  0
ENDBLK
  5
40FE0
330
40FD8
100
AcDbEntity
  8
0
100
AcDbBlockEnd
  0
BLOCK
  5
40FE9
330
40FE2
100
AcDbEntity
  8
0
100
AcDbBlockBegin
  2
*D15
 70
     1
 10
0.0
 20
0.0
 30
0.0
  3
*D15
  1

  0
LINE
  5
416B6
330
40FE2
100
AcDbEntity
  8
2寸法線
 62
     0
440
 16777216
370
    -2
100
AcDbLine
 10
4420.617436224784
 20
-9944.129671166633
 30
0.0
 11
4414.046007653354
 21
-9944.129671166633
 31
0.0
  0
LINE
  5
416B7
330
40FE2
100
AcDbEntity
  8
2寸法線
 62
     0
440
 16777216
370
    -2
100
AcDbLine
 10
4414.046007653354
 20
-9944.129671166633
 30
0.0
 11
4405.128847830215
 21
-9936.145378052607
 31
0.0
  0
MTEXT
  5
416B8
330
40FE2
100
AcDbEntity
  8
2寸法線
 62
     0
440
 16777216
100
AcDbMText
 10
4417.581721939068
 20
-9942.379671166632
 30
0.0
 40
2.5
 41
0.0
 46
0.0
 71
     5
 72
     1
  1
\A1;R12
  7
KANJI
 73
     1
 44
1.0
  0
INSERT
  5
416B9
330
40FE2
100
AcDbEntity
  8
2寸法線
 62
     0
440
 16777216
370
    -2
100
AcDbBlockReference
  2
2
 10
4403.787845615872
 20
-9934.944664489297
 30
0.0
 41
1.8
 42
1.8
 43
1.8
 50
138.1592045928028
  0
POINT
  5
416BA
330
40FE2
100
AcDbEntity
  8
DEFPOINTS
 62
     0
440
 16777216
100
AcDbPoint
 10
4403.787845615872
 20
-9934.944664489297
 30
0.0
  0
POINT
  5
416BB
330
40FE2
100
AcDbEntity
  8
DEFPOINTS
 62
     0
440
 16777216
100
AcDbPoint
 10
4385.907816091273
 20
-9918.935150311769
 30
0.0
  0
ENDBLK
  5
40FEA
330
40FE2
100
AcDbEntity
  8
0
100
AcDbBlockEnd
  0
BLOCK
  5
40FF3
330
40FEC
100
AcDbEntity
  8
0
100
AcDbBlockBegin
  2
*D16
 70
     1
 10
0.0
 20
0.0
 30
0.0
  3
*D16
  1

  0
LINE
  5
416B0
330
40FEC
100
AcDbEntity
  8
2寸法線
 62
     0
440
 16777216
370
    -2
100
AcDbLine
 10
4313.436103105423
 20
-9950.001283322535
 30
0.0
 11
4321.674198343518
 21
-9950.001283322535
 31
0.0
  0
LINE
  5
416B1
330
40FEC
100
AcDbEntity
  8
2寸法線
 62
     0
440
 16777216
370
    -2
100
AcDbLine
 10
4321.674198343518
 20
-9950.001283322535
 30
0.0
 11
4327.731919763001
 21
-9943.919043882489
 31
0.0
  0
MTEXT
  5
416B2
330
40FEC
100
AcDbEntity
  8
2寸法線
 62
     0
440
 16777216
100
AcDbMText
 10
4317.305150724469
 20
-9948.251283322537
 30
0.0
 40
2.5
 41
0.0
 46
0.0
 71
     5
 72
     1
  1
\A1;R0.5
  7
KANJI
 73
     1
 44
1.0
  0
INSERT
  5
416B3
330
40FEC
100
AcDbEntity
  8
2寸法線
 62
     0
440
 16777216
370
    -2
100
AcDbBlockReference
  2
2
 10
4329.002138831177
 20
-9942.64368372989
 30
0.0
 41
1.8
 42
1.8
 43
1.8
 50
45.1157151333895
  0
POINT
  5
416B4
330
40FEC
100
AcDbEntity
  8
DEFPOINTS
 62
     0
440
 16777216
100
AcDbPoint
 10
4329.002138831177
 20
-9942.64368372989
 30
0.0
  0
POINT
  5
416B5
330
40FEC
100
AcDbEntity
  8
DEFPOINTS
 62
     0
440
 16777216
100
AcDbPoint
 10
4329.707816091277
 20
-9941.935150311778
 30
0.0
  0
ENDBLK
  5
40FF4
330
40FEC
100
AcDbEntity
  8
0
100
AcDbBlockEnd
  0
BLOCK
  5
41000
330
40FF6
100
AcDbEntity
  8
0
100
AcDbBlockBegin
  2
*D17
 70
     1
 10
0.0
 20
0.0
 30
0.0
  3
*D17
  1

  0
LINE
  5
416A7
330
40FF6
100
AcDbEntity
  8
2寸法線
 62
     0
440
 16777216
370
    -2
100
AcDbLine
 10
4339.30781609128
 20
-9916.935150311791
 30
0.0
 11
4339.30781609128
 21
-9881.79494738461
 31
0.0
  0
LINE
  5
416A8
330
40FF6
100
AcDbEntity
  8
2寸法線
 62
     0
440
 16777216
370
    -2
100
AcDbLine
 10
4399.307816091283
 20
-9916.935150311791
 30
0.0
 11
4399.307816091283
 21
-9881.79494738461
 31
0.0
  0
LINE
  5
416A9
330
40FF6
100
AcDbEntity
  8
2寸法線
 62
     0
440
 16777216
370
    -2
100
AcDbLine
 10
4341.107816091279
 20
-9882.79494738461
 30
0.0
 11
4397.507816091283
 21
-9882.79494738461
 31
0.0
  0
INSERT
  5
416AA
330
40FF6
100
AcDbEntity
  8
2寸法線
 62
     0
440
 16777216
370
    -2
100
AcDbBlockReference
  2
2
 10
4339.30781609128
 20
-9882.79494738461
 30
0.0
 41
1.8
 42
1.8
 43
1.8
 50
180.0
  0
INSERT
  5
416AB
330
40FF6
100
AcDbEntity
  8
2寸法線
 62
     0
440
 16777216
370
    -2
100
AcDbBlockReference
  2
2
 10
4399.307816091283
 20
-9882.79494738461
 30
0.0
 41
1.8
 42
1.8
 43
1.8
  0
MTEXT
  5
416AC
330
40FF6
100
AcDbEntity
  8
2寸法線
 62
     0
440
 16777216
100
AcDbMText
 10
4369.307816091281
 20
-9881.044947384609
 30
0.0
 40
2.5
 41
0.0
 46
0.0
 71
     5
 72
     1
  1
\A1;30
  7
KANJI
 73
     1
 44
1.0
  0
POINT
  5
416AD
330
40FF6
100
AcDbEntity
  8
DEFPOINTS
 62
     0
440
 16777216
100
AcDbPoint
 10
4339.30781609128
 20
-9917.935150311791
 30
0.0
  0
POINT
  5
416AE
330
40FF6
100
AcDbEntity
  8
DEFPOINTS
 62
     0
440
 16777216
100
AcDbPoint
 10
4399.307816091283
 20
-9917.935150311791
 30
0.0
  0
POINT
  5
416AF
330
40FF6
100
AcDbEntity
  8
DEFPOINTS
 62
     0
440
 16777216
100
AcDbPoint
 10
4399.307816091283
 20
-9882.79494738461
 30
0.0
  0
ENDBLK
  5
41001
330
40FF6
100
AcDbEntity
  8
0
100
AcDbBlockEnd
  0
BLOCK
  5
4100F
330
41003
100
AcDbEntity
  8
0
100
AcDbBlockBegin
  2
*D18
 70
     1
 10
0.0
 20
0.0
 30
0.0
  3
*D18
  1

  0
LINE
  5
4169C
330
41003
100
AcDbEntity
  8
2寸法線
 62
     0
440
 16777216
370
    -2
100
AcDbLine
 10
4398.307816091284
 20
-9919.935150311792
 30
0.0
 11
4422.115891710163
 21
-9919.935150311792
 31
0.0
  0
LINE
  5
4169D
330
41003
100
AcDbEntity
  8
2寸法線
 62
     0
440
 16777216
370
    -2
100
AcDbLine
 10
4398.307816091284
 20
-9915.93515031179
 30
0.0
 11
4422.115891710163
 21
-9915.93515031179
 31
0.0
  0
LINE
  5
4169E
330
41003
100
AcDbEntity
  8
2寸法線
 62
     0
440
 16777216
370
    -2
100
AcDbLine
 10
4421.115891710162
 20
-9921.735150311789
 30
0.0
 11
4421.115891710162
 21
-9923.535150311792
 31
0.0
  0
LINE
  5
4169F
330
41003
100
AcDbEntity
  8
2寸法線
 62
     0
440
 16777216
370
    -2
100
AcDbLine
 10
4421.115891710162
 20
-9914.135150311793
 30
0.0
 11
4421.115891710162
 21
-9909.668483645127
 31
0.0
  0
LINE
  5
416A0
330
41003
100
AcDbEntity
  8
2寸法線
 62
     0
440
 16777216
370
    -2
100
AcDbLine
 10
4421.115891710162
 20
-9919.935150311792
 30
0.0
 11
4421.115891710162
 21
-9915.93515031179
 31
0.0
  0
INSERT
  5
416A1
330
41003
100
AcDbEntity
  8
2寸法線
 62
     0
440
 16777216
370
    -2
100
AcDbBlockReference
  2
2
 10
4421.115891710162
 20
-9919.935150311792
 30
0.0
 41
1.8
 42
1.8
 43
1.8
 50
90.0
  0
INSERT
  5
416A2
330
41003
100
AcDbEntity
  8
2寸法線
 62
     0
440
 16777216
370
    -2
100
AcDbBlockReference
  2
2
 10
4421.115891710162
 20
-9915.93515031179
 30
0.0
 41
1.8
 42
1.8
 43
1.8
 50
270.0
  0
MTEXT
  5
416A3
330
41003
100
AcDbEntity
  8
2寸法線
 62
     0
440
 16777216
100
AcDbMText
 10
4419.365891710163
 20
-9911.001816978457
 30
0.0
 40
2.5
 41
0.0
 46
0.0
 71
     5
 72
     1
  1
\A1;2
  7
KANJI
 11
0.0000000000000001
 21
1.0
 31
0.0
 73
     1
 44
1.0
  0
POINT
  5
416A4
330
41003
100
AcDbEntity
  8
DEFPOINTS
 62
     0
440
 16777216
100
AcDbPoint
 10
4397.307816091283
 20
-9919.935150311792
 30
0.0
  0
POINT
  5
416A5
330
41003
100
AcDbEntity
  8
DEFPOINTS
 62
     0
440
 16777216
100
AcDbPoint
 10
4397.307816091283
 20
-9915.93515031179
 30
0.0
  0
POINT
  5
416A6
330
41003
100
AcDbEntity
  8
DEFPOINTS
 62
     0
440
 16777216
100
AcDbPoint
 10
4421.115891710162
 20
-9915.93515031179
 30
0.0
  0
ENDBLK
  5
41010
330
41003
100
AcDbEntity
  8
0
100
AcDbBlockEnd
  0
BLOCK
  5
4102F
330
41028
100
AcDbEntity
  8
0
100
AcDbBlockBegin
  2
*D19
 70
     1
 10
0.0
 20
0.0
 30
0.0
  3
*D19
  1

  0
LINE
  5
41696
330
41028
100
AcDbEntity
  8
2寸法線
 62
     0
440
 16777216
370
    -2
100
AcDbLine
 10
4405.406763879367
 20
-9929.023882806546
 30
0.0
 11
4401.811525784128
 21
-9929.023882806546
 31
0.0
  0
LINE
  5
41697
330
41028
100
AcDbEntity
  8
2寸法線
 62
     0
440
 16777216
370
    -2
100
AcDbLine
 10
4401.811525784128
 20
-9929.023882806546
 30
0.0
 11
4398.737752389652
 21
-9921.455843735337
 31
0.0
  0
MTEXT
  5
41698
330
41028
100
AcDbEntity
  8
2寸法線
 62
     0
440
 16777216
100
AcDbMText
 10
4403.859144831747
 20
-9927.273882806545
 30
0.0
 40
2.5
 41
0.0
 46
0.0
 71
     5
 72
     1
  1
\A1;R1
  7
KANJI
 73
     1
 44
1.0
  0
INSERT
  5
41699
330
41028
100
AcDbEntity
  8
2寸法線
 62
     0
440
 16777216
370
    -2
100
AcDbBlockReference
  2
2
 10
4398.060414143055
 20
-9919.7881468505
 30
0.0
 41
1.8
 42
1.8
 43
1.8
 50
112.1046233434554
  0
POINT
  5
4169A
330
41028
100
AcDbEntity
  8
DEFPOINTS
 62
     0
440
 16777216
100
AcDbPoint
 10
4398.060414143055
 20
-9919.7881468505
 30
0.0
  0
POINT
  5
4169B
330
41028
100
AcDbEntity
  8
DEFPOINTS
 62
     0
440
 16777216
100
AcDbPoint
 10
4397.307816091288
 20
-9917.935150311807
 30
0.0
  0
ENDBLK
  5
41030
330
41028
100
AcDbEntity
  8
0
100
AcDbBlockEnd
  0
BLOCK
  5
4106A
330
41060
100
AcDbEntity
  8
0
100
AcDbBlockBegin
  2
*D20
 70
     1
 10
0.0
 20
0.0
 30
0.0
  3
*D20
  1

  0
LINE
  5
4107E
330
41060
100
AcDbEntity
  8
2寸法線
 62
     0
440
 16777216
370
    -2
100
AcDbLine
 10
4451.693740356972
 20
-9936.850150659802
 30
0.0
 11
4451.693740356972
 21
-9918.869374207307
 31
0.0
  0
LINE
  5
4107F
330
41060
100
AcDbEntity
  8
2寸法線
 62
     0
440
 16777216
370
    -2
100
AcDbLine
 10
4501.693740356972
 20
-9936.850150659802
 30
0.0
 11
4501.693740356972
 21
-9918.869374207307
 31
0.0
  0
LINE
  5
41080
330
41060
100
AcDbEntity
  8
2寸法線
 62
     0
440
 16777216
370
    -2
100
AcDbLine
 10
4453.493740356972
 20
-9919.869374207307
 30
0.0
 11
4499.893740356972
 21
-9919.869374207307
 31
0.0
  0
INSERT
  5
41081
330
41060
100
AcDbEntity
  8
2寸法線
 62
     0
440
 16777216
370
    -2
100
AcDbBlockReference
  2
2
 10
4451.693740356972
 20
-9919.869374207307
 30
0.0
 41
1.8
 42
1.8
 43
1.8
 50
180.0
  0
INSERT
  5
41082
330
41060
100
AcDbEntity
  8
2寸法線
 62
     0
440
 16777216
370
    -2
100
AcDbBlockReference
  2
2
 10
4501.693740356972
 20
-9919.869374207307
 30
0.0
 41
1.8
 42
1.8
 43
1.8
  0
MTEXT
  5
41083
330
41060
100
AcDbEntity
  8
2寸法線
 62
     0
440
 16777216
100
AcDbMText
 10
4476.693740356972
 20
-9918.119374207307
 30
0.0
 40
2.5
 41
0.0
 46
0.0
 71
     5
 72
     1
  1
\A1;25
  7
KANJI
 73
     1
 44
1.0
  0
POINT
  5
41084
330
41060
100
AcDbEntity
  8
DEFPOINTS
 62
     0
440
 16777216
100
AcDbPoint
 10
4451.693740356972
 20
-9937.850150659803
 30
0.0
  0
POINT
  5
41085
330
41060
100
AcDbEntity
  8
DEFPOINTS
 62
     0
440
 16777216
100
AcDbPoint
 10
4501.693740356972
 20
-9937.850150659803
 30
0.0
  0
POINT
  5
41086
330
41060
100
AcDbEntity
  8
DEFPOINTS
 62
     0
440
 16777216
100
AcDbPoint
 10
4501.693740356972
 20
-9919.869374207307
 30
0.0
  0
ENDBLK
  5
4106B
330
41060
100
AcDbEntity
  8
0
100
AcDbBlockEnd
  0
BLOCK
  5
410A9
330
4109D
100
AcDbEntity
  8
0
100
AcDbBlockBegin
  2
*D21
 70
     1
 10
0.0
 20
0.0
 30
0.0
  3
*D21
  1

  0
LINE
  5
410B6
330
4109D
100
AcDbEntity
  8
2寸法線
 62
     0
440
 16777216
370
    -2
100
AcDbLine
 10
4476.693740356977
 20
-10005.61462791489
 30
0.0
 11
4464.199605490069
 21
-9993.120493047985
 31
0.0
  0
LINE
  5
410B7
330
4109D
100
AcDbEntity
  8
2寸法線
 62
     0
440
 16777216
370
    -2
100
AcDbLine
 10
4476.693740356977
 20
-10001.61462791489
 30
0.0
 11
4464.199605490069
 21
-9989.120493047986
 31
0.0
  0
LINE
  5
410B8
330
4109D
100
AcDbEntity
  8
2寸法線
 62
     0
440
 16777216
370
    -2
100
AcDbLine
 10
4465.199605490069
 20
-9995.920493047984
 30
0.0
 11
4465.199605490069
 21
-9997.720493047985
 31
0.0
  0
LINE
  5
410B9
330
4109D
100
AcDbEntity
  8
2寸法線
 62
     0
440
 16777216
370
    -2
100
AcDbLine
 10
4465.199605490069
 20
-9988.320493047986
 30
0.0
 11
4465.199605490069
 21
-9983.85382638132
 31
0.0
  0
LINE
  5
410BA
330
4109D
100
AcDbEntity
  8
2寸法線
 62
     0
440
 16777216
370
    -2
100
AcDbLine
 10
4465.199605490069
 20
-9994.120493047986
 30
0.0
 11
4465.199605490069
 21
-9990.120493047985
 31
0.0
  0
INSERT
  5
410BB
330
4109D
100
AcDbEntity
  8
2寸法線
 62
     0
440
 16777216
370
    -2
100
AcDbBlockReference
  2
2
 10
4465.199605490069
 20
-9994.120493047986
 30
0.0
 41
1.8
 42
1.8
 43
1.8
 50
90.0
  0
INSERT
  5
410BC
330
4109D
100
AcDbEntity
  8
2寸法線
 62
     0
440
 16777216
370
    -2
100
AcDbBlockReference
  2
2
 10
4465.199605490069
 20
-9990.120493047985
 30
0.0
 41
1.8
 42
1.8
 43
1.8
 50
270.0
  0
MTEXT
  5
410BD
330
4109D
100
AcDbEntity
  8
2寸法線
 62
     0
440
 16777216
100
AcDbMText
 10
4463.44960549007
 20
-9985.187159714651
 30
0.0
 40
2.5
 41
0.0
 46
0.0
 71
     5
 72
     1
  1
\A1;2
  7
KANJI
 11
0.0000000000000001
 21
1.0
 31
0.0
 73
     1
 44
1.0
  0
POINT
  5
410BE
330
4109D
100
AcDbEntity
  8
DEFPOINTS
 62
     0
440
 16777216
100
AcDbPoint
 10
4476.693740356977
 20
-10005.61462791489
 30
0.0
  0
POINT
  5
410BF
330
4109D
100
AcDbEntity
  8
DEFPOINTS
 62
     0
440
 16777216
100
AcDbPoint
 10
4476.693740356977
 20
-10001.61462791489
 30
0.0
  0
POINT
  5
410C0
330
4109D
100
AcDbEntity
  8
DEFPOINTS
 62
     0
440
 16777216
100
AcDbPoint
 10
4465.199605490069
 20
-9990.120493047985
 30
0.0
  0
ENDBLK
  5
410AA
330
4109D
100
AcDbEntity
  8
0
100
AcDbBlockEnd
  0
BLOCK
  5
410EA
330
410DF
100
AcDbEntity
  8
0
100
AcDbBlockBegin
  2
*D22
 70
     1
 10
0.0
 20
0.0
 30
0.0
  3
*D22
  1

  0
LINE
  5
41663
330
410DF
100
AcDbEntity
  8
2寸法線
 62
     0
440
 16777216
370
    -2
100
AcDbLine
 10
4303.955295654661
 20
-10075.91576845997
 30
0.0
 11
4289.627473850255
 21
-10075.91576845997
 31
0.0
  0
LINE
  5
41664
330
410DF
100
AcDbEntity
  8
2寸法線
 62
     0
440
 16777216
370
    -2
100
AcDbLine
 10
4304.955295654661
 20
-10071.11576845997
 30
0.0
 11
4289.627473850255
 21
-10071.11576845997
 31
0.0
  0
LINE
  5
41665
330
410DF
100
AcDbEntity
  8
2寸法線
 62
     0
440
 16777216
370
    -2
100
AcDbLine
 10
4290.627473850255
 20
-10072.91576845997
 30
0.0
 11
4290.627473850255
 21
-10074.11576845997
 31
0.0
  0
LINE
  5
41666
330
410DF
100
AcDbEntity
  8
2寸法線
 62
     0
440
 16777216
370
    -2
100
AcDbLine
 10
4290.627473850255
 20
-10075.91576845997
 30
0.0
 11
4290.627473850255
 21
-10090.10837185787
 31
0.0
  0
INSERT
  5
41667
330
410DF
100
AcDbEntity
  8
2寸法線
 62
     0
440
 16777216
370
    -2
100
AcDbBlockReference
  2
2
 10
4290.627473850255
 20
-10071.11576845997
 30
0.0
 41
1.8
 42
1.8
 43
1.8
 50
90.0
  0
INSERT
  5
41668
330
410DF
100
AcDbEntity
  8
2寸法線
 62
     0
440
 16777216
370
    -2
100
AcDbBlockReference
  2
2
 10
4290.627473850255
 20
-10075.91576845997
 30
0.0
 41
1.8
 42
1.8
 43
1.8
 50
270.0
  0
MTEXT
  5
41669
330
410DF
100
AcDbEntity
  8
2寸法線
 62
     0
440
 16777216
100
AcDbMText
 10
4288.877473850256
 20
-10086.9298004293
 30
0.0
 40
2.5
 41
0.0
 46
0.0
 71
     5
 72
     1
  1
\A1;2.4
  7
KANJI
 11
0.0000000000000001
 21
1.0
 31
0.0
 73
     1
 44
1.0
  0
POINT
  5
4166A
330
410DF
100
AcDbEntity
  8
DEFPOINTS
 62
     0
440
 16777216
100
AcDbPoint
 10
4304.955295654661
 20
-10075.91576845997
 30
0.0
  0
POINT
  5
4166B
330
410DF
100
AcDbEntity
  8
DEFPOINTS
 62
     0
440
 16777216
100
AcDbPoint
 10
4305.955295654661
 20
-10071.11576845997
 30
0.0
  0
POINT
  5
4166C
330
410DF
100
AcDbEntity
  8
DEFPOINTS
 62
     0
440
 16777216
100
AcDbPoint
 10
4290.627473850255
 20
-10071.11576845997
 30
0.0
  0
ENDBLK
  5
410EB
330
410DF
100
AcDbEntity
  8
0
100
AcDbBlockEnd
  0
BLOCK
  5
410F8
330
410EC
100
AcDbEntity
  8
0
100
AcDbBlockBegin
  2
*D23
 70
     1
 10
0.0
 20
0.0
 30
0.0
  3
*D23
  1

  0
LINE
  5
4166D
330
410EC
100
AcDbEntity
  8
2寸法線
 62
     0
440
 16777216
370
    -2
100
AcDbLine
 10
4303.955295654661
 20
-10075.91576845997
 30
0.0
 11
4296.145212217941
 21
-10075.91576845997
 31
0.0
  0
LINE
  5
4166E
330
410EC
100
AcDbEntity
  8
2寸法線
 62
     0
440
 16777216
370
    -2
100
AcDbLine
 10
4311.955295654661
 20
-10075.11576845998
 30
0.0
 11
4296.145212217941
 21
-10075.11576845998
 31
0.0
  0
LINE
  5
4166F
330
410EC
100
AcDbEntity
  8
2寸法線
 62
     0
440
 16777216
370
    -2
100
AcDbLine
 10
4297.14521221794
 20
-10073.31576845998
 30
0.0
 11
4297.14521221794
 21
-10071.51576845998
 31
0.0
  0
LINE
  5
41670
330
410EC
100
AcDbEntity
  8
2寸法線
 62
     0
440
 16777216
370
    -2
100
AcDbLine
 10
4297.14521221794
 20
-10077.71576845997
 30
0.0
 11
4297.14521221794
 21
-10090.17574038634
 31
0.0
  0
LINE
  5
41671
330
410EC
100
AcDbEntity
  8
2寸法線
 62
     0
440
 16777216
370
    -2
100
AcDbLine
 10
4297.14521221794
 20
-10075.11576845998
 30
0.0
 11
4297.14521221794
 21
-10075.91576845997
 31
0.0
  0
INSERT
  5
41672
330
410EC
100
AcDbEntity
  8
2寸法線
 62
     0
440
 16777216
370
    -2
100
AcDbBlockReference
  2
2
 10
4297.14521221794
 20
-10075.11576845998
 30
0.0
 41
1.8
 42
1.8
 43
1.8
 50
270.0
  0
INSERT
  5
41673
330
410EC
100
AcDbEntity
  8
2寸法線
 62
     0
440
 16777216
370
    -2
100
AcDbBlockReference
  2
2
 10
4297.14521221794
 20
-10075.91576845997
 30
0.0
 41
1.8
 42
1.8
 43
1.8
 50
90.0
  0
MTEXT
  5
41674
330
410EC
100
AcDbEntity
  8
2寸法線
 62
     0
440
 16777216
100
AcDbMText
 10
4295.395212217941
 20
-10086.99716895777
 30
0.0
 40
2.5
 41
0.0
 46
0.0
 71
     5
 72
     1
  1
\A1;0.4
  7
KANJI
 11
0.0000000000000001
 21
1.0
 31
0.0
 73
     1
 44
1.0
  0
POINT
  5
41675
330
410EC
100
AcDbEntity
  8
DEFPOINTS
 62
     0
440
 16777216
100
AcDbPoint
 10
4304.955295654661
 20
-10075.91576845997
 30
0.0
  0
POINT
  5
41676
330
410EC
100
AcDbEntity
  8
DEFPOINTS
 62
     0
440
 16777216
100
AcDbPoint
 10
4312.955295654663
 20
-10075.11576845998
 30
0.0
  0
POINT
  5
41677
330
410EC
100
AcDbEntity
  8
DEFPOINTS
 62
     0
440
 16777216
100
AcDbPoint
 10
4297.14521221794
 20
-10075.11576845998
 30
0.0
  0
ENDBLK
  5
410F9
330
410EC
100
AcDbEntity
  8
0
100
AcDbBlockEnd
  0
BLOCK
  5
41101
330
410FA
100
AcDbEntity
  8
0
100
AcDbBlockBegin
  2
*D24
 70
     1
 10
0.0
 20
0.0
 30
0.0
  3
*D24
  1

  0
LINE
  5
41678
330
410FA
100
AcDbEntity
  8
2寸法線
 62
     0
440
 16777216
370
    -2
100
AcDbLine
 10
4292.207643575186
 20
-10065.14277998343
 30
0.0
 11
4300.445738813288
 21
-10065.14277998344
 31
0.0
  0
LINE
  5
41679
330
410FA
100
AcDbEntity
  8
2寸法線
 62
     0
440
 16777216
370
    -2
100
AcDbLine
 10
4300.445738813288
 20
-10065.14277998344
 30
0.0
 11
4304.21940556019
 21
-10069.91879654848
 31
0.0
  0
MTEXT
  5
4167A
330
410FA
100
AcDbEntity
  8
2寸法線
 62
     0
440
 16777216
100
AcDbMText
 10
4296.076691194233
 20
-10063.39277998343
 30
0.0
 40
2.5
 41
0.0
 46
0.0
 71
     5
 72
     1
  1
\A1;R0.5
  7
KANJI
 73
     1
 44
1.0
  0
INSERT
  5
4167B
330
410FA
100
AcDbEntity
  8
2寸法線
 62
     0
440
 16777216
370
    -2
100
AcDbBlockReference
  2
2
 10
4305.335334906636
 20
-10071.33113563444
 30
0.0
 41
1.8
 42
1.8
 43
1.8
 50
308.3132681433046
  0
POINT
  5
4167C
330
410FA
100
AcDbEntity
  8
DEFPOINTS
 62
     0
440
 16777216
100
AcDbPoint
 10
4305.335334906636
 20
-10071.33113563444
 30
0.0
  0
POINT
  5
4167D
330
410FA
100
AcDbEntity
  8
DEFPOINTS
 62
     0
440
 16777216
100
AcDbPoint
 10
4305.955295654659
 20
-10072.11576845997
 30
0.0
  0
ENDBLK
  5
41102
330
410FA
100
AcDbEntity
  8
0
100
AcDbBlockEnd
  0
BLOCK
  5
4110F
330
41103
100
AcDbEntity
  8
0
100
AcDbBlockBegin
  2
*D25
 70
     1
 10
0.0
 20
0.0
 30
0.0
  3
*D25
  1

  0
LINE
  5
4163B
330
41103
100
AcDbEntity
  8
2寸法線
 62
     0
440
 16777216
370
    -2
100
AcDbLine
 10
4382.155295654665
 20
-10076.91576845997
 30
0.0
 11
4382.155295654665
 21
-10083.00039642646
 31
0.0
  0
LINE
  5
4163C
330
41103
100
AcDbEntity
  8
2寸法線
 62
     0
440
 16777216
370
    -2
100
AcDbLine
 10
4386.155295654664
 20
-10076.91576845997
 30
0.0
 11
4386.155295654664
 21
-10083.00039642646
 31
0.0
  0
LINE
  5
4163D
330
41103
100
AcDbEntity
  8
2寸法線
 62
     0
440
 16777216
370
    -2
100
AcDbLine
 10
4380.355295654664
 20
-10082.00039642646
 30
0.0
 11
4378.555295654664
 21
-10082.00039642646
 31
0.0
  0
LINE
  5
4163E
330
41103
100
AcDbEntity
  8
2寸法線
 62
     0
440
 16777216
370
    -2
100
AcDbLine
 10
4387.955295654665
 20
-10082.00039642646
 30
0.0
 11
4397.49339089276
 21
-10082.00039642646
 31
0.0
  0
LINE
  5
4163F
330
41103
100
AcDbEntity
  8
2寸法線
 62
     0
440
 16777216
370
    -2
100
AcDbLine
 10
4382.155295654665
 20
-10082.00039642646
 30
0.0
 11
4386.155295654664
 21
-10082.00039642646
 31
0.0
  0
INSERT
  5
41640
330
41103
100
AcDbEntity
  8
2寸法線
 62
     0
440
 16777216
370
    -2
100
AcDbBlockReference
  2
2
 10
4382.155295654665
 20
-10082.00039642646
 30
0.0
 41
1.8
 42
1.8
 43
1.8
  0
INSERT
  5
41641
330
41103
100
AcDbEntity
  8
2寸法線
 62
     0
440
 16777216
370
    -2
100
AcDbBlockReference
  2
2
 10
4386.155295654664
 20
-10082.00039642646
 30
0.0
 41
1.8
 42
1.8
 43
1.8
 50
180.0
  0
MTEXT
  5
41642
330
41103
100
AcDbEntity
  8
2寸法線
 62
     0
440
 16777216
100
AcDbMText
 10
4393.624343273713
 20
-10080.25039642646
 30
0.0
 40
2.5
 41
0.0
 46
0.0
 71
     5
 72
     1
  1
\A1;（2）
  7
KANJI
 73
     1
 44
1.0
  0
POINT
  5
41643
330
41103
100
AcDbEntity
  8
DEFPOINTS
 62
     0
440
 16777216
100
AcDbPoint
 10
4382.155295654665
 20
-10075.91576845997
 30
0.0
  0
POINT
  5
41644
330
41103
100
AcDbEntity
  8
DEFPOINTS
 62
     0
440
 16777216
100
AcDbPoint
 10
4386.155295654664
 20
-10075.91576845997
 30
0.0
  0
POINT
  5
41645
330
41103
100
AcDbEntity
  8
DEFPOINTS
 62
     0
440
 16777216
100
AcDbPoint
 10
4386.155295654664
 20
-10082.00039642646
 30
0.0
  0
ENDBLK
  5
41110
330
41103
100
AcDbEntity
  8
0
100
AcDbBlockEnd
  0
BLOCK
  5
4111C
330
41111
100
AcDbEntity
  8
0
100
AcDbBlockBegin
  2
*D26
 70
     1
 10
0.0
 20
0.0
 30
0.0
  3
*D26
  1

  0
LINE
  5
41646
330
41111
100
AcDbEntity
  8
2寸法線
 62
     0
440
 16777216
370
    -2
100
AcDbLine
 10
4378.155295654663
 20
-10076.11576845997
 30
0.0
 11
4378.155295654663
 21
-10088.8152610155
 31
0.0
  0
LINE
  5
41647
330
41111
100
AcDbEntity
  8
2寸法線
 62
     0
440
 16777216
370
    -2
100
AcDbLine
 10
4386.155295654664
 20
-10076.91576845997
 30
0.0
 11
4386.155295654664
 21
-10088.8152610155
 31
0.0
  0
LINE
  5
41648
330
41111
100
AcDbEntity
  8
2寸法線
 62
     0
440
 16777216
370
    -2
100
AcDbLine
 10
4379.955295654664
 20
-10087.8152610155
 30
0.0
 11
4384.355295654664
 21
-10087.8152610155
 31
0.0
  0
LINE
  5
41649
330
41111
100
AcDbEntity
  8
2寸法線
 62
     0
440
 16777216
370
    -2
100
AcDbLine
 10
4386.155295654664
 20
-10087.8152610155
 30
0.0
 11
4397.606079331374
 21
-10087.8152610155
 31
0.0
  0
INSERT
  5
4164A
330
41111
100
AcDbEntity
  8
2寸法線
 62
     0
440
 16777216
370
    -2
100
AcDbBlockReference
  2
2
 10
4378.155295654663
 20
-10087.8152610155
 30
0.0
 41
1.8
 42
1.8
 43
1.8
 50
180.0
  0
INSERT
  5
4164B
330
41111
100
AcDbEntity
  8
2寸法線
 62
     0
440
 16777216
370
    -2
100
AcDbBlockReference
  2
2
 10
4386.155295654664
 20
-10087.8152610155
 30
0.0
 41
1.8
 42
1.8
 43
1.8
  0
MTEXT
  5
4164C
330
41111
100
AcDbEntity
  8
2寸法線
 62
     0
440
 16777216
100
AcDbMText
 10
4393.737031712325
 20
-10086.0652610155
 30
0.0
 40
2.5
 41
0.0
 46
0.0
 71
     5
 72
     1
  1
\A1;（4）
  7
KANJI
 73
     1
 44
1.0
  0
POINT
  5
4164D
330
41111
100
AcDbEntity
  8
DEFPOINTS
 62
     0
440
 16777216
100
AcDbPoint
 10
4378.155295654663
 20
-10075.11576845997
 30
0.0
  0
POINT
  5
4164E
330
41111
100
AcDbEntity
  8
DEFPOINTS
 62
     0
440
 16777216
100
AcDbPoint
 10
4386.155295654664
 20
-10075.91576845997
 30
0.0
  0
POINT
  5
4164F
330
41111
100
AcDbEntity
  8
DEFPOINTS
 62
     0
440
 16777216
100
AcDbPoint
 10
4386.155295654664
 20
-10087.8152610155
 30
0.0
  0
ENDBLK
  5
4111D
330
41111
100
AcDbEntity
  8
0
100
AcDbBlockEnd
  0
BLOCK
  5
41128
330
4111E
100
AcDbEntity
  8
0
100
AcDbBlockBegin
  2
*D27
 70
     1
 10
0.0
 20
0.0
 30
0.0
  3
*D27
  1

  0
LINE
  5
41650
330
4111E
100
AcDbEntity
  8
2寸法線
 62
     0
440
 16777216
370
    -2
100
AcDbLine
 10
4335.555295654663
 20
-10071.11576845998
 30
0.0
 11
4335.555295654663
 21
-10092.46218165155
 31
0.0
  0
LINE
  5
41651
330
4111E
100
AcDbEntity
  8
2寸法線
 62
     0
440
 16777216
370
    -2
100
AcDbLine
 10
4355.555295654663
 20
-10071.11576845998
 30
0.0
 11
4355.555295654663
 21
-10092.46218165155
 31
0.0
  0
LINE
  5
41652
330
4111E
100
AcDbEntity
  8
2寸法線
 62
     0
440
 16777216
370
    -2
100
AcDbLine
 10
4337.355295654663
 20
-10091.46218165155
 30
0.0
 11
4353.755295654663
 21
-10091.46218165155
 31
0.0
  0
INSERT
  5
41653
330
4111E
100
AcDbEntity
  8
2寸法線
 62
     0
440
 16777216
370
    -2
100
AcDbBlockReference
  2
2
 10
4335.555295654663
 20
-10091.46218165155
 30
0.0
 41
1.8
 42
1.8
 43
1.8
 50
180.0
  0
INSERT
  5
41654
330
4111E
100
AcDbEntity
  8
2寸法線
 62
     0
440
 16777216
370
    -2
100
AcDbBlockReference
  2
2
 10
4355.555295654663
 20
-10091.46218165155
 30
0.0
 41
1.8
 42
1.8
 43
1.8
  0
MTEXT
  5
41655
330
4111E
100
AcDbEntity
  8
2寸法線
 62
     0
440
 16777216
100
AcDbMText
 10
4345.555295654663
 20
-10089.71218165155
 30
0.0
 40
2.5
 41
0.0
 46
0.0
 71
     5
 72
     1
  1
\A1;10
  7
KANJI
 73
     1
 44
1.0
  0
POINT
  5
41656
330
4111E
100
AcDbEntity
  8
DEFPOINTS
 62
     0
440
 16777216
100
AcDbPoint
 10
4335.555295654663
 20
-10070.11576845998
 30
0.0
  0
POINT
  5
41657
330
4111E
100
AcDbEntity
  8
DEFPOINTS
 62
     0
440
 16777216
100
AcDbPoint
 10
4355.555295654663
 20
-10070.11576845998
 30
0.0
  0
POINT
  5
41658
330
4111E
100
AcDbEntity
  8
DEFPOINTS
 62
     0
440
 16777216
100
AcDbPoint
 10
4355.555295654663
 20
-10091.46218165155
 30
0.0
  0
ENDBLK
  5
41129
330
4111E
100
AcDbEntity
  8
0
100
AcDbBlockEnd
  0
BLOCK
  5
41135
330
4112A
100
AcDbEntity
  8
0
100
AcDbBlockBegin
  2
*D28
 70
     1
 10
0.0
 20
0.0
 30
0.0
  3
*D28
  1

  0
LINE
  5
41659
330
4112A
100
AcDbEntity
  8
2寸法線
 62
     0
440
 16777216
370
    -2
100
AcDbLine
 10
4360.555295654664
 20
-10070.11576845998
 30
0.0
 11
4360.555295654664
 21
-10092.46218165155
 31
0.0
  0
LINE
  5
4165A
330
4112A
100
AcDbEntity
  8
2寸法線
 62
     0
440
 16777216
370
    -2
100
AcDbLine
 10
4355.555295654663
 20
-10071.11576845998
 30
0.0
 11
4355.555295654663
 21
-10092.46218165155
 31
0.0
  0
LINE
  5
4165B
330
4112A
100
AcDbEntity
  8
2寸法線
 62
     0
440
 16777216
370
    -2
100
AcDbLine
 10
4357.355295654662
 20
-10091.46218165155
 30
0.0
 11
4358.755295654664
 21
-10091.46218165155
 31
0.0
  0
LINE
  5
4165C
330
4112A
100
AcDbEntity
  8
2寸法線
 62
     0
440
 16777216
370
    -2
100
AcDbLine
 10
4360.555295654664
 20
-10091.46218165155
 30
0.0
 11
4368.59339089276
 21
-10091.46218165155
 31
0.0
  0
INSERT
  5
4165D
330
4112A
100
AcDbEntity
  8
2寸法線
 62
     0
440
 16777216
370
    -2
100
AcDbBlockReference
  2
2
 10
4355.555295654663
 20
-10091.46218165155
 30
0.0
 41
1.8
 42
1.8
 43
1.8
 50
180.0
  0
INSERT
  5
4165E
330
4112A
100
AcDbEntity
  8
2寸法線
 62
     0
440
 16777216
370
    -2
100
AcDbBlockReference
  2
2
 10
4360.555295654664
 20
-10091.46218165155
 30
0.0
 41
1.8
 42
1.8
 43
1.8
  0
MTEXT
  5
4165F
330
4112A
100
AcDbEntity
  8
2寸法線
 62
     0
440
 16777216
100
AcDbMText
 10
4365.474343273712
 20
-10089.71218165155
 30
0.0
 40
2.5
 41
0.0
 46
0.0
 71
     5
 72
     1
  1
\A1;2.5
  7
KANJI
 73
     1
 44
1.0
  0
POINT
  5
41660
330
4112A
100
AcDbEntity
  8
DEFPOINTS
 62
     0
440
 16777216
100
AcDbPoint
 10
4360.555295654664
 20
-10069.11576845998
 30
0.0
  0
POINT
  5
41661
330
4112A
100
AcDbEntity
  8
DEFPOINTS
 62
     0
440
 16777216
100
AcDbPoint
 10
4355.555295654663
 20
-10070.11576845998
 30
0.0
  0
POINT
  5
41662
330
4112A
100
AcDbEntity
  8
DEFPOINTS
 62
     0
440
 16777216
100
AcDbPoint
 10
4355.555295654663
 20
-10091.46218165155
 30
0.0
  0
ENDBLK
  5
41136
330
4112A
100
AcDbEntity
  8
0
100
AcDbBlockEnd
  0
BLOCK
  5
41141
330
41137
100
AcDbEntity
  8
0
100
AcDbBlockBegin
  2
*D29
 70
     1
 10
0.0
 20
0.0
 30
0.0
  3
*D29
  1

  0
LINE
  5
41632
330
41137
100
AcDbEntity
  8
2寸法線
 62
     0
440
 16777216
370
    -2
100
AcDbLine
 10
4379.023637823178
 20
-10075.11576845998
 30
0.0
 11
4396.873783998295
 21
-10075.11576845998
 31
0.0
  0
LINE
  5
41633
330
41137
100
AcDbEntity
  8
2寸法線
 62
     0
440
 16777216
370
    -2
100
AcDbLine
 10
4389.555295654663
 20
-10031.11576845998
 30
0.0
 11
4396.873783998295
 21
-10031.11576845998
 31
0.0
  0
LINE
  5
41634
330
41137
100
AcDbEntity
  8
2寸法線
 62
     0
440
 16777216
370
    -2
100
AcDbLine
 10
4395.873783998296
 20
-10073.31576845998
 30
0.0
 11
4395.873783998296
 21
-10032.91576845998
 31
0.0
  0
INSERT
  5
41635
330
41137
100
AcDbEntity
  8
2寸法線
 62
     0
440
 16777216
370
    -2
100
AcDbBlockReference
  2
2
 10
4395.873783998296
 20
-10075.11576845998
 30
0.0
 41
1.8
 42
1.8
 43
1.8
 50
270.0
  0
INSERT
  5
41636
330
41137
100
AcDbEntity
  8
2寸法線
 62
     0
440
 16777216
370
    -2
100
AcDbBlockReference
  2
2
 10
4395.873783998296
 20
-10031.11576845998
 30
0.0
 41
1.8
 42
1.8
 43
1.8
 50
90.0
  0
MTEXT
  5
41637
330
41137
100
AcDbEntity
  8
2寸法線
 62
     0
440
 16777216
100
AcDbMText
 10
4394.123783998296
 20
-10053.11576845998
 30
0.0
 40
2.5
 41
0.0
 46
0.0
 71
     5
 72
     1
  1
\A1;（22）
  7
KANJI
 11
0.0000000000000001
 21
1.0
 31
0.0
 73
     1
 44
1.0
  0
POINT
  5
41638
330
41137
100
AcDbEntity
  8
DEFPOINTS
 62
     0
440
 16777216
100
AcDbPoint
 10
4378.023637823178
 20
-10075.11576845998
 30
0.0
  0
POINT
  5
41639
330
41137
100
AcDbEntity
  8
DEFPOINTS
 62
     0
440
 16777216
100
AcDbPoint
 10
4388.555295654663
 20
-10031.11576845998
 30
0.0
  0
POINT
  5
4163A
330
41137
100
AcDbEntity
  8
DEFPOINTS
 62
     0
440
 16777216
100
AcDbPoint
 10
4395.873783998296
 20
-10031.11576845998
 30
0.0
  0
ENDBLK
  5
41142
330
41137
100
AcDbEntity
  8
0
100
AcDbBlockEnd
  0
BLOCK
  5
411AF
330
411A8
100
AcDbEntity
  8
0
100
AcDbBlockBegin
  2
*D30
 70
     1
 10
0.0
 20
0.0
 30
0.0
  3
*D30
  1

  0
LINE
  5
4162C
330
411A8
100
AcDbEntity
  8
2寸法線
 62
     0
440
 16777216
370
    -2
100
AcDbLine
 10
4317.995862580764
 20
-10065.96941595096
 30
0.0
 11
4321.591100676001
 21
-10065.96941595096
 31
0.0
  0
LINE
  5
4162D
330
411A8
100
AcDbEntity
  8
2寸法線
 62
     0
440
 16777216
370
    -2
100
AcDbLine
 10
4321.591100676001
 20
-10065.96941595096
 30
0.0
 11
4328.737557676081
 21
-10069.19811258878
 31
0.0
  0
MTEXT
  5
4162E
330
411A8
100
AcDbEntity
  8
2寸法線
 62
     0
440
 16777216
100
AcDbMText
 10
4319.543481628381
 20
-10064.21941595096
 30
0.0
 40
2.5
 41
0.0
 46
0.0
 71
     5
 72
     1
  1
\A1;R1
  7
KANJI
 73
     1
 44
1.0
  0
INSERT
  5
4162F
330
411A8
100
AcDbEntity
  8
2寸法線
 62
     0
440
 16777216
370
    -2
100
AcDbBlockReference
  2
2
 10
4330.377915868824
 20
-10069.93920974807
 30
0.0
 41
1.8
 42
1.8
 43
1.8
 50
335.6870311093723
  0
POINT
  5
41630
330
411A8
100
AcDbEntity
  8
DEFPOINTS
 62
     0
440
 16777216
100
AcDbPoint
 10
4330.377915868824
 20
-10069.93920974807
 30
0.0
  0
POINT
  5
41631
330
411A8
100
AcDbEntity
  8
DEFPOINTS
 62
     0
440
 16777216
100
AcDbPoint
 10
4328.555295654671
 20
-10069.11576845997
 30
0.0
  0
ENDBLK
  5
411B0
330
411A8
100
AcDbEntity
  8
0
100
AcDbBlockEnd
  0
BLOCK
  5
411B9
330
411B2
100
AcDbEntity
  8
0
100
AcDbBlockBegin
  2
*D31
 70
     1
 10
0.0
 20
0.0
 30
0.0
  3
*D31
  1

  0
LINE
  5
41626
330
411B2
100
AcDbEntity
  8
2寸法線
 62
     0
440
 16777216
370
    -2
100
AcDbLine
 10
4348.800778195779
 20
-10065.02347013608
 30
0.0
 11
4340.562682957683
 21
-10065.02347013608
 31
0.0
  0
LINE
  5
41627
330
411B2
100
AcDbEntity
  8
2寸法線
 62
     0
440
 16777216
370
    -2
100
AcDbLine
 10
4340.562682957683
 20
-10065.02347013608
 30
0.0
 11
4337.05003332438
 21
-10069.48709156509
 31
0.0
  0
MTEXT
  5
41628
330
411B2
100
AcDbEntity
  8
2寸法線
 62
     0
440
 16777216
100
AcDbMText
 10
4344.931730576731
 20
-10063.27347013608
 30
0.0
 40
2.5
 41
0.0
 46
0.0
 71
     5
 72
     1
  1
\A1;R0.5
  7
KANJI
 73
     1
 44
1.0
  0
INSERT
  5
41629
330
411B2
100
AcDbEntity
  8
2寸法線
 62
     0
440
 16777216
370
    -2
100
AcDbBlockReference
  2
2
 10
4335.936873567516
 20
-10070.90161457859
 30
0.0
 41
1.8
 42
1.8
 43
1.8
 50
231.7990017430943
  0
POINT
  5
4162A
330
411B2
100
AcDbEntity
  8
DEFPOINTS
 62
     0
440
 16777216
100
AcDbPoint
 10
4335.936873567516
 20
-10070.90161457859
 30
0.0
  0
POINT
  5
4162B
330
411B2
100
AcDbEntity
  8
DEFPOINTS
 62
     0
440
 16777216
100
AcDbPoint
 10
4336.555295654661
 20
-10070.11576845998
 30
0.0
  0
ENDBLK
  5
411BA
330
411B2
100
AcDbEntity
  8
0
100
AcDbBlockEnd
  0
BLOCK
  5
411C3
330
411BC
100
AcDbEntity
  8
0
100
AcDbBlockBegin
  2
*D32
 70
     1
 10
0.0
 20
0.0
 30
0.0
  3
*D32
  1

  0
LINE
  5
41620
330
411BC
100
AcDbEntity
  8
2寸法線
 62
     0
440
 16777216
370
    -2
100
AcDbLine
 10
4343.277446003626
 20
-10055.63688525534
 30
0.0
 11
4339.682207908388
 21
-10055.63688525534
 31
0.0
  0
LINE
  5
41621
330
411BC
100
AcDbEntity
  8
2寸法線
 62
     0
440
 16777216
370
    -2
100
AcDbLine
 10
4339.682207908388
 20
-10055.63688525534
 30
0.0
 11
4336.079333441944
 21
-10059.69168502041
 31
0.0
  0
MTEXT
  5
41622
330
411BC
100
AcDbEntity
  8
2寸法線
 62
     0
440
 16777216
100
AcDbMText
 10
4341.729826956007
 20
-10053.88688525533
 30
0.0
 40
2.5
 41
0.0
 46
0.0
 71
     5
 72
     1
  1
\A1;R1
  7
KANJI
 73
     1
 44
1.0
  0
INSERT
  5
41623
330
411BC
100
AcDbEntity
  8
2寸法線
 62
     0
440
 16777216
370
    -2
100
AcDbBlockReference
  2
2
 10
4334.883736595335
 20
-10061.03725113932
 30
0.0
 41
1.8
 42
1.8
 43
1.8
 50
228.3774502364869
  0
POINT
  5
41624
330
411BC
100
AcDbEntity
  8
DEFPOINTS
 62
     0
440
 16777216
100
AcDbPoint
 10
4334.883736595335
 20
-10061.03725113932
 30
0.0
  0
POINT
  5
41625
330
411BC
100
AcDbEntity
  8
DEFPOINTS
 62
     0
440
 16777216
100
AcDbPoint
 10
4333.555295654654
 20
-10062.53232460479
 30
0.0
  0
ENDBLK
  5
411C4
330
411BC
100
AcDbEntity
  8
0
100
AcDbBlockEnd
  0
BLOCK
  5
411CD
330
411C6
100
AcDbEntity
  8
0
100
AcDbBlockBegin
  2
*D33
 70
     1
 10
0.0
 20
0.0
 30
0.0
  3
*D33
  1

  0
LINE
  5
4161A
330
411C6
100
AcDbEntity
  8
2寸法線
 62
     0
440
 16777216
370
    -2
100
AcDbLine
 10
4374.14605994182
 20
-10067.10793865661
 30
0.0
 11
4370.550821846582
 21
-10067.10793865661
 31
0.0
  0
LINE
  5
4161B
330
411C6
100
AcDbEntity
  8
2寸法線
 62
     0
440
 16777216
370
    -2
100
AcDbLine
 10
4370.550821846582
 20
-10067.10793865661
 30
0.0
 11
4362.358269782894
 21
-10065.67909338826
 31
0.0
  0
MTEXT
  5
4161C
330
411C6
100
AcDbEntity
  8
2寸法線
 62
     0
440
 16777216
100
AcDbMText
 10
4372.598440894201
 20
-10065.3579386566
 30
0.0
 40
2.5
 41
0.0
 46
0.0
 71
     5
 72
     1
  1
\A1;R1
  7
KANJI
 73
     1
 44
1.0
  0
INSERT
  5
4161D
330
411C6
100
AcDbEntity
  8
2寸法線
 62
     0
440
 16777216
370
    -2
100
AcDbBlockReference
  2
2
 10
4360.585036936978
 20
-10065.3698276867
 30
0.0
 41
1.8
 42
1.8
 43
1.8
 50
170.1066781705901
  0
POINT
  5
4161E
330
411C6
100
AcDbEntity
  8
DEFPOINTS
 62
     0
440
 16777216
100
AcDbPoint
 10
4360.585036936978
 20
-10065.3698276867
 30
0.0
  0
POINT
  5
4161F
330
411C6
100
AcDbEntity
  8
DEFPOINTS
 62
     0
440
 16777216
100
AcDbPoint
 10
4362.555295654657
 20
-10065.71345624399
 30
0.0
  0
ENDBLK
  5
411CE
330
411C6
100
AcDbEntity
  8
0
100
AcDbBlockEnd
  0
BLOCK
  5
411D7
330
411D0
100
AcDbEntity
  8
0
100
AcDbBlockBegin
  2
*D34
 70
     1
 10
0.0
 20
0.0
 30
0.0
  3
*D34
  1

  0
LINE
  5
41614
330
411D0
100
AcDbEntity
  8
2寸法線
 62
     0
440
 16777216
370
    -2
100
AcDbLine
 10
4369.288898938296
 20
-10070.29993432251
 30
0.0
 11
4365.693660843059
 21
-10070.29993432251
 31
0.0
  0
LINE
  5
41615
330
411D0
100
AcDbEntity
  8
2寸法線
 62
     0
440
 16777216
370
    -2
100
AcDbLine
 10
4365.693660843059
 20
-10070.29993432251
 30
0.0
 11
4362.395122158207
 21
-10067.83348105044
 31
0.0
  0
MTEXT
  5
41616
330
411D0
100
AcDbEntity
  8
2寸法線
 62
     0
440
 16777216
100
AcDbMText
 10
4367.741279890678
 20
-10068.54993432251
 30
0.0
 40
2.5
 41
0.0
 46
0.0
 71
     5
 72
     1
  1
\A1;R1
  7
KANJI
 73
     1
 44
1.0
  0
INSERT
  5
41617
330
411D0
100
AcDbEntity
  8
2寸法線
 62
     0
440
 16777216
370
    -2
100
AcDbBlockReference
  2
2
 10
4360.953560690125
 20
-10066.75556614947
 30
0.0
 41
1.8
 42
1.8
 43
1.8
 50
143.2130208373985
  0
POINT
  5
41618
330
411D0
100
AcDbEntity
  8
DEFPOINTS
 62
     0
440
 16777216
100
AcDbPoint
 10
4360.953560690125
 20
-10066.75556614947
 30
0.0
  0
POINT
  5
41619
330
411D0
100
AcDbEntity
  8
DEFPOINTS
 62
     0
440
 16777216
100
AcDbPoint
 10
4362.55529565467
 20
-10067.95324937278
 30
0.0
  0
ENDBLK
  5
411D8
330
411D0
100
AcDbEntity
  8
0
100
AcDbBlockEnd
  0
BLOCK
  5
411E0
330
411DA
100
AcDbEntity
  8
0
100
AcDbBlockBegin
  2
*D35
 70
     1
 10
0.0
 20
0.0
 30
0.0
  3
*D35
  1

  0
LINE
  5
4160F
330
411DA
100
AcDbEntity
  8
2寸法線
 62
     0
440
 16777216
370
    -2
100
AcDbLine
 10
4336.395996291233
 20
-10038.00965508852
 30
0.0
 11
4321.565614523406
 21
-10048.07323987992
 31
0.0
  0
MTEXT
  5
41610
330
411DA
100
AcDbEntity
  8
2寸法線
 62
     0
440
 16777216
100
AcDbMText
 10
4329.906726324701
 20
-10040.29826412252
 30
0.0
 40
2.5
 41
0.0
 46
0.0
 71
     5
 72
     1
  1
\A1;（R16）
  7
KANJI
 11
0.827472885140987
 21
0.5615056761569299
 31
0.0
 73
     1
 44
1.0
  0
INSERT
  5
41611
330
411DA
100
AcDbEntity
  8
2寸法線
 62
     0
440
 16777216
370
    -2
100
AcDbBlockReference
  2
2
 10
4320.076163330152
 20
-10049.08395009701
 30
0.0
 41
1.8
 42
1.8
 43
1.8
 50
214.1599893645997
  0
POINT
  5
41612
330
411DA
100
AcDbEntity
  8
DEFPOINTS
 62
     0
440
 16777216
100
AcDbPoint
 10
4320.076163330152
 20
-10049.08395009701
 30
0.0
  0
POINT
  5
41613
330
411DA
100
AcDbEntity
  8
DEFPOINTS
 62
     0
440
 16777216
100
AcDbPoint
 10
4346.555295654662
 20
-10031.11576845999
 30
0.0
  0
ENDBLK
  5
411E1
330
411DA
100
AcDbEntity
  8
0
100
AcDbBlockEnd
  0
BLOCK
  5
411EE
330
411E8
100
AcDbEntity
  8
0
100
AcDbBlockBegin
  2
*D36
 70
     1
 10
0.0
 20
0.0
 30
0.0
  3
*D36
  1

  0
LINE
  5
4160A
330
411E8
100
AcDbEntity
  8
2寸法線
 62
     0
440
 16777216
370
    -2
100
AcDbLine
 10
4354.012705010558
 20
-10036.99992823257
 30
0.0
 11
4370.197352956507
 21
-10047.06960490546
 31
0.0
  0
MTEXT
  5
4160B
330
411E8
100
AcDbEntity
  8
2寸法線
 62
     0
440
 16777216
100
AcDbMText
 10
4360.587572555974
 20
-10039.02957666747
 30
0.0
 40
2.5
 41
0.0
 46
0.0
 71
     5
 72
     1
  1
\A1;（R16）
  7
KANJI
 11
0.8490747450941478
 21
-0.5282727299826366
 31
0.0
 73
     1
 44
1.0
  0
INSERT
  5
4160C
330
411E8
100
AcDbEntity
  8
2寸法線
 62
     0
440
 16777216
370
    -2
100
AcDbBlockReference
  2
2
 10
4371.725687497675
 20
-10048.02049581943
 30
0.0
 41
1.8
 42
1.8
 43
1.8
 50
328.1111757281071
  0
POINT
  5
4160D
330
411E8
100
AcDbEntity
  8
DEFPOINTS
 62
     0
440
 16777216
100
AcDbPoint
 10
4371.725687497675
 20
-10048.02049581943
 30
0.0
  0
POINT
  5
4160E
330
411E8
100
AcDbEntity
  8
DEFPOINTS
 62
     0
440
 16777216
100
AcDbPoint
 10
4344.55529565467
 20
-10031.11576845999
 30
0.0
  0
ENDBLK
  5
411EF
330
411E8
100
AcDbEntity
  8
0
100
AcDbBlockEnd
  0
BLOCK
  5
41201
330
411F7
100
AcDbEntity
  8
0
100
AcDbBlockBegin
  2
*D37
 70
     1
 10
0.0
 20
0.0
 30
0.0
  3
*D37
  1

  0
LINE
  5
41601
330
411F7
100
AcDbEntity
  8
2寸法線
 62
     0
440
 16777216
370
    -2
100
AcDbLine
 10
4323.555295654663
 20
-10007.07233121638
 30
0.0
 11
4323.555295654663
 21
-9996.190355713714
 31
0.0
  0
LINE
  5
41602
330
411F7
100
AcDbEntity
  8
2寸法線
 62
     0
440
 16777216
370
    -2
100
AcDbLine
 10
4367.555295654663
 20
-10007.07233121638
 30
0.0
 11
4367.555295654663
 21
-9996.190355713714
 31
0.0
  0
LINE
  5
41603
330
411F7
100
AcDbEntity
  8
2寸法線
 62
     0
440
 16777216
370
    -2
100
AcDbLine
 10
4325.355295654663
 20
-9997.190355713714
 30
0.0
 11
4365.755295654663
 21
-9997.190355713714
 31
0.0
  0
INSERT
  5
41604
330
411F7
100
AcDbEntity
  8
2寸法線
 62
     0
440
 16777216
370
    -2
100
AcDbBlockReference
  2
2
 10
4323.555295654663
 20
-9997.190355713714
 30
0.0
 41
1.8
 42
1.8
 43
1.8
 50
180.0
  0
INSERT
  5
41605
330
411F7
100
AcDbEntity
  8
2寸法線
 62
     0
440
 16777216
370
    -2
100
AcDbBlockReference
  2
2
 10
4367.555295654663
 20
-9997.190355713714
 30
0.0
 41
1.8
 42
1.8
 43
1.8
  0
MTEXT
  5
41606
330
411F7
100
AcDbEntity
  8
2寸法線
 62
     0
440
 16777216
100
AcDbMText
 10
4345.555295654663
 20
-9995.440355713714
 30
0.0
 40
2.5
 41
0.0
 46
0.0
 71
     5
 72
     1
  1
\A1;22
  7
KANJI
 73
     1
 44
1.0
  0
POINT
  5
41607
330
411F7
100
AcDbEntity
  8
DEFPOINTS
 62
     0
440
 16777216
100
AcDbPoint
 10
4323.555295654663
 20
-10008.07233121637
 30
0.0
  0
POINT
  5
41608
330
411F7
100
AcDbEntity
  8
DEFPOINTS
 62
     0
440
 16777216
100
AcDbPoint
 10
4367.555295654663
 20
-10008.07233121637
 30
0.0
  0
POINT
  5
41609
330
411F7
100
AcDbEntity
  8
DEFPOINTS
 62
     0
440
 16777216
100
AcDbPoint
 10
4367.555295654663
 20
-9997.190355713714
 30
0.0
  0
ENDBLK
  5
41202
330
411F7
100
AcDbEntity
  8
0
100
AcDbBlockEnd
  0
BLOCK
  5
41210
330
41206
100
AcDbEntity
  8
0
100
AcDbBlockBegin
  2
*D38
 70
     1
 10
0.0
 20
0.0
 30
0.0
  3
*D38
  1

  0
LINE
  5
415F8
330
41206
100
AcDbEntity
  8
2寸法線
 62
     0
440
 16777216
370
    -2
100
AcDbLine
 10
4314.555295654663
 20
-10030.11576845998
 30
0.0
 11
4314.555295654663
 21
-9987.041810483686
 31
0.0
  0
LINE
  5
415F9
330
41206
100
AcDbEntity
  8
2寸法線
 62
     0
440
 16777216
370
    -2
100
AcDbLine
 10
4376.555295654664
 20
-10030.11576845998
 30
0.0
 11
4376.555295654664
 21
-9987.041810483686
 31
0.0
  0
LINE
  5
415FA
330
41206
100
AcDbEntity
  8
2寸法線
 62
     0
440
 16777216
370
    -2
100
AcDbLine
 10
4316.355295654664
 20
-9988.041810483686
 30
0.0
 11
4374.755295654663
 21
-9988.041810483686
 31
0.0
  0
INSERT
  5
415FB
330
41206
100
AcDbEntity
  8
2寸法線
 62
     0
440
 16777216
370
    -2
100
AcDbBlockReference
  2
2
 10
4314.555295654663
 20
-9988.041810483686
 30
0.0
 41
1.8
 42
1.8
 43
1.8
 50
180.0
  0
INSERT
  5
415FC
330
41206
100
AcDbEntity
  8
2寸法線
 62
     0
440
 16777216
370
    -2
100
AcDbBlockReference
  2
3
 10
4376.555295654664
 20
-9988.041810483686
 30
0.0
 41
1.8
 42
1.8
 43
1.8
  0
MTEXT
  5
415FD
330
41206
100
AcDbEntity
  8
2寸法線
 62
     0
440
 16777216
100
AcDbMText
 10
4345.555295654663
 20
-9986.291810483686
 30
0.0
 40
2.5
 41
0.0
 46
0.0
 71
     5
 72
     1
  1
\A1;31
  7
KANJI
 73
     1
 44
1.0
  0
POINT
  5
415FE
330
41206
100
AcDbEntity
  8
DEFPOINTS
 62
     0
440
 16777216
100
AcDbPoint
 10
4314.555295654663
 20
-10031.11576845998
 30
0.0
  0
POINT
  5
415FF
330
41206
100
AcDbEntity
  8
DEFPOINTS
 62
     0
440
 16777216
100
AcDbPoint
 10
4376.555295654664
 20
-10031.11576845998
 30
0.0
  0
POINT
  5
41600
330
41206
100
AcDbEntity
  8
DEFPOINTS
 62
     0
440
 16777216
100
AcDbPoint
 10
4376.555295654664
 20
-9988.041810483686
 30
0.0
  0
ENDBLK
  5
41211
330
41206
100
AcDbEntity
  8
0
100
AcDbBlockEnd
  0
BLOCK
  5
41220
330
41215
100
AcDbEntity
  8
0
100
AcDbBlockBegin
  2
*D39
 70
     1
 10
0.0
 20
0.0
 30
0.0
  3
*D39
  1

  0
LINE
  5
415EE
330
41215
100
AcDbEntity
  8
2寸法線
 62
     0
440
 16777216
370
    -2
100
AcDbLine
 10
4381.555295654663
 20
-10030.11576845998
 30
0.0
 11
4381.555295654663
 21
-9987.041810483686
 31
0.0
  0
LINE
  5
415EF
330
41215
100
AcDbEntity
  8
2寸法線
 62
     0
440
 16777216
370
    -2
100
AcDbLine
 10
4376.555295654664
 20
-10030.11576845998
 30
0.0
 11
4376.555295654664
 21
-9987.041810483686
 31
0.0
  0
LINE
  5
415F0
330
41215
100
AcDbEntity
  8
2寸法線
 62
     0
440
 16777216
370
    -2
100
AcDbLine
 10
4378.355295654663
 20
-9988.041810483686
 30
0.0
 11
4379.755295654663
 21
-9988.041810483686
 31
0.0
  0
LINE
  5
415F1
330
41215
100
AcDbEntity
  8
2寸法線
 62
     0
440
 16777216
370
    -2
100
AcDbLine
 10
4381.555295654663
 20
-9988.041810483686
 30
0.0
 11
4389.593390892758
 21
-9988.041810483686
 31
0.0
  0
INSERT
  5
415F2
330
41215
100
AcDbEntity
  8
2寸法線
 62
     0
440
 16777216
370
    -2
100
AcDbBlockReference
  2
3
 10
4376.555295654664
 20
-9988.041810483686
 30
0.0
 41
1.8
 42
1.8
 43
1.8
 50
180.0
  0
INSERT
  5
415F3
330
41215
100
AcDbEntity
  8
2寸法線
 62
     0
440
 16777216
370
    -2
100
AcDbBlockReference
  2
2
 10
4381.555295654663
 20
-9988.041810483686
 30
0.0
 41
1.8
 42
1.8
 43
1.8
  0
MTEXT
  5
415F4
330
41215
100
AcDbEntity
  8
2寸法線
 62
     0
440
 16777216
100
AcDbMText
 10
4386.474343273711
 20
-9986.291810483686
 30
0.0
 40
2.5
 41
0.0
 46
0.0
 71
     5
 72
     1
  1
\A1;2.5
  7
KANJI
 73
     1
 44
1.0
  0
POINT
  5
415F5
330
41215
100
AcDbEntity
  8
DEFPOINTS
 62
     0
440
 16777216
100
AcDbPoint
 10
4381.555295654663
 20
-10031.11576845998
 30
0.0
  0
POINT
  5
415F6
330
41215
100
AcDbEntity
  8
DEFPOINTS
 62
     0
440
 16777216
100
AcDbPoint
 10
4376.555295654664
 20
-10031.11576845998
 30
0.0
  0
POINT
  5
415F7
330
41215
100
AcDbEntity
  8
DEFPOINTS
 62
     0
440
 16777216
100
AcDbPoint
 10
4376.555295654664
 20
-9988.041810483686
 30
0.0
  0
ENDBLK
  5
41221
330
41215
100
AcDbEntity
  8
0
100
AcDbBlockEnd
  0
BLOCK
  5
41256
330
4124A
100
AcDbEntity
  8
0
100
AcDbBlockBegin
  2
*D40
 70
     1
 10
0.0
 20
0.0
 30
0.0
  3
*D40
  1

  0
LINE
  5
415E3
330
4124A
100
AcDbEntity
  8
2寸法線
 62
     0
440
 16777216
370
    -2
100
AcDbLine
 10
4383.555295654663
 20
-10030.11576845998
 30
0.0
 11
4383.555295654663
 21
-9994.92474803808
 31
0.0
  0
LINE
  5
415E4
330
4124A
100
AcDbEntity
  8
2寸法線
 62
     0
440
 16777216
370
    -2
100
AcDbLine
 10
4381.555295654663
 20
-10030.11576845998
 30
0.0
 11
4381.555295654663
 21
-9994.92474803808
 31
0.0
  0
LINE
  5
415E5
330
4124A
100
AcDbEntity
  8
2寸法線
 62
     0
440
 16777216
370
    -2
100
AcDbLine
 10
4379.755295654663
 20
-9995.924748038078
 30
0.0
 11
4377.955295654663
 21
-9995.924748038078
 31
0.0
  0
LINE
  5
415E6
330
4124A
100
AcDbEntity
  8
2寸法線
 62
     0
440
 16777216
370
    -2
100
AcDbLine
 10
4385.355295654663
 20
-9995.924748038078
 30
0.0
 11
4388.750533749901
 21
-9995.924748038078
 31
0.0
  0
LINE
  5
415E7
330
4124A
100
AcDbEntity
  8
2寸法線
 62
     0
440
 16777216
370
    -2
100
AcDbLine
 10
4381.555295654663
 20
-9995.924748038078
 30
0.0
 11
4383.555295654663
 21
-9995.924748038078
 31
0.0
  0
INSERT
  5
415E8
330
4124A
100
AcDbEntity
  8
2寸法線
 62
     0
440
 16777216
370
    -2
100
AcDbBlockReference
  2
2
 10
4381.555295654663
 20
-9995.924748038078
 30
0.0
 41
1.8
 42
1.8
 43
1.8
  0
INSERT
  5
415E9
330
4124A
100
AcDbEntity
  8
2寸法線
 62
     0
440
 16777216
370
    -2
100
AcDbBlockReference
  2
2
 10
4383.555295654663
 20
-9995.924748038078
 30
0.0
 41
1.8
 42
1.8
 43
1.8
 50
180.0
  0
MTEXT
  5
415EA
330
4124A
100
AcDbEntity
  8
2寸法線
 62
     0
440
 16777216
100
AcDbMText
 10
4387.952914702282
 20
-9994.174748038078
 30
0.0
 40
2.5
 41
0.0
 46
0.0
 71
     5
 72
     1
  1
\A1;1
  7
KANJI
 73
     1
 44
1.0
  0
POINT
  5
415EB
330
4124A
100
AcDbEntity
  8
DEFPOINTS
 62
     0
440
 16777216
100
AcDbPoint
 10
4383.555295654663
 20
-10031.11576845998
 30
0.0
  0
POINT
  5
415EC
330
4124A
100
AcDbEntity
  8
DEFPOINTS
 62
     0
440
 16777216
100
AcDbPoint
 10
4381.555295654663
 20
-10031.11576845998
 30
0.0
  0
POINT
  5
415ED
330
4124A
100
AcDbEntity
  8
DEFPOINTS
 62
     0
440
 16777216
100
AcDbPoint
 10
4381.555295654663
 20
-9995.924748038078
 30
0.0
  0
ENDBLK
  5
41257
330
4124A
100
AcDbEntity
  8
0
100
AcDbBlockEnd
  0
BLOCK
  5
4126B
330
41264
100
AcDbEntity
  8
0
100
AcDbBlockBegin
  2
*D41
 70
     1
 10
0.0
 20
0.0
 30
0.0
  3
*D41
  1

  0
LINE
  5
415DD
330
41264
100
AcDbEntity
  8
2寸法線
 62
     0
440
 16777216
370
    -2
100
AcDbLine
 10
4334.535424015295
 20
-10003.73471707781
 30
0.0
 11
4330.940185920053
 21
-10003.73471707781
 31
0.0
  0
LINE
  5
415DE
330
41264
100
AcDbEntity
  8
2寸法線
 62
     0
440
 16777216
370
    -2
100
AcDbLine
 10
4330.940185920053
 20
-10003.73471707781
 30
0.0
 11
4325.004684067441
 21
-10006.47805408307
 31
0.0
  0
MTEXT
  5
415DF
330
41264
100
AcDbEntity
  8
2寸法線
 62
     0
440
 16777216
100
AcDbMText
 10
4332.987804967677
 20
-10001.98471707781
 30
0.0
 40
2.5
 41
0.0
 46
0.0
 71
     5
 72
     1
  1
\A1;R1
  7
KANJI
 73
     1
 44
1.0
  0
INSERT
  5
415E0
330
41264
100
AcDbEntity
  8
2寸法線
 62
     0
440
 16777216
370
    -2
100
AcDbBlockReference
  2
2
 10
4323.370763240335
 20
-10007.23323798832
 30
0.0
 41
1.8
 42
1.8
 43
1.8
 50
204.8059666504967
  0
POINT
  5
415E1
330
41264
100
AcDbEntity
  8
DEFPOINTS
 62
     0
440
 16777216
100
AcDbPoint
 10
4323.370763240335
 20
-10007.23323798832
 30
0.0
  0
POINT
  5
415E2
330
41264
100
AcDbEntity
  8
DEFPOINTS
 62
     0
440
 16777216
100
AcDbPoint
 10
4321.555295654667
 20
-10008.07233121637
 30
0.0
  0
ENDBLK
  5
4126C
330
41264
100
AcDbEntity
  8
0
100
AcDbBlockEnd
  0
BLOCK
  5
41275
330
4126E
100
AcDbEntity
  8
0
100
AcDbBlockBegin
  2
*D42
 70
     1
 10
0.0
 20
0.0
 30
0.0
  3
*D42
  1

  0
LINE
  5
415D7
330
4126E
100
AcDbEntity
  8
2寸法線
 62
     0
440
 16777216
370
    -2
100
AcDbLine
 10
4329.681947144803
 20
-10019.21493336846
 30
0.0
 11
4326.086709049564
 21
-10019.21493336846
 31
0.0
  0
LINE
  5
415D8
330
4126E
100
AcDbEntity
  8
2寸法線
 62
     0
440
 16777216
370
    -2
100
AcDbLine
 10
4326.086709049564
 20
-10019.21493336846
 30
0.0
 11
4320.779337970234
 21
-10007.16826651429
 31
0.0
  0
MTEXT
  5
415D9
330
4126E
100
AcDbEntity
  8
2寸法線
 62
     0
440
 16777216
100
AcDbMText
 10
4328.134328097184
 20
-10017.46493336846
 30
0.0
 40
2.5
 41
0.0
 46
0.0
 71
     5
 72
     1
  1
\A1;R1
  7
KANJI
 73
     1
 44
1.0
  0
INSERT
  5
415DA
330
4126E
100
AcDbEntity
  8
2寸法線
 62
     0
440
 16777216
370
    -2
100
AcDbBlockReference
  2
2
 10
4320.053625235525
 20
-10005.52104429896
 30
0.0
 41
1.8
 42
1.8
 43
1.8
 50
113.7767349099617
  0
POINT
  5
415DB
330
4126E
100
AcDbEntity
  8
DEFPOINTS
 62
     0
440
 16777216
100
AcDbPoint
 10
4320.053625235525
 20
-10005.52104429896
 30
0.0
  0
POINT
  5
415DC
330
4126E
100
AcDbEntity
  8
DEFPOINTS
 62
     0
440
 16777216
100
AcDbPoint
 10
4320.859972718533
 20
-10007.35129120488
 30
0.0
  0
ENDBLK
  5
41276
330
4126E
100
AcDbEntity
  8
0
100
AcDbBlockEnd
  0
BLOCK
  5
4127F
330
41278
100
AcDbEntity
  8
0
100
AcDbBlockBegin
  2
*D43
 70
     1
 10
0.0
 20
0.0
 30
0.0
  3
*D43
  1

  0
LINE
  5
415D1
330
41278
100
AcDbEntity
  8
2寸法線
 62
     0
440
 16777216
370
    -2
100
AcDbLine
 10
4326.137500053159
 20
-9993.578742876245
 30
0.0
 11
4322.542261957909
 21
-9993.578742876245
 31
0.0
  0
LINE
  5
415D2
330
41278
100
AcDbEntity
  8
2寸法線
 62
     0
440
 16777216
370
    -2
100
AcDbLine
 10
4322.542261957909
 20
-9993.578742876245
 30
0.0
 11
4320.388359793923
 21
-10002.22216980478
 31
0.0
  0
MTEXT
  5
415D3
330
41278
100
AcDbEntity
  8
2寸法線
 62
     0
440
 16777216
100
AcDbMText
 10
4324.58988100554
 20
-9991.828742876245
 30
0.0
 40
2.5
 41
0.0
 46
0.0
 71
     5
 72
     1
  1
\A1;R1
  7
KANJI
 73
     1
 44
1.0
  0
INSERT
  5
415D4
330
41278
100
AcDbEntity
  8
2寸法線
 62
     0
440
 16777216
370
    -2
100
AcDbBlockReference
  2
2
 10
4319.953118445506
 20
-10003.968756467
 30
0.0
 41
1.8
 42
1.8
 43
1.8
 50
256.0071535653658
  0
POINT
  5
415D5
330
41278
100
AcDbEntity
  8
DEFPOINTS
 62
     0
440
 16777216
100
AcDbPoint
 10
4319.953118445506
 20
-10003.968756467
 30
0.0
  0
POINT
  5
415D6
330
41278
100
AcDbEntity
  8
DEFPOINTS
 62
     0
440
 16777216
100
AcDbPoint
 10
4319.469516947264
 20
-10005.9094083139
 30
0.0
  0
ENDBLK
  5
41280
330
41278
100
AcDbEntity
  8
0
100
AcDbBlockEnd
  0
BLOCK
  5
41529
330
4151F
100
AcDbEntity
  8
0
100
AcDbBlockBegin
  2
*D44
 70
     1
 10
0.0
 20
0.0
 30
0.0
  3
*D44
  1

  0
LINE
  5
41596
330
4151F
100
AcDbEntity
  8
2寸法線
 62
     0
440
 16777216
370
    -2
100
AcDbLine
 10
4225.947163081386
 20
-9916.957264444336
 30
0.0
 11
4242.01305267978
 21
-9916.957264444336
 31
0.0
  0
LINE
  5
41597
330
4151F
100
AcDbEntity
  8
2寸法線
 62
     0
440
 16777216
370
    -2
100
AcDbLine
 10
4225.947163081386
 20
-9910.957264444341
 30
0.0
 11
4242.01305267978
 21
-9910.957264444341
 31
0.0
  0
LINE
  5
41598
330
4151F
100
AcDbEntity
  8
2寸法線
 62
     0
440
 16777216
370
    -2
100
AcDbLine
 10
4241.01305267978
 20
-9915.157264444339
 30
0.0
 11
4241.01305267978
 21
-9912.757264444339
 31
0.0
  0
INSERT
  5
41599
330
4151F
100
AcDbEntity
  8
2寸法線
 62
     0
440
 16777216
370
    -2
100
AcDbBlockReference
  2
2
 10
4241.01305267978
 20
-9916.957264444336
 30
0.0
 41
1.8
 42
1.8
 43
1.8
 50
270.0
  0
INSERT
  5
4159A
330
4151F
100
AcDbEntity
  8
2寸法線
 62
     0
440
 16777216
370
    -2
100
AcDbBlockReference
  2
2
 10
4241.01305267978
 20
-9910.957264444341
 30
0.0
 41
1.8
 42
1.8
 43
1.8
 50
90.0
  0
MTEXT
  5
4159B
330
4151F
100
AcDbEntity
  8
2寸法線
 62
     0
440
 16777216
100
AcDbMText
 10
4239.26305267978
 20
-9913.957264444336
 30
0.0
 40
2.5
 41
0.0
 46
0.0
 71
     5
 72
     1
  1
\A1;6
  7
KANJI
 11
0.0000000000000001
 21
1.0
 31
0.0
 73
     1
 44
1.0
  0
POINT
  5
4159C
330
4151F
100
AcDbEntity
  8
DEFPOINTS
 62
     0
440
 16777216
100
AcDbPoint
 10
4224.947163081385
 20
-9916.957264444336
 30
0.0
  0
POINT
  5
4159D
330
4151F
100
AcDbEntity
  8
DEFPOINTS
 62
     0
440
 16777216
100
AcDbPoint
 10
4224.947163081385
 20
-9910.957264444341
 30
0.0
  0
POINT
  5
4159E
330
4151F
100
AcDbEntity
  8
DEFPOINTS
 62
     0
440
 16777216
100
AcDbPoint
 10
4241.01305267978
 20
-9910.957264444341
 30
0.0
  0
ENDBLK
  5
4152A
330
4151F
100
AcDbEntity
  8
0
100
AcDbBlockEnd
  0
BLOCK
  5
41533
330
4152C
100
AcDbEntity
  8
0
100
AcDbBlockBegin
  2
*D45
 70
     1
 10
0.0
 20
0.0
 30
0.0
  3
*D45
  1

  0
LINE
  5
41590
330
4152C
100
AcDbEntity
  8
2寸法線
 62
     0
440
 16777216
370
    -2
100
AcDbLine
 10
4241.526436680251
 20
-9903.535810454338
 30
0.0
 11
4232.455008108822
 21
-9903.535810454338
 31
0.0
  0
LINE
  5
41591
330
4152C
100
AcDbEntity
  8
2寸法線
 62
     0
440
 16777216
370
    -2
100
AcDbLine
 10
4232.455008108822
 20
-9903.535810454338
 30
0.0
 11
4226.810444849992
 21
-9909.867245054295
 31
0.0
  0
MTEXT
  5
41592
330
4152C
100
AcDbEntity
  8
2寸法線
 62
     0
440
 16777216
100
AcDbMText
 10
4237.240722394537
 20
-9901.785810454338
 30
0.0
 40
2.5
 41
0.0
 46
0.0
 71
     5
 72
     1
  1
\A1;2-R1
  7
KANJI
 73
     1
 44
1.0
  0
INSERT
  5
41593
330
4152C
100
AcDbEntity
  8
2寸法線
 62
     0
440
 16777216
370
    -2
100
AcDbBlockReference
  2
2
 10
4225.612620855883
 20
-9911.210828947893
 30
0.0
 41
1.8
 42
1.8
 43
1.8
 50
228.282545807741
  0
POINT
  5
41594
330
4152C
100
AcDbEntity
  8
DEFPOINTS
 62
     0
440
 16777216
100
AcDbPoint
 10
4225.612620855883
 20
-9911.210828947893
 30
0.0
  0
POINT
  5
41595
330
4152C
100
AcDbEntity
  8
DEFPOINTS
 62
     0
440
 16777216
100
AcDbPoint
 10
4224.947163081378
 20
-9911.957264444337
 30
0.0
  0
ENDBLK
  5
41534
330
4152C
100
AcDbEntity
  8
0
100
AcDbBlockEnd
  0
BLOCK
  5
41557
330
4154D
100
AcDbEntity
  8
0
100
AcDbBlockBegin
  2
*D46
 70
     1
 10
0.0
 20
0.0
 30
0.0
  3
*D46
  1

  0
LINE
  5
41578
330
4154D
100
AcDbEntity
  8
2寸法線
 62
     0
440
 16777216
370
    -2
100
AcDbLine
 10
4185.647163081385
 20
-9990.956837223073
 30
0.0
 11
4171.734092894836
 21
-9990.956837223073
 31
0.0
  0
LINE
  5
41579
330
4154D
100
AcDbEntity
  8
2寸法線
 62
     0
440
 16777216
370
    -2
100
AcDbLine
 10
4192.904273727687
 20
-9954.953657150035
 30
0.0
 11
4171.734092894836
 21
-9954.953657150035
 31
0.0
  0
LINE
  5
4157A
330
4154D
100
AcDbEntity
  8
2寸法線
 62
     0
440
 16777216
370
    -2
100
AcDbLine
 10
4172.734092894835
 20
-9989.156837223072
 30
0.0
 11
4172.734092894835
 21
-9956.753657150036
 31
0.0
  0
INSERT
  5
4157B
330
4154D
100
AcDbEntity
  8
2寸法線
 62
     0
440
 16777216
370
    -2
100
AcDbBlockReference
  2
2
 10
4172.734092894835
 20
-9990.956837223073
 30
0.0
 41
1.8
 42
1.8
 43
1.8
 50
270.0
  0
INSERT
  5
4157C
330
4154D
100
AcDbEntity
  8
2寸法線
 62
     0
440
 16777216
370
    -2
100
AcDbBlockReference
  2
2
 10
4172.734092894835
 20
-9954.953657150035
 30
0.0
 41
1.8
 42
1.8
 43
1.8
 50
90.0
  0
MTEXT
  5
4157D
330
4154D
100
AcDbEntity
  8
2寸法線
 62
     0
440
 16777216
100
AcDbMText
 10
4170.984092894837
 20
-9972.955247186552
 30
0.0
 40
2.5
 41
0.0
 46
0.0
 71
     5
 72
     1
  1
\A1;（36）
  7
KANJI
 11
0.0000000000000001
 21
1.0
 31
0.0
 73
     1
 44
1.0
  0
POINT
  5
4157E
330
4154D
100
AcDbEntity
  8
DEFPOINTS
 62
     0
440
 16777216
100
AcDbPoint
 10
4186.647163081384
 20
-9990.956837223073
 30
0.0
  0
POINT
  5
4157F
330
4154D
100
AcDbEntity
  8
DEFPOINTS
 62
     0
440
 16777216
100
AcDbPoint
 10
4193.904273727687
 20
-9954.953657150035
 30
0.0
  0
POINT
  5
41580
330
4154D
100
AcDbEntity
  8
DEFPOINTS
 62
     0
440
 16777216
100
AcDbPoint
 10
4172.734092894835
 20
-9954.953657150035
 30
0.0
  0
ENDBLK
  5
41558
330
4154D
100
AcDbEntity
  8
0
100
AcDbBlockEnd
  0
BLOCK
  5
41563
330
41559
100
AcDbEntity
  8
0
100
AcDbBlockBegin
  2
*D47
 70
     1
 10
0.0
 20
0.0
 30
0.0
  3
*D47
  1

  0
LINE
  5
4156E
330
41559
100
AcDbEntity
  8
2寸法線
 62
     0
440
 16777216
370
    -2
100
AcDbLine
 10
4186.647163081384
 20
-9991.956837223071
 30
0.0
 11
4186.647163081384
 21
-10011.59271255681
 31
0.0
  0
LINE
  5
4156F
330
41559
100
AcDbEntity
  8
2寸法線
 62
     0
440
 16777216
370
    -2
100
AcDbLine
 10
4227.247163081386
 20
-9991.956837223071
 30
0.0
 11
4227.247163081386
 21
-10011.59271255681
 31
0.0
  0
LINE
  5
41570
330
41559
100
AcDbEntity
  8
2寸法線
 62
     0
440
 16777216
370
    -2
100
AcDbLine
 10
4188.447163081384
 20
-10010.59271255681
 30
0.0
 11
4225.447163081386
 21
-10010.59271255681
 31
0.0
  0
INSERT
  5
41571
330
41559
100
AcDbEntity
  8
2寸法線
 62
     0
440
 16777216
370
    -2
100
AcDbBlockReference
  2
2
 10
4186.647163081384
 20
-10010.59271255681
 30
0.0
 41
1.8
 42
1.8
 43
1.8
 50
180.0
  0
INSERT
  5
41572
330
41559
100
AcDbEntity
  8
2寸法線
 62
     0
440
 16777216
370
    -2
100
AcDbBlockReference
  2
2
 10
4227.247163081386
 20
-10010.59271255681
 30
0.0
 41
1.8
 42
1.8
 43
1.8
  0
MTEXT
  5
41573
330
41559
100
AcDbEntity
  8
2寸法線
 62
     0
440
 16777216
100
AcDbMText
 10
4206.725840931158
 20
-10008.84271255681
 30
0.0
 40
2.5
 41
0.0
 46
0.0
 71
     5
 72
     1
  1
\A1;40.8
  7
KANJI
 73
     1
 44
1.0
  0
POINT
  5
41574
330
41559
100
AcDbEntity
  8
DEFPOINTS
 62
     0
440
 16777216
100
AcDbPoint
 10
4186.647163081384
 20
-9990.956837223073
 30
0.0
  0
POINT
  5
41575
330
41559
100
AcDbEntity
  8
DEFPOINTS
 62
     0
440
 16777216
100
AcDbPoint
 10
4227.247163081386
 20
-9990.95683722307
 30
0.0
  0
POINT
  5
41576
330
41559
100
AcDbEntity
  8
DEFPOINTS
 62
     0
440
 16777216
100
AcDbPoint
 10
4227.247163081386
 20
-10010.59271255681
 30
0.0
  0
ENDBLK
  5
41564
330
41559
100
AcDbEntity
  8
0
100
AcDbBlockEnd
  0
BLOCK
  5
415AE
330
415A2
100
AcDbEntity
  8
0
100
AcDbBlockBegin
  2
*D48
 70
     1
 10
0.0
 20
0.0
 30
0.0
  3
*D48
  1

  0
LINE
  5
415C6
330
415A2
100
AcDbEntity
  8
2寸法線
 62
     0
440
 16777216
370
    -2
100
AcDbLine
 10
4270.517816939535
 20
-9990.956837223073
 30
0.0
 11
4254.843587551934
 21
-10000.00635777934
 31
0.0
  0
LINE
  5
415C7
330
415A2
100
AcDbEntity
  8
2寸法線
 62
     0
440
 16777216
370
    -2
100
AcDbLine
 10
4270.517816939535
 20
-9988.556837223072
 30
0.0
 11
4254.843587551934
 21
-9997.606357779343
 31
0.0
  0
LINE
  5
415C8
330
415A2
100
AcDbEntity
  8
2寸法線
 62
     0
440
 16777216
370
    -2
100
AcDbLine
 10
4255.843587551934
 20
-9995.229007510154
 30
0.0
 11
4255.843587551934
 21
-9993.429007510153
 31
0.0
  0
LINE
  5
415C9
330
415A2
100
AcDbEntity
  8
2寸法線
 62
     0
440
 16777216
370
    -2
100
AcDbLine
 10
4255.843587551934
 20
-10001.22900751015
 30
0.0
 11
4255.843587551934
 21
-10014.33853131967
 31
0.0
  0
LINE
  5
415CA
330
415A2
100
AcDbEntity
  8
2寸法線
 62
     0
440
 16777216
370
    -2
100
AcDbLine
 10
4255.843587551934
 20
-9997.029007510153
 30
0.0
 11
4255.843587551934
 21
-9999.429007510153
 31
0.0
  0
INSERT
  5
415CB
330
415A2
100
AcDbEntity
  8
2寸法線
 62
     0
440
 16777216
370
    -2
100
AcDbBlockReference
  2
2
 10
4255.843587551934
 20
-9997.029007510153
 30
0.0
 41
1.8
 42
1.8
 43
1.8
 50
270.0
  0
INSERT
  5
415CC
330
415A2
100
AcDbEntity
  8
2寸法線
 62
     0
440
 16777216
370
    -2
100
AcDbBlockReference
  2
2
 10
4255.843587551934
 20
-9999.429007510153
 30
0.0
 41
1.8
 42
1.8
 43
1.8
 50
90.0
  0
MTEXT
  5
415CD
330
415A2
100
AcDbEntity
  8
2寸法線
 62
     0
440
 16777216
100
AcDbMText
 10
4254.093587551935
 20
-10008.68376941491
 30
0.0
 40
2.5
 41
0.0
 46
0.0
 71
     5
 72
     1
  1
\A1;（2.4）
  7
KANJI
 11
0.0000000000000001
 21
1.0
 31
0.0
 73
     1
 44
1.0
  0
POINT
  5
415CE
330
415A2
100
AcDbEntity
  8
DEFPOINTS
 62
     0
440
 16777216
100
AcDbPoint
 10
4270.517816939535
 20
-9990.956837223073
 30
0.0
  0
POINT
  5
415CF
330
415A2
100
AcDbEntity
  8
DEFPOINTS
 62
     0
440
 16777216
100
AcDbPoint
 10
4270.517816939535
 20
-9988.556837223072
 30
0.0
  0
POINT
  5
415D0
330
415A2
100
AcDbEntity
  8
DEFPOINTS
 62
     0
440
 16777216
100
AcDbPoint
 10
4255.843587551934
 20
-9997.029007510153
 30
0.0
  0
ENDBLK
  5
415AF
330
415A2
100
AcDbEntity
  8
0
100
AcDbBlockEnd
  0
BLOCK
  5
41687
330
41680
100
AcDbEntity
  8
0
100
AcDbBlockBegin
  2
*D49
 70
     1
 10
0.0
 20
0.0
 30
0.0
  3
*D49
  1

  0
LINE
  5
4168F
330
41680
100
AcDbEntity
  8
2寸法線
 62
     0
440
 16777216
370
    -2
100
AcDbLine
 10
4225.383842040075
 20
-10023.69378500356
 30
0.0
 11
4217.383842040076
 21
-10023.69378500356
 31
0.0
  0
LINE
  5
41690
330
41680
100
AcDbEntity
  8
2寸法線
 62
     0
440
 16777216
370
    -2
100
AcDbLine
 10
4217.383842040076
 20
-10023.69378500356
 30
0.0
 11
4208.874402816945
 21
-10038.91762144361
 31
0.0
  0
MTEXT
  5
41691
330
41680
100
AcDbEntity
  8
2寸法線
 62
     0
440
 16777216
100
AcDbMText
 10
4221.633842040076
 20
-10021.94378500355
 30
0.0
 40
2.5
 41
0.0
 46
0.0
 71
     5
 72
     1
  1
\A1;%%c4.3
  7
KANJI
 73
     1
 44
1.0
  0
INSERT
  5
41692
330
41680
100
AcDbEntity
  8
2寸法線
 62
     0
440
 16777216
370
    -2
100
AcDbBlockReference
  2
2
 10
4207.996166988083
 20
-10040.48883175064
 30
0.0
 41
1.8
 42
1.8
 43
1.8
 50
240.7967749083537
  0
POINT
  5
41693
330
41680
100
AcDbEntity
  8
DEFPOINTS
 62
     0
440
 16777216
100
AcDbPoint
 10
4207.996166988083
 20
-10040.48883175064
 30
0.0
  0
POINT
  5
41694
330
41680
100
AcDbEntity
  8
DEFPOINTS
 62
     0
440
 16777216
100
AcDbPoint
 10
4206.947163081391
 20
-10042.36555517291
 30
0.0
  0
ENDBLK
  5
41688
330
41680
100
AcDbEntity
  8
0
100
AcDbBlockEnd
  0
BLOCK
  5
5C4C0
330
5C4BE
100
AcDbEntity
  8
0
 48
3.0
100
AcDbBlockBegin
  2
GENAXEH
 70
     0
 10
0.0
 20
0.0
 30
0.0
  3
GENAXEH
  1

  0
LINE
  5
5C4BF
330
5C4BE
100
AcDbEntity
  8
0
100
AcDbLine
 10
-1.0
 20
0.0
 30
0.0
 11
1.0
 21
0.0
 31
0.0
  0
ENDBLK
  5
5C4C1
330
5C4BE
100
AcDbEntity
  8
0
 48
3.0
100
AcDbBlockEnd
  0
BLOCK
  5
6556F
330
65565
100
AcDbEntity
  8
0
100
AcDbBlockBegin
  2
*D51
 70
     1
 10
0.0
 20
0.0
 30
0.0
  3
*D51
  1

  0
LINE
  5
65571
330
65565
100
AcDbEntity
  8
2寸法線
 62
     0
440
 16777216
370
    -2
100
AcDbLine
 10
4196.947163081386
 20
-10050.86555517292
 30
0.0
 11
4196.947163081386
 21
-10066.26840724302
 31
0.0
  0
LINE
  5
65572
330
65565
100
AcDbEntity
  8
2寸法線
 62
     0
440
 16777216
370
    -2
100
AcDbLine
 10
4206.947163081386
 20
-10060.86555517291
 30
0.0
 11
4206.947163081386
 21
-10066.26840724302
 31
0.0
  0
LINE
  5
65573
330
65565
100
AcDbEntity
  8
2寸法線
 62
     0
440
 16777216
370
    -2
100
AcDbLine
 10
4198.747163081386
 20
-10065.26840724302
 30
0.0
 11
4205.147163081385
 21
-10065.26840724302
 31
0.0
  0
INSERT
  5
65574
330
65565
100
AcDbEntity
  8
2寸法線
 62
     0
440
 16777216
370
    -2
100
AcDbBlockReference
  2
2
 10
4196.947163081386
 20
-10065.26840724302
 30
0.0
 41
1.8
 42
1.8
 43
1.8
 50
180.0
  0
INSERT
  5
65575
330
65565
100
AcDbEntity
  8
2寸法線
 62
     0
440
 16777216
370
    -2
100
AcDbBlockReference
  2
2
 10
4206.947163081386
 20
-10065.26840724302
 30
0.0
 41
1.8
 42
1.8
 43
1.8
  0
MTEXT
  5
65576
330
65565
100
AcDbEntity
  8
2寸法線
 62
     0
440
 16777216
100
AcDbMText
 10
4201.947163081386
 20
-10063.51840724302
 30
0.0
 40
2.5
 41
0.0
 46
0.0
 71
     5
 72
     1
  1
\A1;（10）
  7
KANJI
 73
     1
 44
1.0
  0
POINT
  5
65577
330
65565
100
AcDbEntity
  8
DEFPOINTS
 62
     0
440
 16777216
100
AcDbPoint
 10
4196.947163081386
 20
-10049.86555517292
 30
0.0
  0
POINT
  5
65578
330
65565
100
AcDbEntity
  8
DEFPOINTS
 62
     0
440
 16777216
100
AcDbPoint
 10
4206.947163081386
 20
-10059.86555517291
 30
0.0
  0
POINT
  5
65579
330
65565
100
AcDbEntity
  8
DEFPOINTS
 62
     0
440
 16777216
100
AcDbPoint
 10
4206.947163081386
 20
-10065.26840724302
 30
0.0
  0
ENDBLK
  5
65570
330
65565
100
AcDbEntity
  8
0
100
AcDbBlockEnd
  0
BLOCK
  5
65585
330
6557B
100
AcDbEntity
  8
0
100
AcDbBlockBegin
  2
*D52
 70
     1
 10
0.0
 20
0.0
 30
0.0
  3
*D52
  1

  0
LINE
  5
65587
330
6557B
100
AcDbEntity
  8
2寸法線
 62
     0
440
 16777216
370
    -2
100
AcDbLine
 10
4216.947163081385
 20
-10050.86555517292
 30
0.0
 11
4216.947163081385
 21
-10066.26840724302
 31
0.0
  0
LINE
  5
65588
330
6557B
100
AcDbEntity
  8
2寸法線
 62
     0
440
 16777216
370
    -2
100
AcDbLine
 10
4206.947163081386
 20
-10060.86555517291
 30
0.0
 11
4206.947163081386
 21
-10066.26840724302
 31
0.0
  0
LINE
  5
65589
330
6557B
100
AcDbEntity
  8
2寸法線
 62
     0
440
 16777216
370
    -2
100
AcDbLine
 10
4215.147163081385
 20
-10065.26840724302
 30
0.0
 11
4208.747163081386
 21
-10065.26840724302
 31
0.0
  0
INSERT
  5
6558A
330
6557B
100
AcDbEntity
  8
2寸法線
 62
     0
440
 16777216
370
    -2
100
AcDbBlockReference
  2
2
 10
4216.947163081385
 20
-10065.26840724302
 30
0.0
 41
1.8
 42
1.8
 43
1.8
  0
INSERT
  5
6558B
330
6557B
100
AcDbEntity
  8
2寸法線
 62
     0
440
 16777216
370
    -2
100
AcDbBlockReference
  2
2
 10
4206.947163081386
 20
-10065.26840724302
 30
0.0
 41
1.8
 42
1.8
 43
1.8
 50
180.0
  0
MTEXT
  5
6558C
330
6557B
100
AcDbEntity
  8
2寸法線
 62
     0
440
 16777216
100
AcDbMText
 10
4211.947163081386
 20
-10063.51840724302
 30
0.0
 40
2.5
 41
0.0
 46
0.0
 71
     5
 72
     1
  1
\A1;（10）
  7
KANJI
 73
     1
 44
1.0
  0
POINT
  5
6558D
330
6557B
100
AcDbEntity
  8
DEFPOINTS
 62
     0
440
 16777216
100
AcDbPoint
 10
4216.947163081385
 20
-10049.86555517292
 30
0.0
  0
POINT
  5
6558E
330
6557B
100
AcDbEntity
  8
DEFPOINTS
 62
     0
440
 16777216
100
AcDbPoint
 10
4206.947163081386
 20
-10059.86555517291
 30
0.0
  0
POINT
  5
6558F
330
6557B
100
AcDbEntity
  8
DEFPOINTS
 62
     0
440
 16777216
100
AcDbPoint
 10
4206.947163081386
 20
-10065.26840724302
 30
0.0
  0
ENDBLK
  5
65586
330
6557B
100
AcDbEntity
  8
0
100
AcDbBlockEnd
  0
BLOCK
  5
6559D
330
65591
100
AcDbEntity
  8
0
100
AcDbBlockBegin
  2
*D53
 70
     1
 10
0.0
 20
0.0
 30
0.0
  3
*D53
  1

  0
LINE
  5
6559F
330
65591
100
AcDbEntity
  8
2寸法線
 62
     0
440
 16777216
370
    -2
100
AcDbLine
 10
4216.947163081385
 20
-10050.86555517292
 30
0.0
 11
4216.947163081385
 21
-10066.26840724302
 31
0.0
  0
LINE
  5
655A0
330
65591
100
AcDbEntity
  8
2寸法線
 62
     0
440
 16777216
370
    -2
100
AcDbLine
 10
4219.947163081386
 20
-10050.86555517292
 30
0.0
 11
4219.947163081386
 21
-10066.26840724302
 31
0.0
  0
LINE
  5
655A1
330
65591
100
AcDbEntity
  8
2寸法線
 62
     0
440
 16777216
370
    -2
100
AcDbLine
 10
4215.147163081385
 20
-10065.26840724302
 30
0.0
 11
4213.347163081386
 21
-10065.26840724302
 31
0.0
  0
LINE
  5
655A2
330
65591
100
AcDbEntity
  8
2寸法線
 62
     0
440
 16777216
370
    -2
100
AcDbLine
 10
4221.747163081386
 20
-10065.26840724302
 30
0.0
 11
4231.285258319481
 21
-10065.26840724302
 31
0.0
  0
LINE
  5
655A3
330
65591
100
AcDbEntity
  8
2寸法線
 62
     0
440
 16777216
370
    -2
100
AcDbLine
 10
4216.947163081385
 20
-10065.26840724302
 30
0.0
 11
4219.947163081386
 21
-10065.26840724302
 31
0.0
  0
INSERT
  5
655A4
330
65591
100
AcDbEntity
  8
2寸法線
 62
     0
440
 16777216
370
    -2
100
AcDbBlockReference
  2
2
 10
4216.947163081385
 20
-10065.26840724302
 30
0.0
 41
1.8
 42
1.8
 43
1.8
  0
INSERT
  5
655A5
330
65591
100
AcDbEntity
  8
2寸法線
 62
     0
440
 16777216
370
    -2
100
AcDbBlockReference
  2
2
 10
4219.947163081386
 20
-10065.26840724302
 30
0.0
 41
1.8
 42
1.8
 43
1.8
 50
180.0
  0
MTEXT
  5
655A6
330
65591
100
AcDbEntity
  8
2寸法線
 62
     0
440
 16777216
100
AcDbMText
 10
4227.416210700434
 20
-10063.51840724302
 30
0.0
 40
2.5
 41
0.0
 46
0.0
 71
     5
 72
     1
  1
\A1;（3）
  7
KANJI
 73
     1
 44
1.0
  0
POINT
  5
655A7
330
65591
100
AcDbEntity
  8
DEFPOINTS
 62
     0
440
 16777216
100
AcDbPoint
 10
4216.947163081385
 20
-10049.86555517292
 30
0.0
  0
POINT
  5
655A8
330
65591
100
AcDbEntity
  8
DEFPOINTS
 62
     0
440
 16777216
100
AcDbPoint
 10
4219.947163081386
 20
-10049.86555517292
 30
0.0
  0
POINT
  5
655A9
330
65591
100
AcDbEntity
  8
DEFPOINTS
 62
     0
440
 16777216
100
AcDbPoint
 10
4219.947163081386
 20
-10065.26840724302
 30
0.0
  0
ENDBLK
  5
6559E
330
65591
100
AcDbEntity
  8
0
100
AcDbBlockEnd
  0
BLOCK
  5
655B7
330
655AB
100
AcDbEntity
  8
0
100
AcDbBlockBegin
  2
*D54
 70
     1
 10
0.0
 20
0.0
 30
0.0
  3
*D54
  1

  0
LINE
  5
655B9
330
655AB
100
AcDbEntity
  8
2寸法線
 62
     0
440
 16777216
370
    -2
100
AcDbLine
 10
4196.947163081386
 20
-10050.86555517292
 30
0.0
 11
4196.947163081386
 21
-10066.26840724302
 31
0.0
  0
LINE
  5
655BA
330
655AB
100
AcDbEntity
  8
2寸法線
 62
     0
440
 16777216
370
    -2
100
AcDbLine
 10
4193.947163081386
 20
-10050.86555517292
 30
0.0
 11
4193.947163081386
 21
-10066.26840724302
 31
0.0
  0
LINE
  5
655BB
330
655AB
100
AcDbEntity
  8
2寸法線
 62
     0
440
 16777216
370
    -2
100
AcDbLine
 10
4198.747163081386
 20
-10065.26840724302
 30
0.0
 11
4200.547163081386
 21
-10065.26840724302
 31
0.0
  0
LINE
  5
655BC
330
655AB
100
AcDbEntity
  8
2寸法線
 62
     0
440
 16777216
370
    -2
100
AcDbLine
 10
4192.147163081386
 20
-10065.26840724302
 30
0.0
 11
4182.60906784329
 21
-10065.26840724302
 31
0.0
  0
LINE
  5
655BD
330
655AB
100
AcDbEntity
  8
2寸法線
 62
     0
440
 16777216
370
    -2
100
AcDbLine
 10
4196.947163081386
 20
-10065.26840724302
 30
0.0
 11
4193.947163081386
 21
-10065.26840724302
 31
0.0
  0
INSERT
  5
655BE
330
655AB
100
AcDbEntity
  8
2寸法線
 62
     0
440
 16777216
370
    -2
100
AcDbBlockReference
  2
2
 10
4196.947163081386
 20
-10065.26840724302
 30
0.0
 41
1.8
 42
1.8
 43
1.8
 50
180.0
  0
INSERT
  5
655BF
330
655AB
100
AcDbEntity
  8
2寸法線
 62
     0
440
 16777216
370
    -2
100
AcDbBlockReference
  2
2
 10
4193.947163081386
 20
-10065.26840724302
 30
0.0
 41
1.8
 42
1.8
 43
1.8
  0
MTEXT
  5
655C0
330
655AB
100
AcDbEntity
  8
2寸法線
 62
     0
440
 16777216
100
AcDbMText
 10
4186.478115462338
 20
-10063.51840724302
 30
0.0
 40
2.5
 41
0.0
 46
0.0
 71
     5
 72
     1
  1
\A1;（3）
  7
KANJI
 73
     1
 44
1.0
  0
POINT
  5
655C1
330
655AB
100
AcDbEntity
  8
DEFPOINTS
 62
     0
440
 16777216
100
AcDbPoint
 10
4196.947163081386
 20
-10049.86555517292
 30
0.0
  0
POINT
  5
655C2
330
655AB
100
AcDbEntity
  8
DEFPOINTS
 62
     0
440
 16777216
100
AcDbPoint
 10
4193.947163081386
 20
-10049.86555517292
 30
0.0
  0
POINT
  5
655C3
330
655AB
100
AcDbEntity
  8
DEFPOINTS
 62
     0
440
 16777216
100
AcDbPoint
 10
4193.947163081386
 20
-10065.26840724302
 30
0.0
  0
ENDBLK
  5
655B8
330
655AB
100
AcDbEntity
  8
0
100
AcDbBlockEnd
  0
BLOCK
  5
656F2
330
656F1
100
AcDbEntity
  8
0
100
AcDbBlockBegin
  2
*D55
 70
     1
 10
0.0
 20
0.0
 30
0.0
  3
*D55
  1

  0
LINE
  5
65754
330
656F1
100
AcDbEntity
  8
2寸法線
 62
     0
440
 16777216
370
    -2
100
AcDbLine
 10
3869.520809331098
 20
-10029.5923136896
 30
0.0
 11
3861.520809331099
 21
-10029.5923136896
 31
0.0
  0
LINE
  5
65755
330
656F1
100
AcDbEntity
  8
2寸法線
 62
     0
440
 16777216
370
    -2
100
AcDbLine
 10
3861.520809331099
 20
-10029.5923136896
 30
0.0
 11
3853.011370107966
 21
-10044.81615012966
 31
0.0
  0
MTEXT
  5
65756
330
656F1
100
AcDbEntity
  8
2寸法線
 62
     0
440
 16777216
100
AcDbMText
 10
3865.770809331099
 20
-10027.8423136896
 30
0.0
 40
2.5
 41
0.0
 46
0.0
 71
     5
 72
     1
  1
\A1;%%c4.3
  7
KANJI
 73
     1
 44
1.0
  0
INSERT
  5
65757
330
656F1
100
AcDbEntity
  8
2寸法線
 62
     0
440
 16777216
370
    -2
100
AcDbBlockReference
  2
2
 10
3852.133134279105
 20
-10046.38736043669
 30
0.0
 41
1.8
 42
1.8
 43
1.8
 50
240.7967749083537
  0
POINT
  5
65758
330
656F1
100
AcDbEntity
  8
DEFPOINTS
 62
     0
440
 16777216
100
AcDbPoint
 10
3852.133134279105
 20
-10046.38736043669
 30
0.0
  0
POINT
  5
65759
330
656F1
100
AcDbEntity
  8
DEFPOINTS
 62
     0
440
 16777216
100
AcDbPoint
 10
3851.084130372412
 20
-10048.26408385896
 30
0.0
  0
ENDBLK
  5
656F3
330
656F1
100
AcDbEntity
  8
0
100
AcDbBlockEnd
  0
BLOCK
  5
656FB
330
656FA
100
AcDbEntity
  8
0
100
AcDbBlockBegin
  2
*D56
 70
     1
 10
0.0
 20
0.0
 30
0.0
  3
*D56
  1

  0
LINE
  5
6575A
330
656FA
100
AcDbEntity
  8
2寸法線
 62
     0
440
 16777216
370
    -2
100
AcDbLine
 10
3914.654784230555
 20
-9996.855365909119
 30
0.0
 11
3898.980554842958
 21
-10005.90488646539
 31
0.0
  0
LINE
  5
6575B
330
656FA
100
AcDbEntity
  8
2寸法線
 62
     0
440
 16777216
370
    -2
100
AcDbLine
 10
3914.654784230555
 20
-9994.45536590912
 30
0.0
 11
3898.980554842958
 21
-10003.50488646539
 31
0.0
  0
LINE
  5
6575C
330
656FA
100
AcDbEntity
  8
2寸法線
 62
     0
440
 16777216
370
    -2
100
AcDbLine
 10
3899.980554842958
 20
-10001.1275361962
 30
0.0
 11
3899.980554842958
 21
-9999.327536196199
 31
0.0
  0
LINE
  5
6575D
330
656FA
100
AcDbEntity
  8
2寸法線
 62
     0
440
 16777216
370
    -2
100
AcDbLine
 10
3899.980554842958
 20
-10007.1275361962
 30
0.0
 11
3899.980554842958
 21
-10019.47515524381
 31
0.0
  0
LINE
  5
6575E
330
656FA
100
AcDbEntity
  8
2寸法線
 62
     0
440
 16777216
370
    -2
100
AcDbLine
 10
3899.980554842958
 20
-10002.9275361962
 30
0.0
 11
3899.980554842958
 21
-10005.3275361962
 31
0.0
  0
INSERT
  5
6575F
330
656FA
100
AcDbEntity
  8
2寸法線
 62
     0
440
 16777216
370
    -2
100
AcDbBlockReference
  2
2
 10
3899.980554842958
 20
-10002.9275361962
 30
0.0
 41
1.8
 42
1.8
 43
1.8
 50
270.0
  0
INSERT
  5
65760
330
656FA
100
AcDbEntity
  8
2寸法線
 62
     0
440
 16777216
370
    -2
100
AcDbBlockReference
  2
2
 10
3899.980554842958
 20
-10005.3275361962
 30
0.0
 41
1.8
 42
1.8
 43
1.8
 50
90.0
  0
MTEXT
  5
65761
330
656FA
100
AcDbEntity
  8
2寸法線
 62
     0
440
 16777216
100
AcDbMText
 10
3898.230554842955
 20
-10014.58229810096
 30
0.0
 40
2.5
 41
0.0
 46
0.0
 71
     5
 72
     1
  1
\A1;（2.4）
  7
KANJI
 11
0.0000000000000001
 21
1.0
 31
0.0
 73
     1
 44
1.0
  0
POINT
  5
65762
330
656FA
100
AcDbEntity
  8
DEFPOINTS
 62
     0
440
 16777216
100
AcDbPoint
 10
3914.654784230555
 20
-9996.855365909119
 30
0.0
  0
POINT
  5
65763
330
656FA
100
AcDbEntity
  8
DEFPOINTS
 62
     0
440
 16777216
100
AcDbPoint
 10
3914.654784230555
 20
-9994.45536590912
 30
0.0
  0
POINT
  5
65764
330
656FA
100
AcDbEntity
  8
DEFPOINTS
 62
     0
440
 16777216
100
AcDbPoint
 10
3899.980554842958
 20
-10002.9275361962
 30
0.0
  0
ENDBLK
  5
656FC
330
656FA
100
AcDbEntity
  8
0
100
AcDbBlockEnd
  0
BLOCK
  5
65709
330
65708
100
AcDbEntity
  8
0
100
AcDbBlockBegin
  2
*D57
 70
     1
 10
0.0
 20
0.0
 30
0.0
  3
*D57
  1

  0
LINE
  5
65765
330
65708
100
AcDbEntity
  8
2寸法線
 62
     0
440
 16777216
370
    -2
100
AcDbLine
 10
3829.784130372406
 20
-9996.855365909119
 30
0.0
 11
3815.871060185859
 21
-9996.855365909119
 31
0.0
  0
LINE
  5
65766
330
65708
100
AcDbEntity
  8
2寸法線
 62
     0
440
 16777216
370
    -2
100
AcDbLine
 10
3837.041241018707
 20
-9960.852185836085
 30
0.0
 11
3815.871060185859
 21
-9960.852185836085
 31
0.0
  0
LINE
  5
65767
330
65708
100
AcDbEntity
  8
2寸法線
 62
     0
440
 16777216
370
    -2
100
AcDbLine
 10
3816.871060185859
 20
-9995.05536590912
 30
0.0
 11
3816.871060185859
 21
-9962.652185836084
 31
0.0
  0
INSERT
  5
65768
330
65708
100
AcDbEntity
  8
2寸法線
 62
     0
440
 16777216
370
    -2
100
AcDbBlockReference
  2
2
 10
3816.871060185859
 20
-9996.855365909119
 30
0.0
 41
1.8
 42
1.8
 43
1.8
 50
270.0
  0
INSERT
  5
65769
330
65708
100
AcDbEntity
  8
2寸法線
 62
     0
440
 16777216
370
    -2
100
AcDbBlockReference
  2
2
 10
3816.871060185859
 20
-9960.852185836085
 30
0.0
 41
1.8
 42
1.8
 43
1.8
 50
90.0
  0
MTEXT
  5
6576A
330
65708
100
AcDbEntity
  8
2寸法線
 62
     0
440
 16777216
100
AcDbMText
 10
3815.121060185855
 20
-9978.8537758726
 30
0.0
 40
2.5
 41
0.0
 46
0.0
 71
     5
 72
     1
  1
\A1;（36）
  7
KANJI
 11
0.0000000000000001
 21
1.0
 31
0.0
 73
     1
 44
1.0
  0
POINT
  5
6576B
330
65708
100
AcDbEntity
  8
DEFPOINTS
 62
     0
440
 16777216
100
AcDbPoint
 10
3830.784130372406
 20
-9996.855365909119
 30
0.0
  0
POINT
  5
6576C
330
65708
100
AcDbEntity
  8
DEFPOINTS
 62
     0
440
 16777216
100
AcDbPoint
 10
3838.041241018708
 20
-9960.852185836085
 30
0.0
  0
POINT
  5
6576D
330
65708
100
AcDbEntity
  8
DEFPOINTS
 62
     0
440
 16777216
100
AcDbPoint
 10
3816.871060185859
 20
-9960.852185836085
 30
0.0
  0
ENDBLK
  5
6570A
330
65708
100
AcDbEntity
  8
0
100
AcDbBlockEnd
  0
BLOCK
  5
65715
330
65714
100
AcDbEntity
  8
0
100
AcDbBlockBegin
  2
*D58
 70
     1
 10
0.0
 20
0.0
 30
0.0
  3
*D58
  1

  0
LINE
  5
6576E
330
65714
100
AcDbEntity
  8
2寸法線
 62
     0
440
 16777216
370
    -2
100
AcDbLine
 10
3830.784130372404
 20
-9997.855365909117
 30
0.0
 11
3830.784130372404
 21
-10017.49124124285
 31
0.0
  0
LINE
  5
6576F
330
65714
100
AcDbEntity
  8
2寸法線
 62
     0
440
 16777216
370
    -2
100
AcDbLine
 10
3871.384130372406
 20
-9997.855365909115
 30
0.0
 11
3871.384130372406
 21
-10017.49124124285
 31
0.0
  0
LINE
  5
65770
330
65714
100
AcDbEntity
  8
2寸法線
 62
     0
440
 16777216
370
    -2
100
AcDbLine
 10
3832.584130372404
 20
-10016.49124124285
 30
0.0
 11
3869.584130372406
 21
-10016.49124124285
 31
0.0
  0
INSERT
  5
65771
330
65714
100
AcDbEntity
  8
2寸法線
 62
     0
440
 16777216
370
    -2
100
AcDbBlockReference
  2
2
 10
3830.784130372404
 20
-10016.49124124285
 30
0.0
 41
1.8
 42
1.8
 43
1.8
 50
180.0
  0
INSERT
  5
65772
330
65714
100
AcDbEntity
  8
2寸法線
 62
     0
440
 16777216
370
    -2
100
AcDbBlockReference
  2
2
 10
3871.384130372406
 20
-10016.49124124285
 30
0.0
 41
1.8
 42
1.8
 43
1.8
  0
MTEXT
  5
65773
330
65714
100
AcDbEntity
  8
2寸法線
 62
     0
440
 16777216
100
AcDbMText
 10
3850.862808222177
 20
-10014.74124124285
 30
0.0
 40
2.5
 41
0.0
 46
0.0
 71
     5
 72
     1
  1
\A1;40.8
  7
KANJI
 73
     1
 44
1.0
  0
POINT
  5
65774
330
65714
100
AcDbEntity
  8
DEFPOINTS
 62
     0
440
 16777216
100
AcDbPoint
 10
3830.784130372404
 20
-9996.855365909116
 30
0.0
  0
POINT
  5
65775
330
65714
100
AcDbEntity
  8
DEFPOINTS
 62
     0
440
 16777216
100
AcDbPoint
 10
3871.384130372406
 20
-9996.855365909114
 30
0.0
  0
POINT
  5
65776
330
65714
100
AcDbEntity
  8
DEFPOINTS
 62
     0
440
 16777216
100
AcDbPoint
 10
3871.384130372406
 20
-10016.49124124285
 30
0.0
  0
ENDBLK
  5
65716
330
65714
100
AcDbEntity
  8
0
100
AcDbBlockEnd
  0
BLOCK
  5
65721
330
65720
100
AcDbEntity
  8
0
100
AcDbBlockBegin
  2
*D59
 70
     1
 10
0.0
 20
0.0
 30
0.0
  3
*D59
  1

  0
LINE
  5
65777
330
65720
100
AcDbEntity
  8
2寸法線
 62
     0
440
 16777216
370
    -2
100
AcDbLine
 10
3841.084130372405
 20
-10056.76408385896
 30
0.0
 11
3841.084130372405
 21
-10072.16693592906
 31
0.0
  0
LINE
  5
65778
330
65720
100
AcDbEntity
  8
2寸法線
 62
     0
440
 16777216
370
    -2
100
AcDbLine
 10
3851.084130372405
 20
-10066.76408385896
 30
0.0
 11
3851.084130372405
 21
-10072.16693592906
 31
0.0
  0
LINE
  5
65779
330
65720
100
AcDbEntity
  8
2寸法線
 62
     0
440
 16777216
370
    -2
100
AcDbLine
 10
3842.884130372405
 20
-10071.16693592906
 30
0.0
 11
3849.284130372404
 21
-10071.16693592906
 31
0.0
  0
INSERT
  5
6577A
330
65720
100
AcDbEntity
  8
2寸法線
 62
     0
440
 16777216
370
    -2
100
AcDbBlockReference
  2
2
 10
3841.084130372405
 20
-10071.16693592906
 30
0.0
 41
1.8
 42
1.8
 43
1.8
 50
180.0
  0
INSERT
  5
6577B
330
65720
100
AcDbEntity
  8
2寸法線
 62
     0
440
 16777216
370
    -2
100
AcDbBlockReference
  2
2
 10
3851.084130372405
 20
-10071.16693592906
 30
0.0
 41
1.8
 42
1.8
 43
1.8
  0
MTEXT
  5
6577C
330
65720
100
AcDbEntity
  8
2寸法線
 62
     0
440
 16777216
100
AcDbMText
 10
3846.084130372405
 20
-10069.41693592906
 30
0.0
 40
2.5
 41
0.0
 46
0.0
 71
     5
 72
     1
  1
\A1;（10）
  7
KANJI
 73
     1
 44
1.0
  0
POINT
  5
6577D
330
65720
100
AcDbEntity
  8
DEFPOINTS
 62
     0
440
 16777216
100
AcDbPoint
 10
3841.084130372405
 20
-10055.76408385896
 30
0.0
  0
POINT
  5
6577E
330
65720
100
AcDbEntity
  8
DEFPOINTS
 62
     0
440
 16777216
100
AcDbPoint
 10
3851.084130372405
 20
-10065.76408385896
 30
0.0
  0
POINT
  5
6577F
330
65720
100
AcDbEntity
  8
DEFPOINTS
 62
     0
440
 16777216
100
AcDbPoint
 10
3851.084130372405
 20
-10071.16693592906
 30
0.0
  0
ENDBLK
  5
65722
330
65720
100
AcDbEntity
  8
0
100
AcDbBlockEnd
  0
BLOCK
  5
6572D
330
6572C
100
AcDbEntity
  8
0
100
AcDbBlockBegin
  2
*D60
 70
     1
 10
0.0
 20
0.0
 30
0.0
  3
*D60
  1

  0
LINE
  5
65780
330
6572C
100
AcDbEntity
  8
2寸法線
 62
     0
440
 16777216
370
    -2
100
AcDbLine
 10
3861.084130372404
 20
-10056.76408385896
 30
0.0
 11
3861.084130372404
 21
-10072.16693592906
 31
0.0
  0
LINE
  5
65781
330
6572C
100
AcDbEntity
  8
2寸法線
 62
     0
440
 16777216
370
    -2
100
AcDbLine
 10
3851.084130372405
 20
-10066.76408385896
 30
0.0
 11
3851.084130372405
 21
-10072.16693592906
 31
0.0
  0
LINE
  5
65782
330
6572C
100
AcDbEntity
  8
2寸法線
 62
     0
440
 16777216
370
    -2
100
AcDbLine
 10
3859.284130372405
 20
-10071.16693592906
 30
0.0
 11
3852.884130372405
 21
-10071.16693592906
 31
0.0
  0
INSERT
  5
65783
330
6572C
100
AcDbEntity
  8
2寸法線
 62
     0
440
 16777216
370
    -2
100
AcDbBlockReference
  2
2
 10
3861.084130372404
 20
-10071.16693592906
 30
0.0
 41
1.8
 42
1.8
 43
1.8
  0
INSERT
  5
65784
330
6572C
100
AcDbEntity
  8
2寸法線
 62
     0
440
 16777216
370
    -2
100
AcDbBlockReference
  2
2
 10
3851.084130372405
 20
-10071.16693592906
 30
0.0
 41
1.8
 42
1.8
 43
1.8
 50
180.0
  0
MTEXT
  5
65785
330
6572C
100
AcDbEntity
  8
2寸法線
 62
     0
440
 16777216
100
AcDbMText
 10
3856.084130372405
 20
-10069.41693592906
 30
0.0
 40
2.5
 41
0.0
 46
0.0
 71
     5
 72
     1
  1
\A1;（10）
  7
KANJI
 73
     1
 44
1.0
  0
POINT
  5
65786
330
6572C
100
AcDbEntity
  8
DEFPOINTS
 62
     0
440
 16777216
100
AcDbPoint
 10
3861.084130372404
 20
-10055.76408385896
 30
0.0
  0
POINT
  5
65787
330
6572C
100
AcDbEntity
  8
DEFPOINTS
 62
     0
440
 16777216
100
AcDbPoint
 10
3851.084130372405
 20
-10065.76408385896
 30
0.0
  0
POINT
  5
65788
330
6572C
100
AcDbEntity
  8
DEFPOINTS
 62
     0
440
 16777216
100
AcDbPoint
 10
3851.084130372405
 20
-10071.16693592906
 30
0.0
  0
ENDBLK
  5
6572E
330
6572C
100
AcDbEntity
  8
0
100
AcDbBlockEnd
  0
BLOCK
  5
65739
330
65738
100
AcDbEntity
  8
0
100
AcDbBlockBegin
  2
*D61
 70
     1
 10
0.0
 20
0.0
 30
0.0
  3
*D61
  1

  0
LINE
  5
65789
330
65738
100
AcDbEntity
  8
2寸法線
 62
     0
440
 16777216
370
    -2
100
AcDbLine
 10
3861.084130372404
 20
-10056.76408385896
 30
0.0
 11
3861.084130372404
 21
-10072.16693592906
 31
0.0
  0
LINE
  5
6578A
330
65738
100
AcDbEntity
  8
2寸法線
 62
     0
440
 16777216
370
    -2
100
AcDbLine
 10
3864.084130372404
 20
-10056.76408385896
 30
0.0
 11
3864.084130372404
 21
-10072.16693592906
 31
0.0
  0
LINE
  5
6578B
330
65738
100
AcDbEntity
  8
2寸法線
 62
     0
440
 16777216
370
    -2
100
AcDbLine
 10
3859.284130372405
 20
-10071.16693592906
 30
0.0
 11
3857.484130372405
 21
-10071.16693592906
 31
0.0
  0
LINE
  5
6578C
330
65738
100
AcDbEntity
  8
2寸法線
 62
     0
440
 16777216
370
    -2
100
AcDbLine
 10
3865.884130372405
 20
-10071.16693592906
 30
0.0
 11
3873.898416086691
 21
-10071.16693592906
 31
0.0
  0
LINE
  5
6578D
330
65738
100
AcDbEntity
  8
2寸法線
 62
     0
440
 16777216
370
    -2
100
AcDbLine
 10
3861.084130372404
 20
-10071.16693592906
 30
0.0
 11
3864.084130372404
 21
-10071.16693592906
 31
0.0
  0
INSERT
  5
6578E
330
65738
100
AcDbEntity
  8
2寸法線
 62
     0
440
 16777216
370
    -2
100
AcDbBlockReference
  2
2
 10
3861.084130372404
 20
-10071.16693592906
 30
0.0
 41
1.8
 42
1.8
 43
1.8
  0
INSERT
  5
6578F
330
65738
100
AcDbEntity
  8
2寸法線
 62
     0
440
 16777216
370
    -2
100
AcDbBlockReference
  2
2
 10
3864.084130372404
 20
-10071.16693592906
 30
0.0
 41
1.8
 42
1.8
 43
1.8
 50
180.0
  0
MTEXT
  5
65790
330
65738
100
AcDbEntity
  8
2寸法線
 62
     0
440
 16777216
100
AcDbMText
 10
3870.791273229548
 20
-10069.41693592906
 30
0.0
 40
2.5
 41
0.0
 46
0.0
 71
     5
 72
     1
  1
\A1;（3）
  7
KANJI
 73
     1
 44
1.0
  0
POINT
  5
65791
330
65738
100
AcDbEntity
  8
DEFPOINTS
 62
     0
440
 16777216
100
AcDbPoint
 10
3861.084130372404
 20
-10055.76408385896
 30
0.0
  0
POINT
  5
65792
330
65738
100
AcDbEntity
  8
DEFPOINTS
 62
     0
440
 16777216
100
AcDbPoint
 10
3864.084130372404
 20
-10055.76408385896
 30
0.0
  0
POINT
  5
65793
330
65738
100
AcDbEntity
  8
DEFPOINTS
 62
     0
440
 16777216
100
AcDbPoint
 10
3864.084130372404
 20
-10071.16693592906
 30
0.0
  0
ENDBLK
  5
6573A
330
65738
100
AcDbEntity
  8
0
100
AcDbBlockEnd
  0
BLOCK
  5
65747
330
65746
100
AcDbEntity
  8
0
100
AcDbBlockBegin
  2
*D62
 70
     1
 10
0.0
 20
0.0
 30
0.0
  3
*D62
  1

  0
LINE
  5
65794
330
65746
100
AcDbEntity
  8
2寸法線
 62
     0
440
 16777216
370
    -2
100
AcDbLine
 10
3841.084130372405
 20
-10056.76408385896
 30
0.0
 11
3841.084130372405
 21
-10072.16693592906
 31
0.0
  0
LINE
  5
65795
330
65746
100
AcDbEntity
  8
2寸法線
 62
     0
440
 16777216
370
    -2
100
AcDbLine
 10
3838.084130372405
 20
-10056.76408385896
 30
0.0
 11
3838.084130372405
 21
-10072.16693592906
 31
0.0
  0
LINE
  5
65796
330
65746
100
AcDbEntity
  8
2寸法線
 62
     0
440
 16777216
370
    -2
100
AcDbLine
 10
3842.884130372405
 20
-10071.16693592906
 30
0.0
 11
3844.684130372405
 21
-10071.16693592906
 31
0.0
  0
LINE
  5
65797
330
65746
100
AcDbEntity
  8
2寸法線
 62
     0
440
 16777216
370
    -2
100
AcDbLine
 10
3836.284130372405
 20
-10071.16693592906
 30
0.0
 11
3828.269844658119
 21
-10071.16693592906
 31
0.0
  0
LINE
  5
65798
330
65746
100
AcDbEntity
  8
2寸法線
 62
     0
440
 16777216
370
    -2
100
AcDbLine
 10
3841.084130372405
 20
-10071.16693592906
 30
0.0
 11
3838.084130372405
 21
-10071.16693592906
 31
0.0
  0
INSERT
  5
65799
330
65746
100
AcDbEntity
  8
2寸法線
 62
     0
440
 16777216
370
    -2
100
AcDbBlockReference
  2
2
 10
3841.084130372405
 20
-10071.16693592906
 30
0.0
 41
1.8
 42
1.8
 43
1.8
 50
180.0
  0
INSERT
  5
6579A
330
65746
100
AcDbEntity
  8
2寸法線
 62
     0
440
 16777216
370
    -2
100
AcDbBlockReference
  2
2
 10
3838.084130372405
 20
-10071.16693592906
 30
0.0
 41
1.8
 42
1.8
 43
1.8
  0
MTEXT
  5
6579B
330
65746
100
AcDbEntity
  8
2寸法線
 62
     0
440
 16777216
100
AcDbMText
 10
3831.376987515262
 20
-10069.41693592906
 30
0.0
 40
2.5
 41
0.0
 46
0.0
 71
     5
 72
     1
  1
\A1;（3）
  7
KANJI
 73
     1
 44
1.0
  0
POINT
  5
6579C
330
65746
100
AcDbEntity
  8
DEFPOINTS
 62
     0
440
 16777216
100
AcDbPoint
 10
3841.084130372405
 20
-10055.76408385896
 30
0.0
  0
POINT
  5
6579D
330
65746
100
AcDbEntity
  8
DEFPOINTS
 62
     0
440
 16777216
100
AcDbPoint
 10
3838.084130372405
 20
-10055.76408385896
 30
0.0
  0
POINT
  5
6579E
330
65746
100
AcDbEntity
  8
DEFPOINTS
 62
     0
440
 16777216
100
AcDbPoint
 10
3838.084130372405
 20
-10071.16693592906
 30
0.0
  0
ENDBLK
  5
65748
330
65746
100
AcDbEntity
  8
0
100
AcDbBlockEnd
  0
ENDSEC
  0
SECTION
  2
ENTITIES
  0
LINE
  5
65677
330
18
100
AcDbEntity
  8
1外形線
100
AcDbLine
 10
3859.384130372405
 20
-10019.43914123365
 30
0.0
 11
3868.584130372405
 21
-10019.43914123365
 31
0.0
  0
ARC
  5
65678
330
18
100
AcDbEntity
  8
1外形線
100
AcDbCircle
 10
3868.584130372405
 20
-10019.93914123365
 30
0.0
 40
0.5
100
AcDbArc
 50
0.0
 51
89.99999999999674
  0
LINE
  5
65679
330
18
100
AcDbEntity
  8
1外形線
100
AcDbLine
 10
3869.084130372405
 20
-10019.93914123365
 30
0.0
 11
3869.084130372405
 21
-10024.37444024918
 31
0.0
  0
LINE
  5
6567A
330
18
100
AcDbEntity
  8
1外形線
100
AcDbLine
 10
3833.584130372404
 20
-10044.43914123365
 30
0.0
 11
3842.784130372403
 21
-10044.43914123365
 31
0.0
  0
LINE
  5
6567B
330
18
100
AcDbEntity
  8
1外形線
100
AcDbLine
 10
3833.084130372405
 20
-10043.93914123365
 30
0.0
 11
3833.084130372405
 21
-10039.50384221812
 31
0.0
  0
ARC
  5
6567C
330
18
100
AcDbEntity
  8
1外形線
100
AcDbCircle
 10
3833.584130372404
 20
-10043.93914123365
 30
0.0
 40
0.5
100
AcDbArc
 50
180.0
 51
269.9999999999968
  0
LINE
  5
6567F
330
18
100
AcDbEntity
  8
1外形線
100
AcDbLine
 10
3869.384130372406
 20
-10024.80589165294
 30
0.0
 11
3869.384130372406
 21
-10044.43914123365
 31
0.0
  0
LINE
  5
65680
330
18
100
AcDbEntity
  8
1外形線
100
AcDbLine
 10
3867.384130372405
 20
-10022.49486932365
 30
0.0
 11
3867.384130372405
 21
-10044.43914123365
 31
0.0
  0
LINE
  5
65681
330
18
100
AcDbEntity
  8
1外形線
100
AcDbLine
 10
3834.784130372405
 20
-10019.43914123365
 30
0.0
 11
3834.784130372405
 21
-10041.38341314365
 31
0.0
  0
LINE
  5
65682
330
18
100
AcDbEntity
  8
1外形線
100
AcDbLine
 10
3832.784130372404
 20
-10019.43914123365
 30
0.0
 11
3832.784130372404
 21
-10039.07239081436
 31
0.0
  0
ARC
  5
65683
330
18
100
AcDbEntity
  8
1外形線
100
AcDbCircle
 10
3870.884130372406
 20
-10043.93914123365
 30
0.0
 40
0.5
100
AcDbArc
 50
270.0
 51
0.0
  0
ARC
  5
65684
330
18
100
AcDbEntity
  8
1外形線
100
AcDbCircle
 10
3831.284130372404
 20
-10019.93914123365
 30
0.0
 40
0.5
100
AcDbArc
 50
90.0
 51
180.0
  0
ARC
  5
65685
330
18
100
AcDbEntity
  8
1外形線
100
AcDbCircle
 10
3859.384130372405
 20
-10031.43914123365
 30
0.0
 40
12.0
100
AcDbArc
 50
0.0
 51
90.0
  0
ARC
  5
65686
330
18
100
AcDbEntity
  8
1外形線
100
AcDbCircle
 10
3842.784130372404
 20
-10032.43914123365
 30
0.0
 40
12.0
100
AcDbArc
 50
180.0
 51
270.0
  0
LINE
  5
65687
330
18
100
AcDbEntity
  8
1外形線
100
AcDbLine
 10
3871.384130372406
 20
-10043.93914123365
 30
0.0
 11
3871.384130372406
 21
-10031.93914123365
 31
0.0
  0
LINE
  5
65688
330
18
100
AcDbEntity
  8
1外形線
100
AcDbLine
 10
3830.784130372404
 20
-10032.43914123365
 30
0.0
 11
3830.784130372404
 21
-10031.93914123365
 31
0.0
  0
LINE
  5
65689
330
18
100
AcDbEntity
  8
1外形線
100
AcDbLine
 10
3842.784130372404
 20
-10044.43914123365
 30
0.0
 11
3870.884130372406
 21
-10044.43914123365
 31
0.0
  0
LINE
  5
6568A
330
18
100
AcDbEntity
  8
1外形線
100
AcDbLine
 10
3831.284130372404
 20
-10019.43914123365
 30
0.0
 11
3859.384130372405
 21
-10019.43914123365
 31
0.0
  0
LINE
  5
6568B
330
18
100
AcDbEntity
  8
1外形線
100
AcDbLine
 10
3830.784130372405
 20
-10019.93914123365
 30
0.0
 11
3830.784130372404
 21
-10031.93914123365
 31
0.0
  0
LINE
  5
6568C
330
18
100
AcDbEntity
  8
1外形線
100
AcDbLine
 10
3871.384130372405
 20
-10031.43914123365
 30
0.0
 11
3871.384130372406
 21
-10031.93914123365
 31
0.0
  0
CIRCLE
  5
6568D
330
18
100
AcDbEntity
  8
1外形線
100
AcDbCircle
 10
3851.084130372405
 20
-10031.93914123365
 30
0.0
 40
2.149999999999999
  0
LINE
  5
6568E
330
18
100
AcDbEntity
  8
1外形線
100
AcDbLine
 10
3921.887171918927
 20
-9996.855365909116
 30
0.0
 11
3909.387171918928
 21
-9996.855365909116
 31
0.0
  0
LINE
  5
6568F
330
18
100
AcDbEntity
  8
1外形線
100
AcDbLine
 10
3921.887171918927
 20
-9962.57312728157
 30
0.0
 11
3921.887171918927
 21
-9996.855365909116
 31
0.0
  0
LINE
  5
65690
330
18
100
AcDbEntity
  8
1外形線
100
AcDbLine
 10
3921.387171918928
 20
-9994.455365909118
 30
0.0
 11
3909.387171918928
 21
-9994.455365909118
 31
0.0
  0
LINE
  5
65691
330
18
100
AcDbEntity
  8
1外形線
100
AcDbLine
 10
3920.887171918927
 20
-9961.573127281571
 30
0.0
 11
3912.347446006445
 21
-9961.573127281567
 31
0.0
  0
LINE
  5
65692
330
18
100
AcDbEntity
  8
1外形線
100
AcDbLine
 10
3912.387171918928
 20
-9961.852185836081
 30
0.0
 11
3912.387171918928
 21
-9991.2387851529
 31
0.0
  0
LINE
  5
65693
330
18
100
AcDbEntity
  8
1外形線
100
AcDbLine
 10
3911.387171918928
 20
-9960.852185836081
 30
0.0
 11
3909.387171918928
 21
-9960.852185836081
 31
0.0
  0
ARC
  5
65694
330
18
100
AcDbEntity
  8
1外形線
100
AcDbCircle
 10
3911.387171918928
 20
-9961.852185836079
 30
0.0
 40
1.0
100
AcDbArc
 50
359.9999999998958
 51
90.0
  0
ARC
  5
65695
330
18
100
AcDbEntity
  8
1外形線
100
AcDbCircle
 10
3920.887171918927
 20
-9962.57312728157
 30
0.0
 40
1.0
100
AcDbArc
 50
0.0
 51
89.99999999999023
  0
ARC
  5
65696
330
18
100
AcDbEntity
  8
1外形線
100
AcDbCircle
 10
3921.387171918928
 20
-9994.955365909117
 30
0.0
 40
0.5
100
AcDbArc
 50
0.0
 51
90.0
  0
LINE
  5
65697
330
18
100
AcDbEntity
  8
1外形線
100
AcDbLine
 10
3910.387171918927
 20
-9987.287525475318
 30
0.0
 11
3910.387171918927
 21
-9994.455365909118
 31
0.0
  0
ARC
  5
65698
330
18
100
AcDbEntity
  8
1外形線
100
AcDbCircle
 10
3909.387171918928
 20
-9987.287525475318
 30
0.0
 40
1.0
100
AcDbArc
 50
0.0
 51
90.0
  0
LINE
  5
65699
330
18
100
AcDbEntity
  8
1外形線
100
AcDbLine
 10
3911.387171918928
 20
-9992.238785152899
 30
0.0
 11
3910.387171918927
 21
-9992.238785152899
 31
0.0
  0
ARC
  5
6569A
330
18
100
AcDbEntity
  8
1外形線
100
AcDbCircle
 10
3911.387171918929
 20
-9991.238785152896
 30
0.0
 40
1.0
100
AcDbArc
 50
269.9999999999479
 51
359.9999999998958
  0
ARC
  5
6569B
330
18
100
AcDbEntity
  8
1外形線
100
AcDbCircle
 10
3907.387171918926
 20
-9991.238785152896
 30
0.0
 40
1.0
100
AcDbArc
 50
180.0000000001042
 51
270.0000000000521
  0
LINE
  5
6569C
330
18
100
AcDbEntity
  8
1外形線
100
AcDbLine
 10
3907.387171918927
 20
-9992.238785152899
 30
0.0
 11
3908.387171918928
 21
-9992.238785152899
 31
0.0
  0
ARC
  5
6569D
330
18
100
AcDbEntity
  8
1外形線
100
AcDbCircle
 10
3909.387171918928
 20
-9987.287525475318
 30
0.0
 40
1.0
100
AcDbArc
 50
90.0
 51
180.0
  0
LINE
  5
6569E
330
18
100
AcDbEntity
  8
1外形線
100
AcDbLine
 10
3908.387171918928
 20
-9987.287525475318
 30
0.0
 11
3908.387171918928
 21
-9994.455365909118
 31
0.0
  0
ARC
  5
6569F
330
18
100
AcDbEntity
  8
1外形線
100
AcDbCircle
 10
3897.387171918928
 20
-9994.955365909117
 30
0.0
 40
0.5
100
AcDbArc
 50
90.0
 51
180.0
  0
ARC
  5
656A0
330
18
100
AcDbEntity
  8
1外形線
100
AcDbCircle
 10
3897.887171918927
 20
-9962.57312728157
 30
0.0
 40
1.0
100
AcDbArc
 50
90.00000000000978
 51
180.0
  0
ARC
  5
656A1
330
18
100
AcDbEntity
  8
1外形線
100
AcDbCircle
 10
3907.387171918927
 20
-9961.852185836079
 30
0.0
 40
1.0
100
AcDbArc
 50
90.0
 51
180.0000000001042
  0
LINE
  5
656A2
330
18
100
AcDbEntity
  8
1外形線
100
AcDbLine
 10
3907.387171918927
 20
-9960.852185836081
 30
0.0
 11
3909.387171918928
 21
-9960.852185836081
 31
0.0
  0
LINE
  5
656A3
330
18
100
AcDbEntity
  8
1外形線
100
AcDbLine
 10
3906.387171918927
 20
-9961.852185836081
 30
0.0
 11
3906.387171918927
 21
-9991.2387851529
 31
0.0
  0
LINE
  5
656A4
330
18
100
AcDbEntity
  8
1外形線
100
AcDbLine
 10
3897.887171918927
 20
-9961.573127281571
 30
0.0
 11
3906.426897831411
 21
-9961.573127281567
 31
0.0
  0
LINE
  5
656A5
330
18
100
AcDbEntity
  8
1外形線
100
AcDbLine
 10
3897.387171918928
 20
-9994.455365909118
 30
0.0
 11
3909.387171918927
 21
-9994.455365909118
 31
0.0
  0
LINE
  5
656A6
330
18
100
AcDbEntity
  8
1外形線
100
AcDbLine
 10
3896.887171918928
 20
-9962.57312728157
 30
0.0
 11
3896.887171918928
 21
-9996.855365909116
 31
0.0
  0
LINE
  5
656A7
330
18
100
AcDbEntity
  8
1外形線
100
AcDbLine
 10
3896.887171918928
 20
-9996.855365909116
 30
0.0
 11
3909.387171918928
 21
-9996.855365909116
 31
0.0
  0
LINE
  5
656A9
330
18
100
AcDbEntity
  8
1外形線
100
AcDbLine
 10
3866.084130372406
 20
-9986.287525475319
 30
0.0
 11
3866.084130372406
 21
-9994.455365909118
 31
0.0
  0
LINE
  5
656AA
330
18
100
AcDbEntity
  8
1外形線
100
AcDbLine
 10
3836.084130372404
 20
-9986.287525475319
 30
0.0
 11
3836.084130372404
 21
-9994.455365909118
 31
0.0
  0
LINE
  5
656AB
330
18
100
AcDbEntity
  8
1外形線
100
AcDbLine
 10
3869.384130372406
 20
-9996.855365909116
 30
0.0
 11
3867.384130372406
 21
-9996.455365909119
 31
0.0
  0
LINE
  5
656AC
330
18
100
AcDbEntity
  8
1外形線
100
AcDbLine
 10
3871.384130372406
 20
-9996.855365909116
 30
0.0
 11
3869.384130372406
 21
-9996.855365909116
 31
0.0
  0
LINE
  5
656AD
330
18
100
AcDbEntity
  8
1外形線
100
AcDbLine
 10
3871.384130372406
 20
-9994.955365909117
 30
0.0
 11
3871.384130372406
 21
-9996.855365909116
 31
0.0
  0
ARC
  5
656AE
330
18
100
AcDbEntity
  8
1外形線
100
AcDbCircle
 10
3859.584130372405
 20
-9993.455365909118
 30
0.0
 40
1.0
100
AcDbArc
 50
180.0
 51
270.0
  0
ARC
  5
656AF
330
18
100
AcDbEntity
  8
1外形線
100
AcDbCircle
 10
3855.584130372405
 20
-9993.955365909121
 30
0.0
 40
0.5
100
AcDbArc
 50
269.9999999999804
 51
359.9999999999916
  0
LINE
  5
656B0
330
18
100
AcDbEntity
  8
1外形線
100
AcDbLine
 10
3855.584130372405
 20
-9994.45536590912
 30
0.0
 11
3851.084130372405
 21
-9994.455365909118
 31
0.0
  0
LINE
  5
656B1
330
18
100
AcDbEntity
  8
1外形線
100
AcDbLine
 10
3858.584130372405
 20
-9991.754209801126
 30
0.0
 11
3858.584130372405
 21
-9993.455365909118
 31
0.0
  0
LINE
  5
656B2
330
18
100
AcDbEntity
  8
1外形線
100
AcDbLine
 10
3856.084130372405
 20
-9990.163643981524
 30
0.0
 11
3856.084130372405
 21
-9993.955365909121
 31
0.0
  0
LINE
  5
656B3
330
18
100
AcDbEntity
  8
1外形線
100
AcDbLine
 10
3870.884130372406
 20
-9994.455365909118
 30
0.0
 11
3859.584130372405
 21
-9994.455365909118
 31
0.0
  0
LINE
  5
656B4
330
18
100
AcDbEntity
  8
1外形線
100
AcDbLine
 10
3867.384130372405
 20
-9996.455365909119
 30
0.0
 11
3851.084130372405
 21
-9996.45536590912
 31
0.0
  0
ARC
  5
656B5
330
18
100
AcDbEntity
  8
1外形線
100
AcDbCircle
 10
3850.584130372405
 20
-9974.45536590912
 30
0.0
 40
16.0
100
AcDbArc
 50
292.4795056094034
 51
42.66792549411124
  0
ARC
  5
656B6
330
18
100
AcDbEntity
  8
1外形線
100
AcDbCircle
 10
3850.584130372405
 20
-9974.45536590912
 30
0.0
 40
18.5
100
AcDbArc
 50
297.4864262503841
 51
42.76438321774031
  0
ARC
  5
656B7
330
18
100
AcDbEntity
  8
1外形線
100
AcDbCircle
 10
3850.584130372405
 20
-9974.45536590912
 30
0.0
 40
19.5
100
AcDbArc
 50
296.0416499559499
 51
42.94163283772603
  0
ARC
  5
656B8
330
18
100
AcDbEntity
  8
1外形線
100
AcDbCircle
 10
3857.084130372405
 20
-9990.163643981524
 30
0.0
 40
1.0
100
AcDbArc
 50
112.4795056094283
 51
180.0
  0
ARC
  5
656B9
330
18
100
AcDbEntity
  8
1外形線
100
AcDbCircle
 10
3859.584130372405
 20
-9992.874106365514
 30
0.0
 40
1.0
100
AcDbArc
 50
116.0416499559613
 51
180.0
  0
ARC
  5
656BA
330
18
100
AcDbEntity
  8
1外形線
100
AcDbCircle
 10
3859.584130372405
 20
-9991.754209801126
 30
0.0
 40
1.0
100
AcDbArc
 50
117.4864262503696
 51
180.0
  0
ARC
  5
656BB
330
18
100
AcDbEntity
  8
1外形線
100
AcDbCircle
 10
3870.884130372406
 20
-9994.955365909117
 30
0.0
 40
0.5
100
AcDbArc
 50
0.0
 51
90.00000000000978
  0
ARC
  5
656BC
330
18
100
AcDbEntity
  8
1外形線
100
AcDbCircle
 10
3863.084130372405
 20
-9962.933647287316
 30
0.0
 40
1.0
100
AcDbArc
 50
136.0402121775139
 51
222.6679254940917
  0
LINE
  5
656BD
330
18
100
AcDbEntity
  8
1外形線
100
AcDbLine
 10
3862.364303213784
 20
-9962.239493945675
 30
0.0
 11
3863.407192567482
 21
-9961.158032494443
 31
0.0
  0
ARC
  5
656BE
330
18
100
AcDbEntity
  8
1外形線
100
AcDbCircle
 10
3863.431791840468
 20
-9962.57312728157
 30
0.0
 40
1.0
100
AcDbArc
 50
42.76438321769417
 51
136.0402121774388
  0
ARC
  5
656BF
330
18
100
AcDbEntity
  8
1外形線
100
AcDbCircle
 10
3864.127019726104
 20
-9961.852185836081
 30
0.0
 40
1.0
100
AcDbArc
 50
42.94163283772273
 51
136.040212177664
  0
ARC
  5
656C0
330
18
100
AcDbEntity
  8
1外形線
100
AcDbCircle
 10
3838.041241018706
 20
-9961.852185836081
 30
0.0
 40
1.0
100
AcDbArc
 50
43.959787822336
 51
137.0583671622773
  0
ARC
  5
656C1
330
18
100
AcDbEntity
  8
1外形線
100
AcDbCircle
 10
3838.736468904342
 20
-9962.57312728157
 30
0.0
 40
1.0
100
AcDbArc
 50
43.95978782256112
 51
137.2356167823058
  0
LINE
  5
656C2
330
18
100
AcDbEntity
  8
1外形線
100
AcDbLine
 10
3839.803957531026
 20
-9962.239493945675
 30
0.0
 11
3838.761068177327
 21
-9961.158032494443
 31
0.0
  0
ARC
  5
656C3
330
18
100
AcDbEntity
  8
1外形線
100
AcDbCircle
 10
3839.084130372405
 20
-9962.933647287316
 30
0.0
 40
1.0
100
AcDbArc
 50
317.3320745059083
 51
43.95978782248608
  0
ARC
  5
656C4
330
18
100
AcDbEntity
  8
1外形線
100
AcDbCircle
 10
3831.284130372404
 20
-9994.955365909117
 30
0.0
 40
0.5
100
AcDbArc
 50
89.99999999999023
 51
180.0
  0
ARC
  5
656C5
330
18
100
AcDbEntity
  8
1外形線
100
AcDbCircle
 10
3842.584130372405
 20
-9991.754209801126
 30
0.0
 40
1.0
100
AcDbArc
 50
0.0
 51
62.51357374963038
  0
ARC
  5
656C6
330
18
100
AcDbEntity
  8
1外形線
100
AcDbCircle
 10
3842.584130372405
 20
-9992.874106365514
 30
0.0
 40
1.0
100
AcDbArc
 50
0.0
 51
63.95835004403867
  0
ARC
  5
656C7
330
18
100
AcDbEntity
  8
1外形線
100
AcDbCircle
 10
3845.084130372405
 20
-9990.163643981524
 30
0.0
 40
1.0
100
AcDbArc
 50
0.0
 51
67.5204943905717
  0
ARC
  5
656C8
330
18
100
AcDbEntity
  8
1外形線
100
AcDbCircle
 10
3851.584130372405
 20
-9974.45536590912
 30
0.0
 40
19.5
100
AcDbArc
 50
137.0583671622739
 51
243.9583500440501
  0
ARC
  5
656C9
330
18
100
AcDbEntity
  8
1外形線
100
AcDbCircle
 10
3851.584130372405
 20
-9974.45536590912
 30
0.0
 40
18.5
100
AcDbArc
 50
137.2356167822597
 51
242.5135737496159
  0
ARC
  5
656CA
330
18
100
AcDbEntity
  8
1外形線
100
AcDbCircle
 10
3851.584130372405
 20
-9974.45536590912
 30
0.0
 40
16.0
100
AcDbArc
 50
137.3320745058887
 51
247.5204943905965
  0
LINE
  5
656CC
330
18
100
AcDbEntity
  8
1外形線
100
AcDbLine
 10
3834.784130372405
 20
-9996.455365909119
 30
0.0
 11
3851.084130372405
 21
-9996.45536590912
 31
0.0
  0
LINE
  5
656CD
330
18
100
AcDbEntity
  8
1外形線
100
AcDbLine
 10
3831.284130372404
 20
-9994.455365909118
 30
0.0
 11
3842.584130372405
 21
-9994.455365909118
 31
0.0
  0
LINE
  5
656CE
330
18
100
AcDbEntity
  8
1外形線
100
AcDbLine
 10
3846.084130372405
 20
-9990.163643981524
 30
0.0
 11
3846.084130372405
 21
-9993.955365909121
 31
0.0
  0
LINE
  5
656CF
330
18
100
AcDbEntity
  8
1外形線
100
AcDbLine
 10
3843.584130372405
 20
-9991.754209801126
 30
0.0
 11
3843.584130372405
 21
-9993.455365909118
 31
0.0
  0
LINE
  5
656D0
330
18
100
AcDbEntity
  8
1外形線
100
AcDbLine
 10
3846.584130372405
 20
-9994.45536590912
 30
0.0
 11
3851.084130372405
 21
-9994.455365909118
 31
0.0
  0
ARC
  5
656D1
330
18
100
AcDbEntity
  8
1外形線
100
AcDbCircle
 10
3846.584130372405
 20
-9993.955365909121
 30
0.0
 40
0.5
100
AcDbArc
 50
180.0000000000084
 51
270.0000000000196
  0
ARC
  5
656D2
330
18
100
AcDbEntity
  8
1外形線
100
AcDbCircle
 10
3842.584130372405
 20
-9993.455365909118
 30
0.0
 40
1.0
100
AcDbArc
 50
270.0
 51
0.0
  0
LINE
  5
656D3
330
18
100
AcDbEntity
  8
1外形線
100
AcDbLine
 10
3830.784130372404
 20
-9994.955365909117
 30
0.0
 11
3830.784130372404
 21
-9996.855365909116
 31
0.0
  0
LINE
  5
656D4
330
18
100
AcDbEntity
  8
1外形線
100
AcDbLine
 10
3830.784130372404
 20
-9996.855365909116
 30
0.0
 11
3832.784130372404
 21
-9996.855365909116
 31
0.0
  0
LINE
  5
656D5
330
18
100
AcDbEntity
  8
1外形線
100
AcDbLine
 10
3832.784130372404
 20
-9996.855365909116
 30
0.0
 11
3834.784130372404
 21
-9996.455365909119
 31
0.0
  0
VIEWPORT
  5
6442C
330
15
100
AcDbEntity
 67
     1
  8
0
100
AcDbViewport
 10
133.3499908447265
 20
101.5999970436096
 30
0.0
 40
295.6051935424805
 41
241.2912509063754
 68
     2
 69
     1
 12
133.3499908447265
 22
101.5999970436096
 13
0.0
 23
0.0
 14
10.0
 24
10.0
 15
10.0
 25
10.0
 16
0.0
 26
0.0
 36
1.0
 17
0.0
 27
0.0
 37
0.0
 42
50.0
 43
0.0
 44
0.0
 45
241.2912509063754
 50
0.0
 51
0.0
 72
   100
 90
    32800
  1

281
     0
 71
     1
 74
     0
110
0.0
120
0.0
130
0.0
111
1.0
121
0.0
131
0.0
112
0.0
122
1.0
132
0.0
 79
     0
146
0.0
170
     0
 61
     5
348
65044
292
     1
282
     1
141
0.0
142
0.0
 63
   250
421
  3355443
  0
VIEWPORT
  5
6442E
330
15
100
AcDbEntity
 67
     1
  8
3補助線
100
AcDbViewport
 10
133.3499939441681
 20
101.5999939441681
 30
0.0
 40
213.3599903106689
 41
162.5599903106689
 68
     1
 69
     2
 12
5684.157453237018
 22
-11473.47531181309
 13
0.0
 23
0.0
 14
10.0
 24
10.0
 15
10.0
 25
10.0
 16
0.0
 26
0.0
 36
1.0
 17
0.0
 27
0.0
 37
0.0
 42
50.0
 43
0.0
 44
0.0
 45
7854.132223383814
 50
0.0
 51
0.0
 72
   100
 90
    33312
  1

281
     0
 71
     1
 74
     0
110
0.0
120
0.0
130
0.0
111
1.0
121
0.0
131
0.0
112
0.0
122
1.0
132
0.0
 79
     0
146
0.0
170
     0
 61
     5
348
65044
292
     1
282
     1
141
0.0
142
0.0
 63
   250
421
  3355443
  0
ENDSEC
  0
SECTION
  2
OBJECTS
  0
DICTIONARY
  5
C
330
0
100
AcDbDictionary
281
     1
  3
ACAD_CIP_PREVIOUS_PRODUCT_INFO
350
65610
  3
ACAD_COLOR
350
6504F
  3
ACAD_DETAILVIEWSTYLE
350
65603
  3
ACAD_GROUP
350
D
  3
ACAD_LAYOUT
350
15E
  3
ACAD_MATERIAL
350
6503A
  3
ACAD_MLEADERSTYLE
350
655FF
  3
ACAD_MLINESTYLE
350
1B
  3
ACAD_PLOTSETTINGS
350
15F
  3
ACAD_PLOTSTYLENAME
350
15C
  3
ACAD_SCALELIST
350
655ED
  3
ACAD_SECTIONVIEWSTYLE
350
65601
  3
ACAD_TABLESTYLE
350
65050
  3
ACAD_VISUALSTYLE
350
6503E
  3
ACDB_RECOMPOSE_DATA
350
657A1
  3
ACDBVARIABLEDICTIONARY
350
12D
  3
AcDsDecomposeData
350
657A7
  0
DICTIONARY
  5
65130
330
8
100
AcDbDictionary
280
     1
281
     1
  0
DICTIONARY
  5
1E74
330
2
100
AcDbDictionary
280
     1
281
     1
  3
ACAD_LAYERSTATES
360
1E75
  0
DICTIONARY
  5
6561A
330
E
100
AcDbDictionary
280
     1
281
     1
  3
ADSK_XREC_LAYER_RECONCILED
360
6561B
  0
DICTIONARY
  5
6561C
330
20
100
AcDbDictionary
280
     1
281
     1
  3
ADSK_XREC_LAYER_RECONCILED
360
6561D
  0
DICTIONARY
  5
6561E
330
21
100
AcDbDictionary
280
     1
281
     1
  3
ADSK_XREC_LAYER_RECONCILED
360
6561F
  0
DICTIONARY
  5
65620
330
22
100
AcDbDictionary
280
     1
281
     1
  3
ADSK_XREC_LAYER_RECONCILED
360
65621
  0
DICTIONARY
  5
65622
330
23
100
AcDbDictionary
280
     1
281
     1
  3
ADSK_XREC_LAYER_RECONCILED
360
65623
  0
DICTIONARY
  5
65624
330
24
100
AcDbDictionary
280
     1
281
     1
  3
ADSK_XREC_LAYER_RECONCILED
360
65625
  0
DICTIONARY
  5
65626
330
25
100
AcDbDictionary
280
     1
281
     1
  3
ADSK_XREC_LAYER_RECONCILED
360
65627
  0
DICTIONARY
  5
65628
330
1B4
100
AcDbDictionary
280
     1
281
     1
  3
ADSK_XREC_LAYER_RECONCILED
360
65629
  0
DICTIONARY
  5
6562A
330
292
100
AcDbDictionary
280
     1
281
     1
  3
ADSK_XREC_LAYER_RECONCILED
360
6562B
  0
DICTIONARY
  5
6562C
330
525
100
AcDbDictionary
280
     1
281
     1
  3
ADSK_XREC_LAYER_RECONCILED
360
6562D
  0
DICTIONARY
  5
6562E
330
94D
100
AcDbDictionary
280
     1
281
     1
  3
ADSK_XREC_LAYER_RECONCILED
360
6562F
  0
DICTIONARY
  5
65630
330
94E
100
AcDbDictionary
280
     1
281
     1
  3
ADSK_XREC_LAYER_RECONCILED
360
65631
  0
DICTIONARY
  5
65632
330
94F
100
AcDbDictionary
280
     1
281
     1
  3
ADSK_XREC_LAYER_RECONCILED
360
65633
  0
DICTIONARY
  5
65634
330
950
100
AcDbDictionary
280
     1
281
     1
  3
ADSK_XREC_LAYER_RECONCILED
360
65635
  0
DICTIONARY
  5
65636
330
951
100
AcDbDictionary
280
     1
281
     1
  3
ADSK_XREC_LAYER_RECONCILED
360
65637
  0
DICTIONARY
  5
65638
330
952
100
AcDbDictionary
280
     1
281
     1
  3
ADSK_XREC_LAYER_RECONCILED
360
65639
  0
DICTIONARY
  5
6563A
330
953
100
AcDbDictionary
280
     1
281
     1
  3
ADSK_XREC_LAYER_RECONCILED
360
6563B
  0
DICTIONARY
  5
6563C
330
8C49
100
AcDbDictionary
280
     1
281
     1
  3
ADSK_XREC_LAYER_RECONCILED
360
6563D
  0
DICTIONARY
  5
6563E
330
8C4C
100
AcDbDictionary
280
     1
281
     1
  3
ADSK_XREC_LAYER_RECONCILED
360
6563F
  0
DICTIONARY
  5
65640
330
8C4F
100
AcDbDictionary
280
     1
281
     1
  3
ADSK_XREC_LAYER_RECONCILED
360
65641
  0
DICTIONARY
  5
65642
330
8C52
100
AcDbDictionary
280
     1
281
     1
  3
ADSK_XREC_LAYER_RECONCILED
360
65643
  0
DICTIONARY
  5
65644
330
8C55
100
AcDbDictionary
280
     1
281
     1
  3
ADSK_XREC_LAYER_RECONCILED
360
65645
  0
DICTIONARY
  5
65646
330
8C58
100
AcDbDictionary
280
     1
281
     1
  3
ADSK_XREC_LAYER_RECONCILED
360
65647
  0
DICTIONARY
  5
65648
330
8C5B
100
AcDbDictionary
280
     1
281
     1
  3
ADSK_XREC_LAYER_RECONCILED
360
65649
  0
DICTIONARY
  5
6564A
330
8C5E
100
AcDbDictionary
280
     1
281
     1
  3
ADSK_XREC_LAYER_RECONCILED
360
6564B
  0
DICTIONARY
  5
6564C
330
8C61
100
AcDbDictionary
280
     1
281
     1
  3
ADSK_XREC_LAYER_RECONCILED
360
6564D
  0
DICTIONARY
  5
6564E
330
8C64
100
AcDbDictionary
280
     1
281
     1
  3
ADSK_XREC_LAYER_RECONCILED
360
6564F
  0
DICTIONARY
  5
65650
330
8C67
100
AcDbDictionary
280
     1
281
     1
  3
ADSK_XREC_LAYER_RECONCILED
360
65651
  0
DICTIONARY
  5
65652
330
FD2D
100
AcDbDictionary
280
     1
281
     1
  3
ADSK_XREC_LAYER_RECONCILED
360
65653
  0
DICTIONARY
  5
65654
330
FD2E
100
AcDbDictionary
280
     1
281
     1
  3
ADSK_XREC_LAYER_RECONCILED
360
65655
  0
DICTIONARY
  5
65656
330
16D98
100
AcDbDictionary
280
     1
281
     1
  3
ADSK_XREC_LAYER_RECONCILED
360
65657
  0
DICTIONARY
  5
777
330
18
100
AcDbDictionary
280
     1
281
     1
  3
ACAD_LAYOUTSELFREF
360
3299
  0
DICTIONARY
  5
775
330
15
100
AcDbDictionary
280
     1
281
     1
  3
ACAD_LAYOUTSELFREF
360
3298
  0
XRECORD
  5
65610
102
{ACAD_REACTORS
330
C
102
}
330
C
100
AcDbXrecord
280
     1
300
ACD
300
2022
300

  0
DICTIONARY
  5
6504F
102
{ACAD_REACTORS
330
C
102
}
330
C
100
AcDbDictionary
281
     1
  0
DICTIONARY
  5
65603
102
{ACAD_REACTORS
330
C
102
}
330
C
100
AcDbDictionary
281
     1
  3
Metric50
350
65604
  0
DICTIONARY
  5
D
102
{ACAD_REACTORS
330
C
102
}
330
C
100
AcDbDictionary
281
     1
  0
DICTIONARY
  5
15E
102
{ACAD_REACTORS
330
C
102
}
330
C
100
AcDbDictionary
281
     1
  3
Model
350
160
  3
ﾚｲｱｳﾄ1
350
161
  0
DICTIONARY
  5
6503A
102
{ACAD_REACTORS
330
C
102
}
330
C
100
AcDbDictionary
281
     1
  3
ByBlock
350
6503C
  3
ByLayer
350
6503B
  3
Global
350
6503D
  0
DICTIONARY
  5
655FF
102
{ACAD_REACTORS
330
C
102
}
330
C
100
AcDbDictionary
281
     1
  3
Standard
350
65600
  0
DICTIONARY
  5
1B
102
{ACAD_REACTORS
330
C
102
}
330
C
100
AcDbDictionary
281
     1
  3
STANDARD
350
1C
  0
DICTIONARY
  5
15F
102
{ACAD_REACTORS
330
C
102
}
330
C
100
AcDbDictionary
281
     1
  0
ACDBDICTIONARYWDFLT
  5
15C
102
{ACAD_REACTORS
330
C
102
}
330
C
100
AcDbDictionary
281
     1
  3
Normal
350
15D
100
AcDbDictionaryWithDefault
340
15D
  0
DICTIONARY
  5
655ED
102
{ACAD_REACTORS
330
C
102
}
330
C
100
AcDbDictionary
281
     1
  3
A0
350
655EE
  3
A1
350
655EF
  3
A2
350
655F0
  3
A3
350
655F1
  3
A4
350
655F2
  3
A5
350
655F3
  3
A6
350
655F4
  3
A7
350
655F5
  3
A8
350
655F6
  3
A9
350
655F7
  3
B0
350
655F8
  3
B1
350
655F9
  3
B2
350
655FA
  3
B3
350
655FB
  3
B4
350
655FC
  3
B5
350
655FD
  3
B6
350
655FE
  0
DICTIONARY
  5
65601
102
{ACAD_REACTORS
330
C
102
}
330
C
100
AcDbDictionary
281
     1
  3
Metric50
350
65602
  0
DICTIONARY
  5
65050
102
{ACAD_REACTORS
330
C
102
}
330
C
100
AcDbDictionary
281
     1
  3
Standard
350
65051
  0
DICTIONARY
  5
6503E
102
{ACAD_REACTORS
330
C
102
}
330
C
100
AcDbDictionary
281
     1
  3
2dWireframe
350
65044
  3
3D Hidden
350
65046
  3
3dWireframe
350
65045
  3
Basic
350
65043
  3
Brighten
350
6504A
  3
ColorChange
350
6504E
  3
Conceptual
350
65047
  3
Dim
350
65049
  3
EdgeColorOff
350
655EC
  3
Facepattern
350
6504D
  3
Flat
350
6503F
  3
FlatWithEdges
350
65040
  3
Gouraud
350
65041
  3
GouraudWithEdges
350
65042
  3
Hidden
350
655E4
  3
JitterOff
350
655EA
  3
Linepattern
350
6504C
  3
OverhangOff
350
655EB
  3
Realistic
350
65048
  3
Shaded
350
655E9
  3
Shaded with edges
350
655E8
  3
Shades of Gray
350
655E5
  3
Sketchy
350
655E6
  3
Thicken
350
6504B
  3
Wireframe
350
655E3
  3
X-Ray
350
655E7
  0
XRECORD
  5
657A1
102
{ACAD_REACTORS
330
C
102
}
330
C
100
AcDbXrecord
280
     1
 90
        1
330
65051
  0
DICTIONARY
  5
12D
102
{ACAD_REACTORS
330
C
102
}
330
C
100
AcDbDictionary
281
     1
  3
CANNOSCALE
350
65663
  3
CMLEADERSTYLE
350
6565F
  3
CTABLESTYLE
350
65182
  3
CVIEWDETAILSTYLE
350
65660
  3
CVIEWSECTIONSTYLE
350
65661
  3
DIMASSOC
350
167
  3
INDEXCTL
350
65183
  3
LAYEREVAL
350
65665
  3
LAYERNOTIFY
350
65666
  3
LIGHTINGUNITS
350
65664
  3
MSLTSCALE
350
65662
  3
SORTENTS
350
12E
  0
DICTIONARY
  5
657A7
102
{ACAD_REACTORS
330
C
102
}
330
C
100
AcDbDictionary
281
     1
  3
AcDsRecords
350
657A9
  3
AcDsSchemas
350
657A8
1001
ACAD
1070
     2
  0
DICTIONARY
  5
1E75
102
{ACAD_REACTORS
330
1E74
102
}
330
1E74
100
AcDbDictionary
281
     1
  0
XRECORD
  5
6561B
102
{ACAD_REACTORS
330
6561A
102
}
330
6561A
100
AcDbXrecord
280
     1
290
     1
  0
XRECORD
  5
6561D
102
{ACAD_REACTORS
330
6561C
102
}
330
6561C
100
AcDbXrecord
280
     1
290
     1
  0
XRECORD
  5
6561F
102
{ACAD_REACTORS
330
6561E
102
}
330
6561E
100
AcDbXrecord
280
     1
290
     1
  0
XRECORD
  5
65621
102
{ACAD_REACTORS
330
65620
102
}
330
65620
100
AcDbXrecord
280
     1
290
     1
  0
XRECORD
  5
65623
102
{ACAD_REACTORS
330
65622
102
}
330
65622
100
AcDbXrecord
280
     1
290
     1
  0
XRECORD
  5
65625
102
{ACAD_REACTORS
330
65624
102
}
330
65624
100
AcDbXrecord
280
     1
290
     1
  0
XRECORD
  5
65627
102
{ACAD_REACTORS
330
65626
102
}
330
65626
100
AcDbXrecord
280
     1
290
     1
  0
XRECORD
  5
65629
102
{ACAD_REACTORS
330
65628
102
}
330
65628
100
AcDbXrecord
280
     1
290
     1
  0
XRECORD
  5
6562B
102
{ACAD_REACTORS
330
6562A
102
}
330
6562A
100
AcDbXrecord
280
     1
290
     1
  0
XRECORD
  5
6562D
102
{ACAD_REACTORS
330
6562C
102
}
330
6562C
100
AcDbXrecord
280
     1
290
     1
  0
XRECORD
  5
6562F
102
{ACAD_REACTORS
330
6562E
102
}
330
6562E
100
AcDbXrecord
280
     1
290
     1
  0
XRECORD
  5
65631
102
{ACAD_REACTORS
330
65630
102
}
330
65630
100
AcDbXrecord
280
     1
290
     1
  0
XRECORD
  5
65633
102
{ACAD_REACTORS
330
65632
102
}
330
65632
100
AcDbXrecord
280
     1
290
     1
  0
XRECORD
  5
65635
102
{ACAD_REACTORS
330
65634
102
}
330
65634
100
AcDbXrecord
280
     1
290
     1
  0
XRECORD
  5
65637
102
{ACAD_REACTORS
330
65636
102
}
330
65636
100
AcDbXrecord
280
     1
290
     1
  0
XRECORD
  5
65639
102
{ACAD_REACTORS
330
65638
102
}
330
65638
100
AcDbXrecord
280
     1
290
     1
  0
XRECORD
  5
6563B
102
{ACAD_REACTORS
330
6563A
102
}
330
6563A
100
AcDbXrecord
280
     1
290
     1
  0
XRECORD
  5
6563D
102
{ACAD_REACTORS
330
6563C
102
}
330
6563C
100
AcDbXrecord
280
     1
290
     1
  0
XRECORD
  5
6563F
102
{ACAD_REACTORS
330
6563E
102
}
330
6563E
100
AcDbXrecord
280
     1
290
     1
  0
XRECORD
  5
65641
102
{ACAD_REACTORS
330
65640
102
}
330
65640
100
AcDbXrecord
280
     1
290
     1
  0
XRECORD
  5
65643
102
{ACAD_REACTORS
330
65642
102
}
330
65642
100
AcDbXrecord
280
     1
290
     1
  0
XRECORD
  5
65645
102
{ACAD_REACTORS
330
65644
102
}
330
65644
100
AcDbXrecord
280
     1
290
     1
  0
XRECORD
  5
65647
102
{ACAD_REACTORS
330
65646
102
}
330
65646
100
AcDbXrecord
280
     1
290
     1
  0
XRECORD
  5
65649
102
{ACAD_REACTORS
330
65648
102
}
330
65648
100
AcDbXrecord
280
     1
290
     1
  0
XRECORD
  5
6564B
102
{ACAD_REACTORS
330
6564A
102
}
330
6564A
100
AcDbXrecord
280
     1
290
     1
  0
XRECORD
  5
6564D
102
{ACAD_REACTORS
330
6564C
102
}
330
6564C
100
AcDbXrecord
280
     1
290
     1
  0
XRECORD
  5
6564F
102
{ACAD_REACTORS
330
6564E
102
}
330
6564E
100
AcDbXrecord
280
     1
290
     1
  0
XRECORD
  5
65651
102
{ACAD_REACTORS
330
65650
102
}
330
65650
100
AcDbXrecord
280
     1
290
     1
  0
XRECORD
  5
65653
102
{ACAD_REACTORS
330
65652
102
}
330
65652
100
AcDbXrecord
280
     1
290
     1
  0
XRECORD
  5
65655
102
{ACAD_REACTORS
330
65654
102
}
330
65654
100
AcDbXrecord
280
     1
290
     1
  0
XRECORD
  5
65657
102
{ACAD_REACTORS
330
65656
102
}
330
65656
100
AcDbXrecord
280
     1
290
     1
  0
XRECORD
  5
3299
102
{ACAD_REACTORS
330
777
102
}
330
777
100
AcDbXrecord
280
     1
340
18
  0
XRECORD
  5
3298
102
{ACAD_REACTORS
330
775
102
}
330
775
100
AcDbXrecord
280
     1
340
15
  0
ACDBDETAILVIEWSTYLE
  5
65604
102
{ACAD_XDICTIONARY
360
657E2
102
}
102
{ACAD_REACTORS
330
65603
102
}
330
65603
100
AcDbModelDocViewStyle
 70
     0
  3
Metric50
290
     0
100
AcDbDetailViewStyle
 70
     0
 71
     0
 90
        3
 71
     1
340
F
 62
   256
 40
5.0
340
0
 62
   256
 40
5.0
300

 40
0.0
280
     1
 71
     2
340
14
 90
       25
 62
   256
 71
     3
340
F
 62
   256
 40
5.0
 90
        0
 40
15.0
 90
        1
300
%<\AcVar ViewDetailId>% (%<\AcVar ViewScale \f "%sn">%)
 71
     4
340
14
 90
       25
 62
   256
340
14
 90
       25
 62
   256
280
     0
  0
LAYOUT
  5
160
102
{ACAD_REACTORS
330
15E
102
}
330
15E
100
AcDbPlotSettings
  1

  2
LBP3970(開発用)
  4
A4
  6

 40
5.873749732971191
 41
5.873747825622558
 42
5.873748779296875
 43
5.873748779296875
 44
209.9733276367187
 45
296.9259948730469
 46
-5.459999999999999
 47
-5.299999999999999
 48
4116.004683487534
 49
-10135.27758700691
140
4536.004683487534
141
-9838.277587006906
142
1.0
143
1.419999999999999
 70
 11940
 72
     1
 73
     1
 74
     4
  7
1mizukoshi.ctb
 75
     0
147
0.7042253521126761
 76
     0
 77
     2
 78
   300
148
-4116.004683487534
149
10135.27758700691
100
AcDbLayout
  1
Model
 70
     1
 71
     0
 10
0.0
 20
0.0
 11
12.0
 21
9.0
 12
0.0
 22
0.0
 32
0.0
 14
0.0
 24
0.0
 34
0.0
 15
0.0
 25
0.0
 35
0.0
146
0.0
 13
0.0
 23
0.0
 33
0.0
 16
1.0
 26
0.0
 36
0.0
 17
0.0
 27
1.0
 37
0.0
 76
     0
330
18
331
655E1
1001
ACAD_PSEXT
1000
LBP3970
1000
Canon LBP3920/3970 LIPSLX
1000
IP_192.168.180.205
1000

1070
     0
  0
LAYOUT
  5
161
102
{ACAD_REACTORS
330
15E
102
}
330
15E
100
AcDbPlotSettings
  1

  2
none_device
  4
Letter_(8.50_x_11.00_Inches)
  6

 40
6.349999904632568
 41
6.349999904632568
 42
6.350006103515625
 43
6.350006103515625
 44
215.8999938964844
 45
279.3999938964844
 46
0.0
 47
0.0
 48
0.0
 49
0.0
140
0.0
141
0.0
142
1.0
143
1.0
 70
   688
 72
     1
 73
     1
 74
     5
  7
INABA-CAD-Canon.ctb
 75
    16
147
1.0
 76
     0
 77
     2
 78
   300
148
0.0
149
0.0
100
AcDbLayout
  1
ﾚｲｱｳﾄ1
 70
     1
 71
     1
 10
-6.350006103515625
 20
-6.349999904632568
 11
273.0499877929688
 21
209.5499939918518
 12
0.0
 22
0.0
 32
0.0
 14
26.66999878883363
 24
20.31999878883363
 34
0.0
 15
240.0299890995026
 25
182.8799890995025
 35
0.0
146
0.0
 13
0.0
 23
0.0
 33
0.0
 16
1.0
 26
0.0
 36
0.0
 17
0.0
 27
1.0
 37
0.0
 76
     0
330
15
331
6442E
  0
MATERIAL
  5
6503C
102
{ACAD_REACTORS
330
6503A
102
}
330
6503A
100
AcDbMaterial
  1
ByBlock
 73
     1
 78
     1
172
     1
176
     1
270
     1
274
     1
 94
       63
  0
MATERIAL
  5
6503B
102
{ACAD_REACTORS
330
6503A
102
}
330
6503A
100
AcDbMaterial
  1
ByLayer
 73
     1
 78
     1
172
     1
176
     1
270
     1
274
     1
 94
       63
  0
MATERIAL
  5
6503D
102
{ACAD_REACTORS
330
6503A
102
}
330
6503A
100
AcDbMaterial
  1
Global
 73
     1
 78
     1
172
     1
176
     1
270
     1
274
     1
 94
       63
  0
MLEADERSTYLE
  5
65600
102
{ACAD_XDICTIONARY
360
657DE
102
}
102
{ACAD_REACTORS
330
655FF
102
}
330
655FF
100
AcDbMLeaderStyle
179
     2
170
     2
171
     1
172
     0
 90
        2
 40
0.0
 41
0.0
173
     1
 91
-1056964608
340
12
 92
       -2
290
     1
 42
2.0
291
     1
 43
0.36
  3
Standard
 44
4.0
300

342
F
174
     1
178
     6
175
     1
176
     0
 93
-1056964608
 45
4.0
292
     0
297
     0
 46
4.0
 94
-1056964608
 47
1.0
 49
1.0
140
1.0
293
     1
141
0.0
294
     1
177
     0
142
1.0
295
     0
296
     0
143
0.125
271
     0
272
     9
273
     9
  0
MLINESTYLE
  5
1C
102
{ACAD_REACTORS
330
1B
102
}
330
1B
100
AcDbMlineStyle
  2
STANDARD
 70
     0
  3

 62
   256
 51
90.0
 52
90.0
 71
     2
 49
0.5
 62
   256
  6
BYLAYER
 49
-0.5
 62
   256
  6
BYLAYER
  0
ACDBPLACEHOLDER
  5
15D
102
{ACAD_REACTORS
330
15C
102
}
330
15C
  0
SCALE
  5
655EE
102
{ACAD_REACTORS
330
655ED
102
}
330
655ED
100
AcDbScale
 70
     0
300
1:1
140
1.0
141
1.0
290
     1
  0
SCALE
  5
655EF
102
{ACAD_REACTORS
330
655ED
102
}
330
655ED
100
AcDbScale
 70
     0
300
1:2
140
1.0
141
2.0
290
     0
  0
SCALE
  5
655F0
102
{ACAD_REACTORS
330
655ED
102
}
330
655ED
100
AcDbScale
 70
     0
300
1:4
140
1.0
141
4.0
290
     0
  0
SCALE
  5
655F1
102
{ACAD_REACTORS
330
655ED
102
}
330
655ED
100
AcDbScale
 70
     0
300
1:5
140
1.0
141
5.0
290
     0
  0
SCALE
  5
655F2
102
{ACAD_REACTORS
330
655ED
102
}
330
655ED
100
AcDbScale
 70
     0
300
1:8
140
1.0
141
8.0
290
     0
  0
SCALE
  5
655F3
102
{ACAD_REACTORS
330
655ED
102
}
330
655ED
100
AcDbScale
 70
     0
300
1:10
140
1.0
141
10.0
290
     0
  0
SCALE
  5
655F4
102
{ACAD_REACTORS
330
655ED
102
}
330
655ED
100
AcDbScale
 70
     0
300
1:16
140
1.0
141
16.0
290
     0
  0
SCALE
  5
655F5
102
{ACAD_REACTORS
330
655ED
102
}
330
655ED
100
AcDbScale
 70
     0
300
1:20
140
1.0
141
20.0
290
     0
  0
SCALE
  5
655F6
102
{ACAD_REACTORS
330
655ED
102
}
330
655ED
100
AcDbScale
 70
     0
300
1:30
140
1.0
141
30.0
290
     0
  0
SCALE
  5
655F7
102
{ACAD_REACTORS
330
655ED
102
}
330
655ED
100
AcDbScale
 70
     0
300
1:40
140
1.0
141
40.0
290
     0
  0
SCALE
  5
655F8
102
{ACAD_REACTORS
330
655ED
102
}
330
655ED
100
AcDbScale
 70
     0
300
1:50
140
1.0
141
50.0
290
     0
  0
SCALE
  5
655F9
102
{ACAD_REACTORS
330
655ED
102
}
330
655ED
100
AcDbScale
 70
     0
300
1:100
140
1.0
141
100.0
290
     0
  0
SCALE
  5
655FA
102
{ACAD_REACTORS
330
655ED
102
}
330
655ED
100
AcDbScale
 70
     0
300
2:1
140
2.0
141
1.0
290
     0
  0
SCALE
  5
655FB
102
{ACAD_REACTORS
330
655ED
102
}
330
655ED
100
AcDbScale
 70
     0
300
4:1
140
4.0
141
1.0
290
     0
  0
SCALE
  5
655FC
102
{ACAD_REACTORS
330
655ED
102
}
330
655ED
100
AcDbScale
 70
     0
300
8:1
140
8.0
141
1.0
290
     0
  0
SCALE
  5
655FD
102
{ACAD_REACTORS
330
655ED
102
}
330
655ED
100
AcDbScale
 70
     0
300
10:1
140
10.0
141
1.0
290
     0
  0
SCALE
  5
655FE
102
{ACAD_REACTORS
330
655ED
102
}
330
655ED
100
AcDbScale
 70
     0
300
100:1
140
100.0
141
1.0
290
     0
  0
ACDBSECTIONVIEWSTYLE
  5
65602
102
{ACAD_XDICTIONARY
360
657E0
102
}
102
{ACAD_REACTORS
330
65601
102
}
330
65601
100
AcDbModelDocViewStyle
 70
     0
  3
Metric50
290
     0
100
AcDbSectionViewStyle
 70
     0
 71
     0
 90
      102
 71
     1
340
F
 62
   256
 40
5.0
340
0
340
0
 62
   256
 40
5.0
300
I, O, Q, S, X, Z
 40
10.0
 90
        0
 40
2.5
 90
        0
 71
     2
340
14
 90
       25
 62
   256
340
14
 90
       50
 62
   256
 40
5.0
 40
2.5
 40
5.0
 71
     3
340
F
 62
   256
 40
5.0
 90
        0
 40
15.0
 90
        1
300
%<\AcVar ViewSectionStartId>%-%<\AcVar ViewSectionEndId>% (%<\AcVar ViewScale \f "%sn">%)
 71
     4
 62
   256
 62
   257
300
ANSI31
 40
1.0
 90
        0
290
     0
290
     0
 90
        6
 40
0.0
 40
1.570796326794896
 40
0.2617993877991494
 40
1.308996938995747
 40
-0.2617993877991494
 40
1.832595714594046
  0
TABLESTYLE
  5
65051
102
{ACAD_XDICTIONARY
360
6579F
102
}
102
{ACAD_REACTORS
330
65050
102
}
330
65050
100
AcDbTableStyle
280
     0
  3
Standard
 70
     0
 71
     0
 40
1.5
 41
1.5
280
     0
281
     0
  7
STANDARD
140
4.5
170
     2
 62
     0
 63
     7
283
     0
 90
      512
 91
        0
  1

274
    -2
284
     1
 64
     0
275
    -2
285
     1
 65
     0
276
    -2
286
     1
 66
     0
277
    -2
287
     1
 67
     0
278
    -2
288
     1
 68
     0
279
    -2
289
     1
 69
     0
  7
STANDARD
140
6.0
170
     5
 62
     0
 63
     7
283
     0
 90
      512
 91
        0
  1

274
    -2
284
     1
 64
     0
275
    -2
285
     1
 65
     0
276
    -2
286
     1
 66
     0
277
    -2
287
     1
 67
     0
278
    -2
288
     1
 68
     0
279
    -2
289
     1
 69
     0
  7
STANDARD
140
4.5
170
     5
 62
     0
 63
     7
283
     0
 90
      512
 91
        0
  1

274
    -2
284
     1
 64
     0
275
    -2
285
     1
 65
     0
276
    -2
286
     1
 66
     0
277
    -2
287
     1
 67
     0
278
    -2
288
     1
 68
     0
279
    -2
289
     1
 69
     0
  0
VISUALSTYLE
  5
65044
102
{ACAD_XDICTIONARY
360
657B4
102
}
102
{ACAD_REACTORS
330
6503E
102
}
330
6503E
100
AcDbVisualStyle
  2
2dWireframe
 70
     4
177
     2
291
     0
 71
     0
176
     1
 72
     2
176
     1
 73
     0
176
     1
 90
        0
176
     1
 40
0.6
176
     1
 41
30.0
176
     1
 63
     7
176
     1
 74
     1
176
     1
 91
        4
176
     1
 64
     7
176
     1
 65
   257
176
     1
 75
     1
176
     1
175
     1
176
     1
 42
1.0
176
     1
 92
        0
176
     1
 66
   257
176
     1
 43
1.0
176
     1
 76
     1
176
     1
 77
     6
176
     1
 78
     2
176
     1
 67
     7
176
     1
 79
     5
176
     1
170
     0
176
     1
171
     0
176
     1
290
     0
176
     1
 93
        1
176
     1
 44
0.0
176
     1
173
     0
176
     1
1001
ACAD
1000
AcDbSavedByObjectVersion
1070
     0
  0
VISUALSTYLE
  5
65046
102
{ACAD_XDICTIONARY
360
657B8
102
}
102
{ACAD_REACTORS
330
6503E
102
}
330
6503E
100
AcDbVisualStyle
  2
3D Hidden
 70
     6
177
     2
291
     0
 71
     1
176
     1
 72
     2
176
     1
 73
     2
176
     1
 90
        0
176
     1
 40
0.6
176
     1
 41
30.0
176
     1
 63
     7
176
     1
 74
     2
176
     1
 91
        2
176
     1
 64
     7
176
     1
 65
   257
176
     1
 75
     2
176
     1
175
     1
176
     1
 42
40.0
176
     1
 92
        0
176
     1
 66
   257
176
     1
 43
1.0
176
     1
 76
     1
176
     1
 77
     6
176
     1
 78
     2
176
     1
 67
     7
176
     1
 79
     3
176
     1
170
     0
176
     1
171
     0
176
     1
290
     0
176
     1
 93
        1
176
     1
 44
0.0
176
     1
173
     0
176
     1
1001
ACAD
1000
AcDbSavedByObjectVersion
1070
     0
  0
VISUALSTYLE
  5
65045
102
{ACAD_XDICTIONARY
360
657B6
102
}
102
{ACAD_REACTORS
330
6503E
102
}
330
6503E
100
AcDbVisualStyle
  2
3dWireframe
 70
     5
177
     2
291
     0
 71
     0
176
     1
 72
     2
176
     1
 73
     0
176
     1
 90
        0
176
     1
 40
0.6
176
     1
 41
30.0
176
     1
 63
     7
176
     1
 74
     1
176
     1
 91
        4
176
     1
 64
     7
176
     1
 65
   257
176
     1
 75
     1
176
     1
175
     1
176
     1
 42
1.0
176
     1
 92
        0
176
     1
 66
   257
176
     1
 43
1.0
176
     1
 76
     1
176
     1
 77
     6
176
     1
 78
     2
176
     1
 67
     7
176
     1
 79
     5
176
     1
170
     0
176
     1
171
     0
176
     1
290
     0
176
     1
 93
        1
176
     1
 44
0.0
176
     1
173
     0
176
     1
1001
ACAD
1000
AcDbSavedByObjectVersion
1070
     0
  0
VISUALSTYLE
  5
65043
102
{ACAD_XDICTIONARY
360
657B2
102
}
102
{ACAD_REACTORS
330
6503E
102
}
330
6503E
100
AcDbVisualStyle
  2
Basic
 70
     7
177
     2
291
     1
 71
     1
176
     1
 72
     0
176
     1
 73
     1
176
     1
 90
        0
176
     1
 40
0.6
176
     1
 41
30.0
176
     1
 63
     7
176
     1
 74
     0
176
     1
 91
        4
176
     1
 64
     7
176
     1
 65
   257
176
     1
 75
     1
176
     1
175
     1
176
     1
 42
1.0
176
     1
 92
        8
176
     1
 66
     7
176
     1
 43
1.0
176
     1
 76
     1
176
     1
 77
     6
176
     1
 78
     2
176
     1
 67
     7
176
     1
 79
     5
176
     1
170
     0
176
     1
171
     0
176
     1
290
     0
176
     1
 93
        1
176
     1
 44
0.0
176
     1
173
     0
176
     1
1001
ACAD
1000
AcDbSavedByObjectVersion
1070
     0
  0
VISUALSTYLE
  5
6504A
102
{ACAD_XDICTIONARY
360
657C0
102
}
102
{ACAD_REACTORS
330
6503E
102
}
330
6503E
100
AcDbVisualStyle
  2
Brighten
 70
    12
177
     2
291
     1
 71
     2
176
     1
 72
     2
176
     1
 73
     0
176
     1
 90
        0
176
     1
 40
0.6
176
     1
 41
30.0
176
     1
 63
     7
176
     1
 74
     1
176
     1
 91
        4
176
     1
 64
     7
176
     1
 65
   257
176
     1
 75
     1
176
     1
175
     1
176
     1
 42
1.0
176
     1
 92
        8
176
     1
 66
     7
176
     1
 43
1.0
176
     1
 76
     1
176
     1
 77
     6
176
     1
 78
     2
176
     1
 67
     7
176
     1
 79
     5
176
     1
170
     0
176
     1
171
     0
176
     1
290
     0
176
     1
 93
        1
176
     1
 44
50.0
176
     1
173
     0
176
     1
1001
ACAD
1000
AcDbSavedByObjectVersion
1070
     0
  0
VISUALSTYLE
  5
6504E
102
{ACAD_XDICTIONARY
360
657C8
102
}
102
{ACAD_REACTORS
330
6503E
102
}
330
6503E
100
AcDbVisualStyle
  2
ColorChange
 70
    16
177
     2
291
     1
 71
     2
176
     1
 72
     2
176
     1
 73
     3
176
     1
 90
        0
176
     1
 40
0.6
176
     1
 41
30.0
176
     1
 63
     8
176
     1
 74
     1
176
     1
 91
        4
176
     1
 64
     7
176
     1
 65
   257
176
     1
 75
     1
176
     1
175
     1
176
     1
 42
1.0
176
     1
 92
        8
176
     1
 66
     8
176
     1
 43
1.0
176
     1
 76
     1
176
     1
 77
     6
176
     1
 78
     2
176
     1
 67
     7
176
     1
 79
     5
176
     1
170
     0
176
     1
171
     0
176
     1
290
     0
176
     1
 93
        1
176
     1
 44
0.0
176
     1
173
     0
176
     1
1001
ACAD
1000
AcDbSavedByObjectVersion
1070
     0
  0
VISUALSTYLE
  5
65047
102
{ACAD_XDICTIONARY
360
657BA
102
}
102
{ACAD_REACTORS
330
6503E
102
}
330
6503E
100
AcDbVisualStyle
  2
Conceptual
 70
     9
177
     2
291
     0
 71
     3
176
     1
 72
     2
176
     1
 73
     0
176
     1
 90
        0
176
     1
 40
0.6
176
     1
 41
30.0
176
     1
 63
     7
176
     1
 74
     2
176
     1
 91
        2
176
     1
 64
     7
176
     1
 65
   257
176
     1
 75
     1
176
     1
175
     1
176
     1
 42
40.0
176
     1
 92
        8
176
     1
 66
     7
176
     1
 43
1.0
176
     1
 76
     1
176
     1
 77
     6
176
     1
 78
     2
176
     1
 67
     7
176
     1
 79
     3
176
     1
170
     0
176
     1
171
     0
176
     1
290
     0
176
     1
 93
        1
176
     1
 44
0.0
176
     1
173
     0
176
     1
1001
ACAD
1000
AcDbSavedByObjectVersion
1070
     0
  0
VISUALSTYLE
  5
65049
102
{ACAD_XDICTIONARY
360
657BE
102
}
102
{ACAD_REACTORS
330
6503E
102
}
330
6503E
100
AcDbVisualStyle
  2
Dim
 70
    11
177
     2
291
     1
 71
     2
176
     1
 72
     2
176
     1
 73
     0
176
     1
 90
        0
176
     1
 40
0.6
176
     1
 41
30.0
176
     1
 63
     7
176
     1
 74
     1
176
     1
 91
        4
176
     1
 64
     7
176
     1
 65
   257
176
     1
 75
     1
176
     1
175
     1
176
     1
 42
1.0
176
     1
 92
        8
176
     1
 66
     7
176
     1
 43
1.0
176
     1
 76
     1
176
     1
 77
     6
176
     1
 78
     2
176
     1
 67
     7
176
     1
 79
     5
176
     1
170
     0
176
     1
171
     0
176
     1
290
     0
176
     1
 93
        1
176
     1
 44
-50.0
176
     1
173
     0
176
     1
1001
ACAD
1000
AcDbSavedByObjectVersion
1070
     0
  0
VISUALSTYLE
  5
655EC
102
{ACAD_XDICTIONARY
360
657DC
102
}
102
{ACAD_REACTORS
330
6503E
102
}
330
6503E
100
AcDbVisualStyle
  2
EdgeColorOff
 70
    22
177
     2
291
     1
 71
     2
176
     0
 72
     2
176
     0
 73
     0
176
     0
 90
        0
176
     0
 40
0.6
176
     0
 41
30.0
176
     0
 63
     7
421
 16777215
176
     0
 74
     1
176
     0
 91
        4
176
     0
 64
     7
176
     0
 65
   257
176
     0
 75
     1
176
     0
175
     1
176
     0
 42
1.0
176
     0
 92
        8
176
     2
 66
     7
176
     0
 43
1.0
176
     0
 76
     1
176
     0
 77
     6
176
     0
 78
     2
176
     0
 67
     7
176
     0
 79
     5
176
     0
170
     0
176
     0
171
     0
176
     0
290
     0
176
     0
 93
        1
176
     0
 44
0.0
176
     0
173
     0
176
     0
1001
ACAD
1000
AcDbSavedByObjectVersion
1070
     0
  0
VISUALSTYLE
  5
6504D
102
{ACAD_XDICTIONARY
360
657C6
102
}
102
{ACAD_REACTORS
330
6503E
102
}
330
6503E
100
AcDbVisualStyle
  2
Facepattern
 70
    15
177
     2
291
     1
 71
     2
176
     1
 72
     2
176
     1
 73
     0
176
     1
 90
        0
176
     1
 40
0.6
176
     1
 41
30.0
176
     1
 63
     7
176
     1
 74
     1
176
     1
 91
        4
176
     1
 64
     7
176
     1
 65
   257
176
     1
 75
     1
176
     1
175
     1
176
     1
 42
1.0
176
     1
 92
        8
176
     1
 66
     7
176
     1
 43
1.0
176
     1
 76
     1
176
     1
 77
     6
176
     1
 78
     2
176
     1
 67
     7
176
     1
 79
     5
176
     1
170
     0
176
     1
171
     0
176
     1
290
     0
176
     1
 93
        1
176
     1
 44
0.0
176
     1
173
     0
176
     1
1001
ACAD
1000
AcDbSavedByObjectVersion
1070
     0
  0
VISUALSTYLE
  5
6503F
102
{ACAD_XDICTIONARY
360
657AA
102
}
102
{ACAD_REACTORS
330
6503E
102
}
330
6503E
100
AcDbVisualStyle
  2
Flat
 70
     0
177
     2
291
     1
 71
     2
176
     1
 72
     1
176
     1
 73
     1
176
     1
 90
        2
176
     1
 40
0.6
176
     1
 41
30.0
176
     1
 63
     7
176
     1
 74
     0
176
     1
 91
        4
176
     1
 64
     7
176
     1
 65
   257
176
     1
 75
     1
176
     1
175
     1
176
     1
 42
1.0
176
     1
 92
        8
176
     1
 66
     7
176
     1
 43
1.0
176
     1
 76
     1
176
     1
 77
     6
176
     1
 78
     2
176
     1
 67
     7
176
     1
 79
     5
176
     1
170
     0
176
     1
171
     0
176
     1
290
     0
176
     1
 93
       13
176
     1
 44
0.0
176
     1
173
     0
176
     1
1001
ACAD
1000
AcDbSavedByObjectVersion
1070
     0
  0
VISUALSTYLE
  5
65040
102
{ACAD_XDICTIONARY
360
657AC
102
}
102
{ACAD_REACTORS
330
6503E
102
}
330
6503E
100
AcDbVisualStyle
  2
FlatWithEdges
 70
     1
177
     2
291
     1
 71
     2
176
     1
 72
     1
176
     1
 73
     1
176
     1
 90
        2
176
     1
 40
0.6
176
     1
 41
30.0
176
     1
 63
     7
176
     1
 74
     1
176
     1
 91
        4
176
     1
 64
     7
176
     1
 65
   257
176
     1
 75
     1
176
     1
175
     1
176
     1
 42
1.0
176
     1
 92
        0
176
     1
 66
   257
176
     1
 43
1.0
176
     1
 76
     1
176
     1
 77
     6
176
     1
 78
     2
176
     1
 67
     7
176
     1
 79
     5
176
     1
170
     0
176
     1
171
     0
176
     1
290
     0
176
     1
 93
       13
176
     1
 44
0.0
176
     1
173
     0
176
     1
1001
ACAD
1000
AcDbSavedByObjectVersion
1070
     0
  0
VISUALSTYLE
  5
65041
102
{ACAD_XDICTIONARY
360
657AE
102
}
102
{ACAD_REACTORS
330
6503E
102
}
330
6503E
100
AcDbVisualStyle
  2
Gouraud
 70
     2
177
     2
291
     1
 71
     2
176
     1
 72
     2
176
     1
 73
     1
176
     1
 90
        2
176
     1
 40
0.6
176
     1
 41
30.0
176
     1
 63
     7
176
     1
 74
     0
176
     1
 91
        4
176
     1
 64
     7
176
     1
 65
   257
176
     1
 75
     1
176
     1
175
     1
176
     1
 42
1.0
176
     1
 92
        0
176
     1
 66
     7
176
     1
 43
1.0
176
     1
 76
     1
176
     1
 77
     6
176
     1
 78
     2
176
     1
 67
     7
176
     1
 79
     5
176
     1
170
     0
176
     1
171
     0
176
     1
290
     0
176
     1
 93
       13
176
     1
 44
0.0
176
     1
173
     0
176
     1
1001
ACAD
1000
AcDbSavedByObjectVersion
1070
     0
  0
VISUALSTYLE
  5
65042
102
{ACAD_XDICTIONARY
360
657B0
102
}
102
{ACAD_REACTORS
330
6503E
102
}
330
6503E
100
AcDbVisualStyle
  2
GouraudWithEdges
 70
     3
177
     2
291
     1
 71
     2
176
     1
 72
     2
176
     1
 73
     1
176
     1
 90
        2
176
     1
 40
0.6
176
     1
 41
30.0
176
     1
 63
     7
176
     1
 74
     1
176
     1
 91
        4
176
     1
 64
     7
176
     1
 65
   257
176
     1
 75
     1
176
     1
175
     1
176
     1
 42
1.0
176
     1
 92
        0
176
     1
 66
   257
176
     1
 43
1.0
176
     1
 76
     1
176
     1
 77
     6
176
     1
 78
     2
176
     1
 67
     7
176
     1
 79
     5
176
     1
170
     0
176
     1
171
     0
176
     1
290
     0
176
     1
 93
       13
176
     1
 44
0.0
176
     1
173
     0
176
     1
1001
ACAD
1000
AcDbSavedByObjectVersion
1070
     0
  0
VISUALSTYLE
  5
655E4
102
{ACAD_XDICTIONARY
360
657CC
102
}
102
{ACAD_REACTORS
330
6503E
102
}
330
6503E
100
AcDbVisualStyle
  2
Hidden
 70
     6
177
     2
291
     0
 71
     1
176
     1
 72
     2
176
     1
 73
     2
176
     1
 90
        0
176
     1
 40
0.6
176
     1
 41
30.0
176
     1
 63
     7
421
 16777215
176
     1
 74
     2
176
     1
 91
        2
176
     1
 64
     7
176
     1
 65
   257
176
     1
 75
     2
176
     1
175
     1
176
     1
 42
40.0
176
     1
 92
        0
176
     1
 66
   257
176
     1
 43
1.0
176
     1
 76
     1
176
     1
 77
     6
176
     1
 78
     2
176
     1
 67
     7
176
     1
 79
     3
176
     1
170
     0
176
     1
171
     0
176
     1
290
     0
176
     1
 93
        1
176
     1
 44
0.0
176
     1
173
     0
176
     1
1001
ACAD
1000
AcDbSavedByObjectVersion
1070
     0
  0
VISUALSTYLE
  5
655EA
102
{ACAD_XDICTIONARY
360
657D8
102
}
102
{ACAD_REACTORS
330
6503E
102
}
330
6503E
100
AcDbVisualStyle
  2
JitterOff
 70
    20
177
     2
291
     1
 71
     2
176
     0
 72
     2
176
     0
 73
     0
176
     0
 90
        0
176
     0
 40
0.6
176
     0
 41
30.0
176
     0
 63
     7
421
 16777215
176
     0
 74
     1
176
     0
 91
        4
176
     0
 64
     7
176
     0
 65
   257
176
     0
 75
     1
176
     0
175
     1
176
     0
 42
1.0
176
     0
 92
       10
176
     2
 66
     7
176
     0
 43
1.0
176
     0
 76
     1
176
     0
 77
     6
176
     0
 78
     2
176
     0
 67
     7
176
     0
 79
     5
176
     0
170
     0
176
     0
171
     0
176
     0
290
     0
176
     0
 93
        1
176
     0
 44
0.0
176
     0
173
     0
176
     0
1001
ACAD
1000
AcDbSavedByObjectVersion
1070
     0
  0
VISUALSTYLE
  5
6504C
102
{ACAD_XDICTIONARY
360
657C4
102
}
102
{ACAD_REACTORS
330
6503E
102
}
330
6503E
100
AcDbVisualStyle
  2
Linepattern
 70
    14
177
     2
291
     1
 71
     2
176
     1
 72
     2
176
     1
 73
     0
176
     1
 90
        0
176
     1
 40
0.6
176
     1
 41
30.0
176
     1
 63
     7
176
     1
 74
     1
176
     1
 91
        4
176
     1
 64
     7
176
     1
 65
   257
176
     1
 75
     7
176
     1
175
     7
176
     1
 42
1.0
176
     1
 92
        8
176
     1
 66
     7
176
     1
 43
1.0
176
     1
 76
     1
176
     1
 77
     6
176
     1
 78
     2
176
     1
 67
     7
176
     1
 79
     5
176
     1
170
     0
176
     1
171
     0
176
     1
290
     0
176
     1
 93
        1
176
     1
 44
0.0
176
     1
173
     0
176
     1
1001
ACAD
1000
AcDbSavedByObjectVersion
1070
     0
  0
VISUALSTYLE
  5
655EB
102
{ACAD_XDICTIONARY
360
657DA
102
}
102
{ACAD_REACTORS
330
6503E
102
}
330
6503E
100
AcDbVisualStyle
  2
OverhangOff
 70
    21
177
     2
291
     1
 71
     2
176
     0
 72
     2
176
     0
 73
     0
176
     0
 90
        0
176
     0
 40
0.6
176
     0
 41
30.0
176
     0
 63
     7
421
 16777215
176
     0
 74
     1
176
     0
 91
        4
176
     0
 64
     7
176
     0
 65
   257
176
     0
 75
     1
176
     0
175
     1
176
     0
 42
1.0
176
     0
 92
        9
176
     2
 66
     7
176
     0
 43
1.0
176
     0
 76
     1
176
     0
 77
     6
176
     0
 78
     2
176
     0
 67
     7
176
     0
 79
     5
176
     0
170
     0
176
     0
171
     0
176
     0
290
     0
176
     0
 93
        1
176
     0
 44
0.0
176
     0
173
     0
176
     0
1001
ACAD
1000
AcDbSavedByObjectVersion
1070
     0
  0
VISUALSTYLE
  5
65048
102
{ACAD_XDICTIONARY
360
657BC
102
}
102
{ACAD_REACTORS
330
6503E
102
}
330
6503E
100
AcDbVisualStyle
  2
Realistic
 70
     8
177
     2
291
     0
 71
     2
176
     1
 72
     2
176
     1
 73
     0
176
     1
 90
        0
176
     1
 40
0.6
176
     1
 41
30.0
176
     1
 63
     7
176
     1
 74
     1
176
     1
 91
        0
176
     1
 64
     7
176
     1
 65
   257
176
     1
 75
     1
176
     1
175
     1
176
     1
 42
1.0
176
     1
 92
        8
176
     1
 66
     8
176
     1
 43
1.0
176
     1
 76
     1
176
     1
 77
     6
176
     1
 78
     2
176
     1
 67
     7
176
     1
 79
     5
176
     1
170
     0
176
     1
171
     0
176
     1
290
     0
176
     1
 93
       13
176
     1
 44
0.0
176
     1
173
     0
176
     1
1001
ACAD
1000
AcDbSavedByObjectVersion
1070
     0
  0
VISUALSTYLE
  5
655E9
102
{ACAD_XDICTIONARY
360
657D6
102
}
102
{ACAD_REACTORS
330
6503E
102
}
330
6503E
100
AcDbVisualStyle
  2
Shaded
 70
    27
177
     2
291
     0
 71
     2
176
     1
 72
     2
176
     1
 73
     1
176
     1
 90
        2
176
     1
 40
0.6
176
     1
 41
30.0
176
     1
 63
     7
421
 16777215
176
     1
 74
     0
176
     1
 91
        4
176
     1
 64
     7
176
     1
 65
   257
176
     1
 75
     1
176
     1
175
     1
176
     1
 42
1.0
176
     1
 92
        8
176
     1
 66
   257
176
     1
 43
1.0
176
     1
 76
     1
176
     1
 77
     6
176
     1
 78
     2
176
     1
 67
     8
425
  7895160
176
     1
 79
     3
176
     1
170
     0
176
     1
171
     0
176
     1
290
     0
176
     1
 93
        5
176
     1
 44
0.0
176
     1
173
     0
176
     1
1001
ACAD
1000
AcDbSavedByObjectVersion
1070
     0
  0
VISUALSTYLE
  5
655E8
102
{ACAD_XDICTIONARY
360
657D4
102
}
102
{ACAD_REACTORS
330
6503E
102
}
330
6503E
100
AcDbVisualStyle
  2
Shaded with edges
 70
    26
177
     2
291
     0
 71
     2
176
     1
 72
     2
176
     1
 73
     1
176
     1
 90
        2
176
     1
 40
0.6
176
     1
 41
30.0
176
     1
 63
     7
421
 16777215
176
     1
 74
     1
176
     1
 91
        2
176
     1
 64
     7
176
     1
 65
   257
176
     1
 75
     2
176
     1
175
     1
176
     1
 42
1.0
176
     1
 92
        8
176
     1
 66
   257
176
     1
 43
1.0
176
     1
 76
     1
176
     1
 77
     6
176
     1
 78
     2
176
     1
 67
     7
176
     1
 79
     3
176
     1
170
     0
176
     1
171
     0
176
     1
290
     0
176
     1
 93
        5
176
     1
 44
0.0
176
     1
173
     0
176
     1
1001
ACAD
1000
AcDbSavedByObjectVersion
1070
     0
  0
VISUALSTYLE
  5
655E5
102
{ACAD_XDICTIONARY
360
657CE
102
}
102
{ACAD_REACTORS
330
6503E
102
}
330
6503E
100
AcDbVisualStyle
  2
Shades of Gray
 70
    23
177
     2
291
     0
 71
     2
176
     1
 72
     2
176
     1
 73
     3
176
     1
 90
        0
176
     1
 40
0.6
176
     1
 41
30.0
176
     1
 63
     7
421
 16777215
176
     1
 74
     2
176
     1
 91
        2
176
     1
 64
     7
176
     1
 65
     7
176
     1
 75
     1
176
     1
175
     1
176
     1
 42
40.0
176
     1
 92
        8
176
     1
 66
     7
176
     1
 43
1.0
176
     1
 76
     1
176
     1
 77
     6
176
     1
 78
     2
176
     1
 67
     7
176
     1
 79
     3
176
     1
170
     0
176
     1
171
     0
176
     1
290
     0
176
     1
 93
        1
176
     1
 44
0.0
176
     1
173
     0
176
     1
1001
ACAD
1000
AcDbSavedByObjectVersion
1070
     0
  0
VISUALSTYLE
  5
655E6
102
{ACAD_XDICTIONARY
360
657D0
102
}
102
{ACAD_REACTORS
330
6503E
102
}
330
6503E
100
AcDbVisualStyle
  2
Sketchy
 70
    24
177
     2
291
     0
 71
     1
176
     1
 72
     2
176
     1
 73
     2
176
     1
 90
        0
176
     1
 40
0.6
176
     1
 41
30.0
176
     1
 63
     7
421
 16777215
176
     1
 74
     2
176
     1
 91
        2
176
     1
 64
     7
176
     1
 65
     7
176
     1
 75
     1
176
     1
175
     1
176
     1
 42
40.0
176
     1
 92
       11
176
     1
 66
     7
176
     1
 43
1.0
176
     1
 76
     1
176
     1
 77
     6
176
     1
 78
     2
176
     1
 67
     7
176
     1
 79
     6
176
     1
170
     0
176
     1
171
     0
176
     1
290
     0
176
     1
 93
        1
176
     1
 44
0.0
176
     1
173
     0
176
     1
1001
ACAD
1000
AcDbSavedByObjectVersion
1070
     0
  0
VISUALSTYLE
  5
6504B
102
{ACAD_XDICTIONARY
360
657C2
102
}
102
{ACAD_REACTORS
330
6503E
102
}
330
6503E
100
AcDbVisualStyle
  2
Thicken
 70
    13
177
     2
291
     1
 71
     2
176
     1
 72
     2
176
     1
 73
     0
176
     1
 90
        0
176
     1
 40
0.6
176
     1
 41
30.0
176
     1
 63
     7
176
     1
 74
     1
176
     1
 91
        4
176
     1
 64
     7
176
     1
 65
   257
176
     1
 75
     1
176
     1
175
     1
176
     1
 42
1.0
176
     1
 92
       12
176
     1
 66
     7
176
     1
 43
1.0
176
     1
 76
     1
176
     1
 77
     6
176
     1
 78
     2
176
     1
 67
     7
176
     1
 79
     5
176
     1
170
     0
176
     1
171
     0
176
     1
290
     0
176
     1
 93
        1
176
     1
 44
0.0
176
     1
173
     0
176
     1
1001
ACAD
1000
AcDbSavedByObjectVersion
1070
     0
  0
VISUALSTYLE
  5
655E3
102
{ACAD_XDICTIONARY
360
657CA
102
}
102
{ACAD_REACTORS
330
6503E
102
}
330
6503E
100
AcDbVisualStyle
  2
Wireframe
 70
     5
177
     2
291
     0
 71
     0
176
     1
 72
     2
176
     1
 73
     0
176
     1
 90
        0
176
     1
 40
0.6
176
     1
 41
30.0
176
     1
 63
     7
421
 16777215
176
     1
 74
     1
176
     1
 91
        4
176
     1
 64
     7
176
     1
 65
   257
176
     1
 75
     1
176
     1
175
     1
176
     1
 42
1.0
176
     1
 92
        0
176
     1
 66
   257
176
     1
 43
1.0
176
     1
 76
     1
176
     1
 77
     6
176
     1
 78
     2
176
     1
 67
     7
176
     1
 79
     3
176
     1
170
     0
176
     1
171
     0
176
     1
290
     0
176
     1
 93
        1
176
     1
 44
0.0
176
     1
173
     0
176
     1
1001
ACAD
1000
AcDbSavedByObjectVersion
1070
     0
  0
VISUALSTYLE
  5
655E7
102
{ACAD_XDICTIONARY
360
657D2
102
}
102
{ACAD_REACTORS
330
6503E
102
}
330
6503E
100
AcDbVisualStyle
  2
X-Ray
 70
    25
177
     2
291
     0
 71
     2
176
     1
 72
     2
176
     1
 73
     1
176
     1
 90
        1
176
     1
 40
0.5
176
     1
 41
30.0
176
     1
 63
     7
421
 16777215
176
     1
 74
     1
176
     1
 91
        0
176
     1
 64
     7
176
     1
 65
   257
176
     1
 75
     1
176
     1
175
     1
176
     1
 42
1.0
176
     1
 92
        8
176
     1
 66
     7
176
     1
 43
1.0
176
     1
 76
     1
176
     1
 77
     6
176
     1
 78
     2
176
     1
 67
     7
176
     1
 79
     3
176
     1
170
     0
176
     1
171
     0
176
     1
290
     0
176
     1
 93
       13
176
     1
 44
0.0
176
     1
173
     0
176
     1
1001
ACAD
1000
AcDbSavedByObjectVersion
1070
     0
  0
DICTIONARYVAR
  5
65663
102
{ACAD_REACTORS
330
12D
102
}
330
12D
100
DictionaryVariables
280
     0
  1
1:1
  0
DICTIONARYVAR
  5
6565F
102
{ACAD_REACTORS
330
12D
102
}
330
12D
100
DictionaryVariables
280
     0
  1
STANDARD
  0
DICTIONARYVAR
  5
65182
102
{ACAD_REACTORS
330
12D
102
}
330
12D
100
DictionaryVariables
280
     0
  1
STANDARD
  0
DICTIONARYVAR
  5
65660
102
{ACAD_REACTORS
330
12D
102
}
330
12D
100
DictionaryVariables
280
     0
  1
Metric50
  0
DICTIONARYVAR
  5
65661
102
{ACAD_REACTORS
330
12D
102
}
330
12D
100
DictionaryVariables
280
     0
  1
Metric50
  0
DICTIONARYVAR
  5
167
102
{ACAD_REACTORS
330
12D
102
}
330
12D
100
DictionaryVariables
280
     0
  1
1
  0
DICTIONARYVAR
  5
65183
102
{ACAD_REACTORS
330
12D
102
}
330
12D
100
DictionaryVariables
280
     0
  1
0
  0
DICTIONARYVAR
  5
65665
102
{ACAD_REACTORS
330
12D
102
}
330
12D
100
DictionaryVariables
280
     0
  1
1
  0
DICTIONARYVAR
  5
65666
102
{ACAD_REACTORS
330
12D
102
}
330
12D
100
DictionaryVariables
280
     0
  1
15
  0
DICTIONARYVAR
  5
65664
102
{ACAD_REACTORS
330
12D
102
}
330
12D
100
DictionaryVariables
280
     0
  1
0
  0
DICTIONARYVAR
  5
65662
102
{ACAD_REACTORS
330
12D
102
}
330
12D
100
DictionaryVariables
280
     0
  1
0
  0
DICTIONARYVAR
  5
12E
102
{ACAD_REACTORS
330
12D
102
}
330
12D
100
DictionaryVariables
280
     0
  1
1
  0
DICTIONARY
  5
657A9
102
{ACAD_REACTORS
330
657A7
102
}
330
657A7
100
AcDbDictionary
281
     1
  0
DICTIONARY
  5
657A8
102
{ACAD_REACTORS
330
657A7
102
}
330
657A7
100
AcDbDictionary
281
     1
  3
1674343475744
350
657A2
  3
1674343475760
350
657A3
  3
1674343475776
350
657A4
  3
1674343475792
350
657A5
  3
1674343475808
350
657A6
  0
DICTIONARY
  5
657E2
330
65604
100
AcDbDictionary
280
     1
281
     1
  3
ACAD_XREC_ROUNDTRIP
360
657E3
  0
DICTIONARY
  5
657DE
330
65600
100
AcDbDictionary
280
     1
281
     1
  3
ACAD_XREC_ROUNDTRIP
360
657DF
  0
DICTIONARY
  5
657E0
330
65602
100
AcDbDictionary
280
     1
281
     1
  3
ACAD_XREC_ROUNDTRIP
360
657E1
  0
DICTIONARY
  5
6579F
330
65051
100
AcDbDictionary
280
     1
281
     1
  3
ACAD_ROUNDTRIP_2008_TABLESTYLE_CELLSTYLEMAP
360
657A0
  0
DICTIONARY
  5
657B4
330
65044
100
AcDbDictionary
280
     1
281
     1
  3
ACAD_XREC_ROUNDTRIP
360
657B5
  0
DICTIONARY
  5
657B8
330
65046
100
AcDbDictionary
280
     1
281
     1
  3
ACAD_XREC_ROUNDTRIP
360
657B9
  0
DICTIONARY
  5
657B6
330
65045
100
AcDbDictionary
280
     1
281
     1
  3
ACAD_XREC_ROUNDTRIP
360
657B7
  0
DICTIONARY
  5
657B2
330
65043
100
AcDbDictionary
280
     1
281
     1
  3
ACAD_XREC_ROUNDTRIP
360
657B3
  0
DICTIONARY
  5
657C0
330
6504A
100
AcDbDictionary
280
     1
281
     1
  3
ACAD_XREC_ROUNDTRIP
360
657C1
  0
DICTIONARY
  5
657C8
330
6504E
100
AcDbDictionary
280
     1
281
     1
  3
ACAD_XREC_ROUNDTRIP
360
657C9
  0
DICTIONARY
  5
657BA
330
65047
100
AcDbDictionary
280
     1
281
     1
  3
ACAD_XREC_ROUNDTRIP
360
657BB
  0
DICTIONARY
  5
657BE
330
65049
100
AcDbDictionary
280
     1
281
     1
  3
ACAD_XREC_ROUNDTRIP
360
657BF
  0
DICTIONARY
  5
657DC
330
655EC
100
AcDbDictionary
280
     1
281
     1
  3
ACAD_XREC_ROUNDTRIP
360
657DD
  0
DICTIONARY
  5
657C6
330
6504D
100
AcDbDictionary
280
     1
281
     1
  3
ACAD_XREC_ROUNDTRIP
360
657C7
  0
DICTIONARY
  5
657AA
330
6503F
100
AcDbDictionary
280
     1
281
     1
  3
ACAD_XREC_ROUNDTRIP
360
657AB
  0
DICTIONARY
  5
657AC
330
65040
100
AcDbDictionary
280
     1
281
     1
  3
ACAD_XREC_ROUNDTRIP
360
657AD
  0
DICTIONARY
  5
657AE
330
65041
100
AcDbDictionary
280
     1
281
     1
  3
ACAD_XREC_ROUNDTRIP
360
657AF
  0
DICTIONARY
  5
657B0
330
65042
100
AcDbDictionary
280
     1
281
     1
  3
ACAD_XREC_ROUNDTRIP
360
657B1
  0
DICTIONARY
  5
657CC
330
655E4
100
AcDbDictionary
280
     1
281
     1
  3
ACAD_XREC_ROUNDTRIP
360
657CD
  0
DICTIONARY
  5
657D8
330
655EA
100
AcDbDictionary
280
     1
281
     1
  3
ACAD_XREC_ROUNDTRIP
360
657D9
  0
DICTIONARY
  5
657C4
330
6504C
100
AcDbDictionary
280
     1
281
     1
  3
ACAD_XREC_ROUNDTRIP
360
657C5
  0
DICTIONARY
  5
657DA
330
655EB
100
AcDbDictionary
280
     1
281
     1
  3
ACAD_XREC_ROUNDTRIP
360
657DB
  0
DICTIONARY
  5
657BC
330
65048
100
AcDbDictionary
280
     1
281
     1
  3
ACAD_XREC_ROUNDTRIP
360
657BD
  0
DICTIONARY
  5
657D6
330
655E9
100
AcDbDictionary
280
     1
281
     1
  3
ACAD_XREC_ROUNDTRIP
360
657D7
  0
DICTIONARY
  5
657D4
330
655E8
100
AcDbDictionary
280
     1
281
     1
  3
ACAD_XREC_ROUNDTRIP
360
657D5
  0
DICTIONARY
  5
657CE
330
655E5
100
AcDbDictionary
280
     1
281
     1
  3
ACAD_XREC_ROUNDTRIP
360
657CF
  0
DICTIONARY
  5
657D0
330
655E6
100
AcDbDictionary
280
     1
281
     1
  3
ACAD_XREC_ROUNDTRIP
360
657D1
  0
DICTIONARY
  5
657C2
330
6504B
100
AcDbDictionary
280
     1
281
     1
  3
ACAD_XREC_ROUNDTRIP
360
657C3
  0
DICTIONARY
  5
657CA
330
655E3
100
AcDbDictionary
280
     1
281
     1
  3
ACAD_XREC_ROUNDTRIP
360
657CB
  0
DICTIONARY
  5
657D2
330
655E7
100
AcDbDictionary
280
     1
281
     1
  3
ACAD_XREC_ROUNDTRIP
360
657D3
  0
XRECORD
  5
657A2
102
{ACAD_REACTORS
330
657A8
102
}
330
657A8
100
AcDbXrecord
280
     1
  1
AcDb_Thumbnail_Schema
102
{ATTRRECORD
341
657A3
  2
AcDbDs::TreatedAsObjectData
280
     1
291
     1
102
ATTRRECORD}
102
{ATTRRECORD
341
657A4
  2
AcDbDs::Legacy
280
     1
291
     1
102
ATTRRECORD}
  2
AcDbDs::ID
280
    10
 91
        8
102
{ATTRRECORD
341
657A5
  2
AcDs:Indexable
280
     1
291
     1
102
ATTRRECORD}
102
{ATTRRECORD
341
657A6
  2
AcDbDs::HandleAttribute
280
     7
282
     1
102
ATTRRECORD}
  2
Thumbnail_Data
280
    15
 91
        0
  0
XRECORD
  5
657A3
102
{ACAD_REACTORS
330
657A8
102
}
330
657A8
100
AcDbXrecord
280
     1
  1
AcDbDs::TreatedAsObjectDataSchema
  2
AcDbDs::TreatedAsObjectData
280
     1
 91
        0
  0
XRECORD
  5
657A4
102
{ACAD_REACTORS
330
657A8
102
}
330
657A8
100
AcDbXrecord
280
     1
  1
AcDbDs::LegacySchema
  2
AcDbDs::Legacy
280
     1
 91
        0
  0
XRECORD
  5
657A5
102
{ACAD_REACTORS
330
657A8
102
}
330
657A8
100
AcDbXrecord
280
     1
  1
AcDbDs::IndexedPropertySchema
  2
AcDs:Indexable
280
     1
 91
        0
  0
XRECORD
  5
657A6
102
{ACAD_REACTORS
330
657A8
102
}
330
657A8
100
AcDbXrecord
280
     1
  1
AcDbDs::HandleAttributeSchema
  2
AcDbDs::HandleAttribute
280
     7
 91
        1
284
     1
  0
XRECORD
  5
657E3
102
{ACAD_REACTORS
330
657E2
102
}
330
657E2
100
AcDbXrecord
280
     1
102
DISPLAYNAME
  1
Metric50
102
FLAGS
 90
        0
  0
XRECORD
  5
657DF
102
{ACAD_REACTORS
330
657DE
102
}
330
657DE
100
AcDbXrecord
280
     1
102
ACAD_ROUNDTRIP_2012_MLEADER_STYLE
298
     1
  0
XRECORD
  5
657E1
102
{ACAD_REACTORS
330
657E0
102
}
330
657E0
100
AcDbXrecord
280
     1
102
DISPLAYNAME
  1
Metric50
102
FLAGS
 90
        0
  0
CELLSTYLEMAP
  5
657A0
102
{ACAD_REACTORS
330
6579F
102
}
330
6579F
100
AcDbCellStyleMap
 90
        3
300
CELLSTYLE
  1
TABLEFORMAT_BEGIN
 90
        5
170
     1
 91
        0
 92
    32768
 62
   257
 93
        1
300
CONTENTFORMAT
  1
CONTENTFORMAT_BEGIN
 90
        0
 91
        0
 92
      512
 93
        0
300

 40
0.0
140
1.0
 94
        5
 62
     0
340
F
144
6.0
309
CONTENTFORMAT_END
171
     1
301
MARGIN
  1
CELLMARGIN_BEGIN
 40
1.5
 40
1.5
 40
1.5
 40
1.5
 40
0.18
 40
0.18
309
CELLMARGIN_END
 94
        6
 95
        1
302
GRIDFORMAT
  1
GRIDFORMAT_BEGIN
 90
        0
 91
        1
 62
     0
 92
       -2
340
0
 93
        0
 40
0.045
309
GRIDFORMAT_END
 95
        2
302
GRIDFORMAT
  1
GRIDFORMAT_BEGIN
 90
        0
 91
        1
 62
     0
 92
       -2
340
0
 93
        0
 40
0.045
309
GRIDFORMAT_END
 95
        4
302
GRIDFORMAT
  1
GRIDFORMAT_BEGIN
 90
        0
 91
        1
 62
     0
 92
       -2
340
0
 93
        0
 40
0.045
309
GRIDFORMAT_END
 95
        8
302
GRIDFORMAT
  1
GRIDFORMAT_BEGIN
 90
        0
 91
        1
 62
     0
 92
       -2
340
0
 93
        0
 40
0.045
309
GRIDFORMAT_END
 95
       16
302
GRIDFORMAT
  1
GRIDFORMAT_BEGIN
 90
        0
 91
        1
 62
     0
 92
       -2
340
0
 93
        0
 40
0.045
309
GRIDFORMAT_END
 95
       32
302
GRIDFORMAT
  1
GRIDFORMAT_BEGIN
 90
        0
 91
        1
 62
     0
 92
       -2
340
0
 93
        0
 40
0.045
309
GRIDFORMAT_END
309
TABLEFORMAT_END
  1
CELLSTYLE_BEGIN
 90
        1
 91
        1
300
_TITLE
309
CELLSTYLE_END
300
CELLSTYLE
  1
TABLEFORMAT_BEGIN
 90
        5
170
     1
 91
        0
 92
        0
 62
   257
 93
        1
300
CONTENTFORMAT
  1
CONTENTFORMAT_BEGIN
 90
        0
 91
        0
 92
      512
 93
        0
300

 40
0.0
140
1.0
 94
        5
 62
     0
340
F
144
4.5
309
CONTENTFORMAT_END
171
     1
301
MARGIN
  1
CELLMARGIN_BEGIN
 40
1.5
 40
1.5
 40
1.5
 40
1.5
 40
0.18
 40
0.18
309
CELLMARGIN_END
 94
        6
 95
        1
302
GRIDFORMAT
  1
GRIDFORMAT_BEGIN
 90
        0
 91
        1
 62
     0
 92
       -2
340
0
 93
        0
 40
0.045
309
GRIDFORMAT_END
 95
        2
302
GRIDFORMAT
  1
GRIDFORMAT_BEGIN
 90
        0
 91
        1
 62
     0
 92
       -2
340
0
 93
        0
 40
0.045
309
GRIDFORMAT_END
 95
        4
302
GRIDFORMAT
  1
GRIDFORMAT_BEGIN
 90
        0
 91
        1
 62
     0
 92
       -2
340
0
 93
        0
 40
0.045
309
GRIDFORMAT_END
 95
        8
302
GRIDFORMAT
  1
GRIDFORMAT_BEGIN
 90
        0
 91
        1
 62
     0
 92
       -2
340
0
 93
        0
 40
0.045
309
GRIDFORMAT_END
 95
       16
302
GRIDFORMAT
  1
GRIDFORMAT_BEGIN
 90
        0
 91
        1
 62
     0
 92
       -2
340
0
 93
        0
 40
0.045
309
GRIDFORMAT_END
 95
       32
302
GRIDFORMAT
  1
GRIDFORMAT_BEGIN
 90
        0
 91
        1
 62
     0
 92
       -2
340
0
 93
        0
 40
0.045
309
GRIDFORMAT_END
309
TABLEFORMAT_END
  1
CELLSTYLE_BEGIN
 90
        2
 91
        1
300
_HEADER
309
CELLSTYLE_END
300
CELLSTYLE
  1
TABLEFORMAT_BEGIN
 90
        5
170
     1
 91
        0
 92
        0
 62
   257
 93
        1
300
CONTENTFORMAT
  1
CONTENTFORMAT_BEGIN
 90
        0
 91
        0
 92
      512
 93
        0
300

 40
0.0
140
1.0
 94
        2
 62
     0
340
F
144
4.5
309
CONTENTFORMAT_END
171
     1
301
MARGIN
  1
CELLMARGIN_BEGIN
 40
1.5
 40
1.5
 40
1.5
 40
1.5
 40
0.18
 40
0.18
309
CELLMARGIN_END
 94
        6
 95
        1
302
GRIDFORMAT
  1
GRIDFORMAT_BEGIN
 90
        0
 91
        1
 62
     0
 92
       -2
340
0
 93
        0
 40
0.045
309
GRIDFORMAT_END
 95
        2
302
GRIDFORMAT
  1
GRIDFORMAT_BEGIN
 90
        0
 91
        1
 62
     0
 92
       -2
340
0
 93
        0
 40
0.045
309
GRIDFORMAT_END
 95
        4
302
GRIDFORMAT
  1
GRIDFORMAT_BEGIN
 90
        0
 91
        1
 62
     0
 92
       -2
340
0
 93
        0
 40
0.045
309
GRIDFORMAT_END
 95
        8
302
GRIDFORMAT
  1
GRIDFORMAT_BEGIN
 90
        0
 91
        1
 62
     0
 92
       -2
340
0
 93
        0
 40
0.045
309
GRIDFORMAT_END
 95
       16
302
GRIDFORMAT
  1
GRIDFORMAT_BEGIN
 90
        0
 91
        1
 62
     0
 92
       -2
340
0
 93
        0
 40
0.045
309
GRIDFORMAT_END
 95
       32
302
GRIDFORMAT
  1
GRIDFORMAT_BEGIN
 90
        0
 91
        1
 62
     0
 92
       -2
340
0
 93
        0
 40
0.045
309
GRIDFORMAT_END
309
TABLEFORMAT_END
  1
CELLSTYLE_BEGIN
 90
        3
 91
        2
300
_DATA
309
CELLSTYLE_END
  0
XRECORD
  5
657B5
102
{ACAD_REACTORS
330
657B4
102
}
330
657B4
100
AcDbXrecord
280
     1
102
RTVSPost2010Prop28
280
     1
102
RTVSPost2010PropOp28
 70
     1
102
RTVSPost2010Prop29
280
     1
102
RTVSPost2010PropOp29
 70
     1
102
RTVSPost2010Prop30
280
     0
102
RTVSPost2010PropOp30
 70
     1
102
RTVSPost2010Prop31
280
     0
102
RTVSPost2010PropOp31
 70
     1
102
RTVSPost2010Prop32
280
     0
102
RTVSPost2010PropOp32
 70
     1
102
RTVSPost2010Prop33
280
     0
102
RTVSPost2010PropOp33
 70
     1
102
RTVSPost2010Prop34
280
     0
102
RTVSPost2010PropOp34
 70
     1
102
RTVSPost2010Prop35
280
     0
102
RTVSPost2010PropOp35
 70
     1
102
RTVSPost2010Prop36
280
     0
102
RTVSPost2010PropOp36
 70
     1
102
RTVSPost2010Prop37
 90
       50
102
RTVSPost2010PropOp37
 70
     1
102
RTVSPost2010Prop38
140
0.0
102
RTVSPost2010PropOp38
 70
     1
102
RTVSPost2010Prop39
140
1.0
102
RTVSPost2010PropOp39
 70
     1
102
RTVSPost2010Prop40
 90
        0
102
RTVSPost2010PropOp40
 70
     1
102
RTVSPost2010Prop41ColorIndex
 90
       18
102
RTVSPost2010Prop41ColorRGB
 90
        0
102
RTVSPost2010PropOp41
 70
     1
102
RTVSPost2010Prop42
 90
       50
102
RTVSPost2010PropOp42
 70
     1
102
RTVSPost2010Prop43
 90
        3
102
RTVSPost2010PropOp43
 70
     1
102
RTVSPost2010Prop44ColorIndex
 90
        5
102
RTVSPost2010Prop44ColorRGB
 90
      255
102
RTVSPost2010PropOp44
 70
     1
102
RTVSPost2010Prop45
280
     0
102
RTVSPost2010PropOp45
 70
     1
102
RTVSPost2010Prop46
 90
       50
102
RTVSPost2010PropOp46
 70
     1
102
RTVSPost2010Prop47
 90
       50
102
RTVSPost2010PropOp47
 70
     1
102
RTVSPost2010Prop48
 90
       50
102
RTVSPost2010PropOp48
 70
     1
102
RTVSPost2010Prop49
280
     0
102
RTVSPost2010PropOp49
 70
     1
102
RTVSPost2010Prop50
 90
       50
102
RTVSPost2010PropOp50
 70
     1
102
RTVSPost2010Prop51ColorIndex
 90
      256
102
RTVSPost2010Prop51ColorRGB
 90
-16777216
102
RTVSPost2010PropOp51
 70
     0
102
RTVSPost2010Prop52
140
1.0
102
RTVSPost2010PropOp52
 70
     0
102
RTVSPost2010Prop53
 90
        2
102
RTVSPost2010PropOp53
 70
     1
102
RTVSPost2010Prop54
  1
strokes_ogs.tif
102
RTVSPost2010PropOp54
 70
     1
102
RTVSPost2010Prop55
280
     0
102
RTVSPost2010PropOp55
 70
     1
102
RTVSPost2010Prop56
140
1.0
102
RTVSPost2010PropOp56
 70
     1
102
RTVSPost2010Prop57
140
1.0
102
RTVSPost2010PropOp57
 70
     1
  0
XRECORD
  5
657B9
102
{ACAD_REACTORS
330
657B8
102
}
330
657B8
100
AcDbXrecord
280
     1
102
RTVSPost2010Prop28
280
     0
102
RTVSPost2010PropOp28
 70
     1
102
RTVSPost2010Prop29
280
     1
102
RTVSPost2010PropOp29
 70
     1
102
RTVSPost2010Prop30
280
     1
102
RTVSPost2010PropOp30
 70
     1
102
RTVSPost2010Prop31
280
     0
102
RTVSPost2010PropOp31
 70
     1
102
RTVSPost2010Prop32
280
     0
102
RTVSPost2010PropOp32
 70
     1
102
RTVSPost2010Prop33
280
     0
102
RTVSPost2010PropOp33
 70
     1
102
RTVSPost2010Prop34
280
     0
102
RTVSPost2010PropOp34
 70
     1
102
RTVSPost2010Prop35
280
     0
102
RTVSPost2010PropOp35
 70
     1
102
RTVSPost2010Prop36
280
     0
102
RTVSPost2010PropOp36
 70
     1
102
RTVSPost2010Prop37
 90
       50
102
RTVSPost2010PropOp37
 70
     1
102
RTVSPost2010Prop38
140
0.0
102
RTVSPost2010PropOp38
 70
     1
102
RTVSPost2010Prop39
140
1.0
102
RTVSPost2010PropOp39
 70
     1
102
RTVSPost2010Prop40
 90
        0
102
RTVSPost2010PropOp40
 70
     1
102
RTVSPost2010Prop41ColorIndex
 90
       18
102
RTVSPost2010Prop41ColorRGB
 90
        0
102
RTVSPost2010PropOp41
 70
     1
102
RTVSPost2010Prop42
 90
       50
102
RTVSPost2010PropOp42
 70
     1
102
RTVSPost2010Prop43
 90
        3
102
RTVSPost2010PropOp43
 70
     1
102
RTVSPost2010Prop44ColorIndex
 90
        5
102
RTVSPost2010Prop44ColorRGB
 90
      255
102
RTVSPost2010PropOp44
 70
     1
102
RTVSPost2010Prop45
280
     0
102
RTVSPost2010PropOp45
 70
     1
102
RTVSPost2010Prop46
 90
       50
102
RTVSPost2010PropOp46
 70
     1
102
RTVSPost2010Prop47
 90
       50
102
RTVSPost2010PropOp47
 70
     1
102
RTVSPost2010Prop48
 90
       50
102
RTVSPost2010PropOp48
 70
     1
102
RTVSPost2010Prop49
280
     0
102
RTVSPost2010PropOp49
 70
     1
102
RTVSPost2010Prop50
 90
       50
102
RTVSPost2010PropOp50
 70
     1
102
RTVSPost2010Prop51ColorIndex
 90
      256
102
RTVSPost2010Prop51ColorRGB
 90
-16777216
102
RTVSPost2010PropOp51
 70
     0
102
RTVSPost2010Prop52
140
1.0
102
RTVSPost2010PropOp52
 70
     0
102
RTVSPost2010Prop53
 90
        2
102
RTVSPost2010PropOp53
 70
     1
102
RTVSPost2010Prop54
  1
strokes_ogs.tif
102
RTVSPost2010PropOp54
 70
     1
102
RTVSPost2010Prop55
280
     0
102
RTVSPost2010PropOp55
 70
     1
102
RTVSPost2010Prop56
140
1.0
102
RTVSPost2010PropOp56
 70
     1
102
RTVSPost2010Prop57
140
1.0
102
RTVSPost2010PropOp57
 70
     1
  0
XRECORD
  5
657B7
102
{ACAD_REACTORS
330
657B6
102
}
330
657B6
100
AcDbXrecord
280
     1
102
RTVSPost2010Prop28
280
     0
102
RTVSPost2010PropOp28
 70
     1
102
RTVSPost2010Prop29
280
     1
102
RTVSPost2010PropOp29
 70
     1
102
RTVSPost2010Prop30
280
     1
102
RTVSPost2010PropOp30
 70
     1
102
RTVSPost2010Prop31
280
     0
102
RTVSPost2010PropOp31
 70
     1
102
RTVSPost2010Prop32
280
     0
102
RTVSPost2010PropOp32
 70
     1
102
RTVSPost2010Prop33
280
     0
102
RTVSPost2010PropOp33
 70
     1
102
RTVSPost2010Prop34
280
     0
102
RTVSPost2010PropOp34
 70
     1
102
RTVSPost2010Prop35
280
     0
102
RTVSPost2010PropOp35
 70
     1
102
RTVSPost2010Prop36
280
     0
102
RTVSPost2010PropOp36
 70
     1
102
RTVSPost2010Prop37
 90
       50
102
RTVSPost2010PropOp37
 70
     1
102
RTVSPost2010Prop38
140
0.0
102
RTVSPost2010PropOp38
 70
     1
102
RTVSPost2010Prop39
140
1.0
102
RTVSPost2010PropOp39
 70
     1
102
RTVSPost2010Prop40
 90
        0
102
RTVSPost2010PropOp40
 70
     1
102
RTVSPost2010Prop41ColorIndex
 90
       18
102
RTVSPost2010Prop41ColorRGB
 90
        0
102
RTVSPost2010PropOp41
 70
     1
102
RTVSPost2010Prop42
 90
       50
102
RTVSPost2010PropOp42
 70
     1
102
RTVSPost2010Prop43
 90
        3
102
RTVSPost2010PropOp43
 70
     1
102
RTVSPost2010Prop44ColorIndex
 90
        5
102
RTVSPost2010Prop44ColorRGB
 90
      255
102
RTVSPost2010PropOp44
 70
     1
102
RTVSPost2010Prop45
280
     0
102
RTVSPost2010PropOp45
 70
     1
102
RTVSPost2010Prop46
 90
       50
102
RTVSPost2010PropOp46
 70
     1
102
RTVSPost2010Prop47
 90
       50
102
RTVSPost2010PropOp47
 70
     1
102
RTVSPost2010Prop48
 90
       50
102
RTVSPost2010PropOp48
 70
     1
102
RTVSPost2010Prop49
280
     0
102
RTVSPost2010PropOp49
 70
     1
102
RTVSPost2010Prop50
 90
       50
102
RTVSPost2010PropOp50
 70
     1
102
RTVSPost2010Prop51ColorIndex
 90
      256
102
RTVSPost2010Prop51ColorRGB
 90
-16777216
102
RTVSPost2010PropOp51
 70
     0
102
RTVSPost2010Prop52
140
1.0
102
RTVSPost2010PropOp52
 70
     0
102
RTVSPost2010Prop53
 90
        2
102
RTVSPost2010PropOp53
 70
     1
102
RTVSPost2010Prop54
  1
strokes_ogs.tif
102
RTVSPost2010PropOp54
 70
     1
102
RTVSPost2010Prop55
280
     0
102
RTVSPost2010PropOp55
 70
     1
102
RTVSPost2010Prop56
140
1.0
102
RTVSPost2010PropOp56
 70
     1
102
RTVSPost2010Prop57
140
1.0
102
RTVSPost2010PropOp57
 70
     1
  0
XRECORD
  5
657B3
102
{ACAD_REACTORS
330
657B2
102
}
330
657B2
100
AcDbXrecord
280
     1
102
RTVSPost2010Prop28
280
     0
102
RTVSPost2010PropOp28
 70
     1
102
RTVSPost2010Prop29
280
     1
102
RTVSPost2010PropOp29
 70
     1
102
RTVSPost2010Prop30
280
     1
102
RTVSPost2010PropOp30
 70
     1
102
RTVSPost2010Prop31
280
     0
102
RTVSPost2010PropOp31
 70
     1
102
RTVSPost2010Prop32
280
     0
102
RTVSPost2010PropOp32
 70
     1
102
RTVSPost2010Prop33
280
     0
102
RTVSPost2010PropOp33
 70
     1
102
RTVSPost2010Prop34
280
     0
102
RTVSPost2010PropOp34
 70
     1
102
RTVSPost2010Prop35
280
     0
102
RTVSPost2010PropOp35
 70
     1
102
RTVSPost2010Prop36
280
     0
102
RTVSPost2010PropOp36
 70
     1
102
RTVSPost2010Prop37
 90
       50
102
RTVSPost2010PropOp37
 70
     1
102
RTVSPost2010Prop38
140
0.0
102
RTVSPost2010PropOp38
 70
     1
102
RTVSPost2010Prop39
140
1.0
102
RTVSPost2010PropOp39
 70
     1
102
RTVSPost2010Prop40
 90
        0
102
RTVSPost2010PropOp40
 70
     1
102
RTVSPost2010Prop41ColorIndex
 90
       18
102
RTVSPost2010Prop41ColorRGB
 90
        0
102
RTVSPost2010PropOp41
 70
     1
102
RTVSPost2010Prop42
 90
       50
102
RTVSPost2010PropOp42
 70
     1
102
RTVSPost2010Prop43
 90
        3
102
RTVSPost2010PropOp43
 70
     1
102
RTVSPost2010Prop44ColorIndex
 90
        5
102
RTVSPost2010Prop44ColorRGB
 90
      255
102
RTVSPost2010PropOp44
 70
     1
102
RTVSPost2010Prop45
280
     0
102
RTVSPost2010PropOp45
 70
     1
102
RTVSPost2010Prop46
 90
       50
102
RTVSPost2010PropOp46
 70
     1
102
RTVSPost2010Prop47
 90
       50
102
RTVSPost2010PropOp47
 70
     1
102
RTVSPost2010Prop48
 90
       50
102
RTVSPost2010PropOp48
 70
     1
102
RTVSPost2010Prop49
280
     0
102
RTVSPost2010PropOp49
 70
     1
102
RTVSPost2010Prop50
 90
       50
102
RTVSPost2010PropOp50
 70
     1
102
RTVSPost2010Prop51ColorIndex
 90
      256
102
RTVSPost2010Prop51ColorRGB
 90
-16777216
102
RTVSPost2010PropOp51
 70
     0
102
RTVSPost2010Prop52
140
1.0
102
RTVSPost2010PropOp52
 70
     0
102
RTVSPost2010Prop53
 90
        2
102
RTVSPost2010PropOp53
 70
     1
102
RTVSPost2010Prop54
  1
strokes_ogs.tif
102
RTVSPost2010PropOp54
 70
     1
102
RTVSPost2010Prop55
280
     0
102
RTVSPost2010PropOp55
 70
     1
102
RTVSPost2010Prop56
140
1.0
102
RTVSPost2010PropOp56
 70
     1
102
RTVSPost2010Prop57
140
1.0
102
RTVSPost2010PropOp57
 70
     1
  0
XRECORD
  5
657C1
102
{ACAD_REACTORS
330
657C0
102
}
330
657C0
100
AcDbXrecord
280
     1
102
RTVSPost2010Prop28
280
     0
102
RTVSPost2010PropOp28
 70
     1
102
RTVSPost2010Prop29
280
     1
102
RTVSPost2010PropOp29
 70
     1
102
RTVSPost2010Prop30
280
     1
102
RTVSPost2010PropOp30
 70
     1
102
RTVSPost2010Prop31
280
     0
102
RTVSPost2010PropOp31
 70
     1
102
RTVSPost2010Prop32
280
     0
102
RTVSPost2010PropOp32
 70
     1
102
RTVSPost2010Prop33
280
     0
102
RTVSPost2010PropOp33
 70
     1
102
RTVSPost2010Prop34
280
     0
102
RTVSPost2010PropOp34
 70
     1
102
RTVSPost2010Prop35
280
     0
102
RTVSPost2010PropOp35
 70
     1
102
RTVSPost2010Prop36
280
     0
102
RTVSPost2010PropOp36
 70
     1
102
RTVSPost2010Prop37
 90
       50
102
RTVSPost2010PropOp37
 70
     1
102
RTVSPost2010Prop38
140
0.0
102
RTVSPost2010PropOp38
 70
     1
102
RTVSPost2010Prop39
140
1.0
102
RTVSPost2010PropOp39
 70
     1
102
RTVSPost2010Prop40
 90
        0
102
RTVSPost2010PropOp40
 70
     1
102
RTVSPost2010Prop41ColorIndex
 90
       18
102
RTVSPost2010Prop41ColorRGB
 90
        0
102
RTVSPost2010PropOp41
 70
     1
102
RTVSPost2010Prop42
 90
       50
102
RTVSPost2010PropOp42
 70
     1
102
RTVSPost2010Prop43
 90
        3
102
RTVSPost2010PropOp43
 70
     1
102
RTVSPost2010Prop44ColorIndex
 90
        5
102
RTVSPost2010Prop44ColorRGB
 90
      255
102
RTVSPost2010PropOp44
 70
     1
102
RTVSPost2010Prop45
280
     0
102
RTVSPost2010PropOp45
 70
     1
102
RTVSPost2010Prop46
 90
       50
102
RTVSPost2010PropOp46
 70
     1
102
RTVSPost2010Prop47
 90
       50
102
RTVSPost2010PropOp47
 70
     1
102
RTVSPost2010Prop48
 90
       50
102
RTVSPost2010PropOp48
 70
     1
102
RTVSPost2010Prop49
280
     0
102
RTVSPost2010PropOp49
 70
     1
102
RTVSPost2010Prop50
 90
       50
102
RTVSPost2010PropOp50
 70
     1
102
RTVSPost2010Prop51ColorIndex
 90
      256
102
RTVSPost2010Prop51ColorRGB
 90
-16777216
102
RTVSPost2010PropOp51
 70
     0
102
RTVSPost2010Prop52
140
1.0
102
RTVSPost2010PropOp52
 70
     0
102
RTVSPost2010Prop53
 90
        2
102
RTVSPost2010PropOp53
 70
     1
102
RTVSPost2010Prop54
  1
strokes_ogs.tif
102
RTVSPost2010PropOp54
 70
     1
102
RTVSPost2010Prop55
280
     0
102
RTVSPost2010PropOp55
 70
     1
102
RTVSPost2010Prop56
140
1.0
102
RTVSPost2010PropOp56
 70
     1
102
RTVSPost2010Prop57
140
1.0
102
RTVSPost2010PropOp57
 70
     1
  0
XRECORD
  5
657C9
102
{ACAD_REACTORS
330
657C8
102
}
330
657C8
100
AcDbXrecord
280
     1
102
RTVSPost2010Prop28
280
     0
102
RTVSPost2010PropOp28
 70
     1
102
RTVSPost2010Prop29
280
     1
102
RTVSPost2010PropOp29
 70
     1
102
RTVSPost2010Prop30
280
     1
102
RTVSPost2010PropOp30
 70
     1
102
RTVSPost2010Prop31
280
     0
102
RTVSPost2010PropOp31
 70
     1
102
RTVSPost2010Prop32
280
     0
102
RTVSPost2010PropOp32
 70
     1
102
RTVSPost2010Prop33
280
     0
102
RTVSPost2010PropOp33
 70
     1
102
RTVSPost2010Prop34
280
     0
102
RTVSPost2010PropOp34
 70
     1
102
RTVSPost2010Prop35
280
     0
102
RTVSPost2010PropOp35
 70
     1
102
RTVSPost2010Prop36
280
     0
102
RTVSPost2010PropOp36
 70
     1
102
RTVSPost2010Prop37
 90
       50
102
RTVSPost2010PropOp37
 70
     1
102
RTVSPost2010Prop38
140
0.0
102
RTVSPost2010PropOp38
 70
     1
102
RTVSPost2010Prop39
140
1.0
102
RTVSPost2010PropOp39
 70
     1
102
RTVSPost2010Prop40
 90
        0
102
RTVSPost2010PropOp40
 70
     1
102
RTVSPost2010Prop41ColorIndex
 90
       18
102
RTVSPost2010Prop41ColorRGB
 90
        0
102
RTVSPost2010PropOp41
 70
     1
102
RTVSPost2010Prop42
 90
       50
102
RTVSPost2010PropOp42
 70
     1
102
RTVSPost2010Prop43
 90
        3
102
RTVSPost2010PropOp43
 70
     1
102
RTVSPost2010Prop44ColorIndex
 90
        5
102
RTVSPost2010Prop44ColorRGB
 90
      255
102
RTVSPost2010PropOp44
 70
     1
102
RTVSPost2010Prop45
280
     0
102
RTVSPost2010PropOp45
 70
     1
102
RTVSPost2010Prop46
 90
       50
102
RTVSPost2010PropOp46
 70
     1
102
RTVSPost2010Prop47
 90
       50
102
RTVSPost2010PropOp47
 70
     1
102
RTVSPost2010Prop48
 90
       50
102
RTVSPost2010PropOp48
 70
     1
102
RTVSPost2010Prop49
280
     0
102
RTVSPost2010PropOp49
 70
     1
102
RTVSPost2010Prop50
 90
       50
102
RTVSPost2010PropOp50
 70
     1
102
RTVSPost2010Prop51ColorIndex
 90
      256
102
RTVSPost2010Prop51ColorRGB
 90
-16777216
102
RTVSPost2010PropOp51
 70
     0
102
RTVSPost2010Prop52
140
1.0
102
RTVSPost2010PropOp52
 70
     0
102
RTVSPost2010Prop53
 90
        2
102
RTVSPost2010PropOp53
 70
     1
102
RTVSPost2010Prop54
  1
strokes_ogs.tif
102
RTVSPost2010PropOp54
 70
     1
102
RTVSPost2010Prop55
280
     0
102
RTVSPost2010PropOp55
 70
     1
102
RTVSPost2010Prop56
140
1.0
102
RTVSPost2010PropOp56
 70
     1
102
RTVSPost2010Prop57
140
1.0
102
RTVSPost2010PropOp57
 70
     1
  0
XRECORD
  5
657BB
102
{ACAD_REACTORS
330
657BA
102
}
330
657BA
100
AcDbXrecord
280
     1
102
RTVSPost2010Prop28
280
     0
102
RTVSPost2010PropOp28
 70
     1
102
RTVSPost2010Prop29
280
     1
102
RTVSPost2010PropOp29
 70
     1
102
RTVSPost2010Prop30
280
     1
102
RTVSPost2010PropOp30
 70
     1
102
RTVSPost2010Prop31
280
     0
102
RTVSPost2010PropOp31
 70
     1
102
RTVSPost2010Prop32
280
     0
102
RTVSPost2010PropOp32
 70
     1
102
RTVSPost2010Prop33
280
     0
102
RTVSPost2010PropOp33
 70
     1
102
RTVSPost2010Prop34
280
     0
102
RTVSPost2010PropOp34
 70
     1
102
RTVSPost2010Prop35
280
     0
102
RTVSPost2010PropOp35
 70
     1
102
RTVSPost2010Prop36
280
     0
102
RTVSPost2010PropOp36
 70
     1
102
RTVSPost2010Prop37
 90
       50
102
RTVSPost2010PropOp37
 70
     1
102
RTVSPost2010Prop38
140
0.0
102
RTVSPost2010PropOp38
 70
     1
102
RTVSPost2010Prop39
140
1.0
102
RTVSPost2010PropOp39
 70
     1
102
RTVSPost2010Prop40
 90
        0
102
RTVSPost2010PropOp40
 70
     1
102
RTVSPost2010Prop41ColorIndex
 90
       18
102
RTVSPost2010Prop41ColorRGB
 90
        0
102
RTVSPost2010PropOp41
 70
     1
102
RTVSPost2010Prop42
 90
       50
102
RTVSPost2010PropOp42
 70
     1
102
RTVSPost2010Prop43
 90
        3
102
RTVSPost2010PropOp43
 70
     1
102
RTVSPost2010Prop44ColorIndex
 90
        5
102
RTVSPost2010Prop44ColorRGB
 90
      255
102
RTVSPost2010PropOp44
 70
     1
102
RTVSPost2010Prop45
280
     0
102
RTVSPost2010PropOp45
 70
     1
102
RTVSPost2010Prop46
 90
       50
102
RTVSPost2010PropOp46
 70
     1
102
RTVSPost2010Prop47
 90
       50
102
RTVSPost2010PropOp47
 70
     1
102
RTVSPost2010Prop48
 90
       50
102
RTVSPost2010PropOp48
 70
     1
102
RTVSPost2010Prop49
280
     0
102
RTVSPost2010PropOp49
 70
     1
102
RTVSPost2010Prop50
 90
       50
102
RTVSPost2010PropOp50
 70
     1
102
RTVSPost2010Prop51ColorIndex
 90
      256
102
RTVSPost2010Prop51ColorRGB
 90
-16777216
102
RTVSPost2010PropOp51
 70
     0
102
RTVSPost2010Prop52
140
1.0
102
RTVSPost2010PropOp52
 70
     0
102
RTVSPost2010Prop53
 90
        2
102
RTVSPost2010PropOp53
 70
     1
102
RTVSPost2010Prop54
  1
strokes_ogs.tif
102
RTVSPost2010PropOp54
 70
     1
102
RTVSPost2010Prop55
280
     0
102
RTVSPost2010PropOp55
 70
     1
102
RTVSPost2010Prop56
140
1.0
102
RTVSPost2010PropOp56
 70
     1
102
RTVSPost2010Prop57
140
1.0
102
RTVSPost2010PropOp57
 70
     1
  0
XRECORD
  5
657BF
102
{ACAD_REACTORS
330
657BE
102
}
330
657BE
100
AcDbXrecord
280
     1
102
RTVSPost2010Prop28
280
     0
102
RTVSPost2010PropOp28
 70
     1
102
RTVSPost2010Prop29
280
     1
102
RTVSPost2010PropOp29
 70
     1
102
RTVSPost2010Prop30
280
     1
102
RTVSPost2010PropOp30
 70
     1
102
RTVSPost2010Prop31
280
     0
102
RTVSPost2010PropOp31
 70
     1
102
RTVSPost2010Prop32
280
     0
102
RTVSPost2010PropOp32
 70
     1
102
RTVSPost2010Prop33
280
     0
102
RTVSPost2010PropOp33
 70
     1
102
RTVSPost2010Prop34
280
     0
102
RTVSPost2010PropOp34
 70
     1
102
RTVSPost2010Prop35
280
     0
102
RTVSPost2010PropOp35
 70
     1
102
RTVSPost2010Prop36
280
     0
102
RTVSPost2010PropOp36
 70
     1
102
RTVSPost2010Prop37
 90
       50
102
RTVSPost2010PropOp37
 70
     1
102
RTVSPost2010Prop38
140
0.0
102
RTVSPost2010PropOp38
 70
     1
102
RTVSPost2010Prop39
140
1.0
102
RTVSPost2010PropOp39
 70
     1
102
RTVSPost2010Prop40
 90
        0
102
RTVSPost2010PropOp40
 70
     1
102
RTVSPost2010Prop41ColorIndex
 90
       18
102
RTVSPost2010Prop41ColorRGB
 90
        0
102
RTVSPost2010PropOp41
 70
     1
102
RTVSPost2010Prop42
 90
       50
102
RTVSPost2010PropOp42
 70
     1
102
RTVSPost2010Prop43
 90
        3
102
RTVSPost2010PropOp43
 70
     1
102
RTVSPost2010Prop44ColorIndex
 90
        5
102
RTVSPost2010Prop44ColorRGB
 90
      255
102
RTVSPost2010PropOp44
 70
     1
102
RTVSPost2010Prop45
280
     0
102
RTVSPost2010PropOp45
 70
     1
102
RTVSPost2010Prop46
 90
       50
102
RTVSPost2010PropOp46
 70
     1
102
RTVSPost2010Prop47
 90
       50
102
RTVSPost2010PropOp47
 70
     1
102
RTVSPost2010Prop48
 90
       50
102
RTVSPost2010PropOp48
 70
     1
102
RTVSPost2010Prop49
280
     0
102
RTVSPost2010PropOp49
 70
     1
102
RTVSPost2010Prop50
 90
       50
102
RTVSPost2010PropOp50
 70
     1
102
RTVSPost2010Prop51ColorIndex
 90
      256
102
RTVSPost2010Prop51ColorRGB
 90
-16777216
102
RTVSPost2010PropOp51
 70
     0
102
RTVSPost2010Prop52
140
1.0
102
RTVSPost2010PropOp52
 70
     0
102
RTVSPost2010Prop53
 90
        2
102
RTVSPost2010PropOp53
 70
     1
102
RTVSPost2010Prop54
  1
strokes_ogs.tif
102
RTVSPost2010PropOp54
 70
     1
102
RTVSPost2010Prop55
280
     0
102
RTVSPost2010PropOp55
 70
     1
102
RTVSPost2010Prop56
140
1.0
102
RTVSPost2010PropOp56
 70
     1
102
RTVSPost2010Prop57
140
1.0
102
RTVSPost2010PropOp57
 70
     1
  0
XRECORD
  5
657DD
102
{ACAD_REACTORS
330
657DC
102
}
330
657DC
100
AcDbXrecord
280
     1
102
RTVSPost2010Prop28
280
     0
102
RTVSPost2010PropOp28
 70
     0
102
RTVSPost2010Prop29
280
     1
102
RTVSPost2010PropOp29
 70
     0
102
RTVSPost2010Prop30
280
     1
102
RTVSPost2010PropOp30
 70
     0
102
RTVSPost2010Prop31
280
     0
102
RTVSPost2010PropOp31
 70
     0
102
RTVSPost2010Prop32
280
     0
102
RTVSPost2010PropOp32
 70
     0
102
RTVSPost2010Prop33
280
     0
102
RTVSPost2010PropOp33
 70
     0
102
RTVSPost2010Prop34
280
     0
102
RTVSPost2010PropOp34
 70
     0
102
RTVSPost2010Prop35
280
     0
102
RTVSPost2010PropOp35
 70
     0
102
RTVSPost2010Prop36
280
     0
102
RTVSPost2010PropOp36
 70
     0
102
RTVSPost2010Prop37
 90
       50
102
RTVSPost2010PropOp37
 70
     0
102
RTVSPost2010Prop38
140
0.0
102
RTVSPost2010PropOp38
 70
     0
102
RTVSPost2010Prop39
140
1.0
102
RTVSPost2010PropOp39
 70
     0
102
RTVSPost2010Prop40
 90
        0
102
RTVSPost2010PropOp40
 70
     0
102
RTVSPost2010Prop41ColorIndex
 90
       18
102
RTVSPost2010Prop41ColorRGB
 90
        0
102
RTVSPost2010PropOp41
 70
     0
102
RTVSPost2010Prop42
 90
       50
102
RTVSPost2010PropOp42
 70
     0
102
RTVSPost2010Prop43
 90
        3
102
RTVSPost2010PropOp43
 70
     0
102
RTVSPost2010Prop44ColorIndex
 90
        5
102
RTVSPost2010Prop44ColorRGB
 90
      255
102
RTVSPost2010PropOp44
 70
     0
102
RTVSPost2010Prop45
280
     0
102
RTVSPost2010PropOp45
 70
     0
102
RTVSPost2010Prop46
 90
       50
102
RTVSPost2010PropOp46
 70
     0
102
RTVSPost2010Prop47
 90
       50
102
RTVSPost2010PropOp47
 70
     0
102
RTVSPost2010Prop48
 90
       50
102
RTVSPost2010PropOp48
 70
     0
102
RTVSPost2010Prop49
280
     0
102
RTVSPost2010PropOp49
 70
     0
102
RTVSPost2010Prop50
 90
       50
102
RTVSPost2010PropOp50
 70
     0
102
RTVSPost2010Prop51ColorIndex
 90
      256
102
RTVSPost2010Prop51ColorRGB
 90
-16777216
102
RTVSPost2010PropOp51
 70
     0
102
RTVSPost2010Prop52
140
1.0
102
RTVSPost2010PropOp52
 70
     0
102
RTVSPost2010Prop53
 90
        2
102
RTVSPost2010PropOp53
 70
     0
102
RTVSPost2010Prop54
  1
strokes_ogs.tif
102
RTVSPost2010PropOp54
 70
     0
102
RTVSPost2010Prop55
280
     0
102
RTVSPost2010PropOp55
 70
     0
102
RTVSPost2010Prop56
140
1.0
102
RTVSPost2010PropOp56
 70
     0
102
RTVSPost2010Prop57
140
1.0
102
RTVSPost2010PropOp57
 70
     0
  0
XRECORD
  5
657C7
102
{ACAD_REACTORS
330
657C6
102
}
330
657C6
100
AcDbXrecord
280
     1
102
RTVSPost2010Prop28
280
     0
102
RTVSPost2010PropOp28
 70
     1
102
RTVSPost2010Prop29
280
     1
102
RTVSPost2010PropOp29
 70
     1
102
RTVSPost2010Prop30
280
     1
102
RTVSPost2010PropOp30
 70
     1
102
RTVSPost2010Prop31
280
     0
102
RTVSPost2010PropOp31
 70
     1
102
RTVSPost2010Prop32
280
     0
102
RTVSPost2010PropOp32
 70
     1
102
RTVSPost2010Prop33
280
     0
102
RTVSPost2010PropOp33
 70
     1
102
RTVSPost2010Prop34
280
     0
102
RTVSPost2010PropOp34
 70
     1
102
RTVSPost2010Prop35
280
     0
102
RTVSPost2010PropOp35
 70
     1
102
RTVSPost2010Prop36
280
     0
102
RTVSPost2010PropOp36
 70
     1
102
RTVSPost2010Prop37
 90
       50
102
RTVSPost2010PropOp37
 70
     1
102
RTVSPost2010Prop38
140
0.0
102
RTVSPost2010PropOp38
 70
     1
102
RTVSPost2010Prop39
140
1.0
102
RTVSPost2010PropOp39
 70
     1
102
RTVSPost2010Prop40
 90
        0
102
RTVSPost2010PropOp40
 70
     1
102
RTVSPost2010Prop41ColorIndex
 90
       18
102
RTVSPost2010Prop41ColorRGB
 90
        0
102
RTVSPost2010PropOp41
 70
     1
102
RTVSPost2010Prop42
 90
       50
102
RTVSPost2010PropOp42
 70
     1
102
RTVSPost2010Prop43
 90
        3
102
RTVSPost2010PropOp43
 70
     1
102
RTVSPost2010Prop44ColorIndex
 90
        5
102
RTVSPost2010Prop44ColorRGB
 90
      255
102
RTVSPost2010PropOp44
 70
     1
102
RTVSPost2010Prop45
280
     0
102
RTVSPost2010PropOp45
 70
     1
102
RTVSPost2010Prop46
 90
       50
102
RTVSPost2010PropOp46
 70
     1
102
RTVSPost2010Prop47
 90
       50
102
RTVSPost2010PropOp47
 70
     1
102
RTVSPost2010Prop48
 90
       50
102
RTVSPost2010PropOp48
 70
     1
102
RTVSPost2010Prop49
280
     0
102
RTVSPost2010PropOp49
 70
     1
102
RTVSPost2010Prop50
 90
       50
102
RTVSPost2010PropOp50
 70
     1
102
RTVSPost2010Prop51ColorIndex
 90
      256
102
RTVSPost2010Prop51ColorRGB
 90
-16777216
102
RTVSPost2010PropOp51
 70
     0
102
RTVSPost2010Prop52
140
1.0
102
RTVSPost2010PropOp52
 70
     0
102
RTVSPost2010Prop53
 90
        2
102
RTVSPost2010PropOp53
 70
     1
102
RTVSPost2010Prop54
  1
strokes_ogs.tif
102
RTVSPost2010PropOp54
 70
     1
102
RTVSPost2010Prop55
280
     0
102
RTVSPost2010PropOp55
 70
     1
102
RTVSPost2010Prop56
140
1.0
102
RTVSPost2010PropOp56
 70
     1
102
RTVSPost2010Prop57
140
1.0
102
RTVSPost2010PropOp57
 70
     1
  0
XRECORD
  5
657AB
102
{ACAD_REACTORS
330
657AA
102
}
330
657AA
100
AcDbXrecord
280
     1
102
RTVSPost2010Prop28
280
     0
102
RTVSPost2010PropOp28
 70
     1
102
RTVSPost2010Prop29
280
     1
102
RTVSPost2010PropOp29
 70
     1
102
RTVSPost2010Prop30
280
     1
102
RTVSPost2010PropOp30
 70
     1
102
RTVSPost2010Prop31
280
     0
102
RTVSPost2010PropOp31
 70
     1
102
RTVSPost2010Prop32
280
     0
102
RTVSPost2010PropOp32
 70
     1
102
RTVSPost2010Prop33
280
     0
102
RTVSPost2010PropOp33
 70
     1
102
RTVSPost2010Prop34
280
     0
102
RTVSPost2010PropOp34
 70
     1
102
RTVSPost2010Prop35
280
     0
102
RTVSPost2010PropOp35
 70
     1
102
RTVSPost2010Prop36
280
     0
102
RTVSPost2010PropOp36
 70
     1
102
RTVSPost2010Prop37
 90
       50
102
RTVSPost2010PropOp37
 70
     1
102
RTVSPost2010Prop38
140
0.0
102
RTVSPost2010PropOp38
 70
     1
102
RTVSPost2010Prop39
140
1.0
102
RTVSPost2010PropOp39
 70
     1
102
RTVSPost2010Prop40
 90
        0
102
RTVSPost2010PropOp40
 70
     1
102
RTVSPost2010Prop41ColorIndex
 90
       18
102
RTVSPost2010Prop41ColorRGB
 90
        0
102
RTVSPost2010PropOp41
 70
     1
102
RTVSPost2010Prop42
 90
       50
102
RTVSPost2010PropOp42
 70
     1
102
RTVSPost2010Prop43
 90
        3
102
RTVSPost2010PropOp43
 70
     1
102
RTVSPost2010Prop44ColorIndex
 90
        5
102
RTVSPost2010Prop44ColorRGB
 90
      255
102
RTVSPost2010PropOp44
 70
     1
102
RTVSPost2010Prop45
280
     0
102
RTVSPost2010PropOp45
 70
     1
102
RTVSPost2010Prop46
 90
       50
102
RTVSPost2010PropOp46
 70
     1
102
RTVSPost2010Prop47
 90
       50
102
RTVSPost2010PropOp47
 70
     1
102
RTVSPost2010Prop48
 90
       50
102
RTVSPost2010PropOp48
 70
     1
102
RTVSPost2010Prop49
280
     0
102
RTVSPost2010PropOp49
 70
     1
102
RTVSPost2010Prop50
 90
       50
102
RTVSPost2010PropOp50
 70
     1
102
RTVSPost2010Prop51ColorIndex
 90
      256
102
RTVSPost2010Prop51ColorRGB
 90
-16777216
102
RTVSPost2010PropOp51
 70
     0
102
RTVSPost2010Prop52
140
1.0
102
RTVSPost2010PropOp52
 70
     0
102
RTVSPost2010Prop53
 90
        2
102
RTVSPost2010PropOp53
 70
     1
102
RTVSPost2010Prop54
  1
strokes_ogs.tif
102
RTVSPost2010PropOp54
 70
     1
102
RTVSPost2010Prop55
280
     0
102
RTVSPost2010PropOp55
 70
     1
102
RTVSPost2010Prop56
140
1.0
102
RTVSPost2010PropOp56
 70
     1
102
RTVSPost2010Prop57
140
1.0
102
RTVSPost2010PropOp57
 70
     1
  0
XRECORD
  5
657AD
102
{ACAD_REACTORS
330
657AC
102
}
330
657AC
100
AcDbXrecord
280
     1
102
RTVSPost2010Prop28
280
     0
102
RTVSPost2010PropOp28
 70
     1
102
RTVSPost2010Prop29
280
     1
102
RTVSPost2010PropOp29
 70
     1
102
RTVSPost2010Prop30
280
     1
102
RTVSPost2010PropOp30
 70
     1
102
RTVSPost2010Prop31
280
     0
102
RTVSPost2010PropOp31
 70
     1
102
RTVSPost2010Prop32
280
     0
102
RTVSPost2010PropOp32
 70
     1
102
RTVSPost2010Prop33
280
     0
102
RTVSPost2010PropOp33
 70
     1
102
RTVSPost2010Prop34
280
     0
102
RTVSPost2010PropOp34
 70
     1
102
RTVSPost2010Prop35
280
     0
102
RTVSPost2010PropOp35
 70
     1
102
RTVSPost2010Prop36
280
     0
102
RTVSPost2010PropOp36
 70
     1
102
RTVSPost2010Prop37
 90
       50
102
RTVSPost2010PropOp37
 70
     1
102
RTVSPost2010Prop38
140
0.0
102
RTVSPost2010PropOp38
 70
     1
102
RTVSPost2010Prop39
140
1.0
102
RTVSPost2010PropOp39
 70
     1
102
RTVSPost2010Prop40
 90
        0
102
RTVSPost2010PropOp40
 70
     1
102
RTVSPost2010Prop41ColorIndex
 90
       18
102
RTVSPost2010Prop41ColorRGB
 90
        0
102
RTVSPost2010PropOp41
 70
     1
102
RTVSPost2010Prop42
 90
       50
102
RTVSPost2010PropOp42
 70
     1
102
RTVSPost2010Prop43
 90
        3
102
RTVSPost2010PropOp43
 70
     1
102
RTVSPost2010Prop44ColorIndex
 90
        5
102
RTVSPost2010Prop44ColorRGB
 90
      255
102
RTVSPost2010PropOp44
 70
     1
102
RTVSPost2010Prop45
280
     0
102
RTVSPost2010PropOp45
 70
     1
102
RTVSPost2010Prop46
 90
       50
102
RTVSPost2010PropOp46
 70
     1
102
RTVSPost2010Prop47
 90
       50
102
RTVSPost2010PropOp47
 70
     1
102
RTVSPost2010Prop48
 90
       50
102
RTVSPost2010PropOp48
 70
     1
102
RTVSPost2010Prop49
280
     0
102
RTVSPost2010PropOp49
 70
     1
102
RTVSPost2010Prop50
 90
       50
102
RTVSPost2010PropOp50
 70
     1
102
RTVSPost2010Prop51ColorIndex
 90
      256
102
RTVSPost2010Prop51ColorRGB
 90
-16777216
102
RTVSPost2010PropOp51
 70
     0
102
RTVSPost2010Prop52
140
1.0
102
RTVSPost2010PropOp52
 70
     0
102
RTVSPost2010Prop53
 90
        2
102
RTVSPost2010PropOp53
 70
     1
102
RTVSPost2010Prop54
  1
strokes_ogs.tif
102
RTVSPost2010PropOp54
 70
     1
102
RTVSPost2010Prop55
280
     0
102
RTVSPost2010PropOp55
 70
     1
102
RTVSPost2010Prop56
140
1.0
102
RTVSPost2010PropOp56
 70
     1
102
RTVSPost2010Prop57
140
1.0
102
RTVSPost2010PropOp57
 70
     1
  0
XRECORD
  5
657AF
102
{ACAD_REACTORS
330
657AE
102
}
330
657AE
100
AcDbXrecord
280
     1
102
RTVSPost2010Prop28
280
     0
102
RTVSPost2010PropOp28
 70
     1
102
RTVSPost2010Prop29
280
     1
102
RTVSPost2010PropOp29
 70
     1
102
RTVSPost2010Prop30
280
     1
102
RTVSPost2010PropOp30
 70
     1
102
RTVSPost2010Prop31
280
     0
102
RTVSPost2010PropOp31
 70
     1
102
RTVSPost2010Prop32
280
     0
102
RTVSPost2010PropOp32
 70
     1
102
RTVSPost2010Prop33
280
     0
102
RTVSPost2010PropOp33
 70
     1
102
RTVSPost2010Prop34
280
     0
102
RTVSPost2010PropOp34
 70
     1
102
RTVSPost2010Prop35
280
     0
102
RTVSPost2010PropOp35
 70
     1
102
RTVSPost2010Prop36
280
     0
102
RTVSPost2010PropOp36
 70
     1
102
RTVSPost2010Prop37
 90
       50
102
RTVSPost2010PropOp37
 70
     1
102
RTVSPost2010Prop38
140
0.0
102
RTVSPost2010PropOp38
 70
     1
102
RTVSPost2010Prop39
140
1.0
102
RTVSPost2010PropOp39
 70
     1
102
RTVSPost2010Prop40
 90
        0
102
RTVSPost2010PropOp40
 70
     1
102
RTVSPost2010Prop41ColorIndex
 90
       18
102
RTVSPost2010Prop41ColorRGB
 90
        0
102
RTVSPost2010PropOp41
 70
     1
102
RTVSPost2010Prop42
 90
       50
102
RTVSPost2010PropOp42
 70
     1
102
RTVSPost2010Prop43
 90
        3
102
RTVSPost2010PropOp43
 70
     1
102
RTVSPost2010Prop44ColorIndex
 90
        5
102
RTVSPost2010Prop44ColorRGB
 90
      255
102
RTVSPost2010PropOp44
 70
     1
102
RTVSPost2010Prop45
280
     0
102
RTVSPost2010PropOp45
 70
     1
102
RTVSPost2010Prop46
 90
       50
102
RTVSPost2010PropOp46
 70
     1
102
RTVSPost2010Prop47
 90
       50
102
RTVSPost2010PropOp47
 70
     1
102
RTVSPost2010Prop48
 90
       50
102
RTVSPost2010PropOp48
 70
     1
102
RTVSPost2010Prop49
280
     0
102
RTVSPost2010PropOp49
 70
     1
102
RTVSPost2010Prop50
 90
       50
102
RTVSPost2010PropOp50
 70
     1
102
RTVSPost2010Prop51ColorIndex
 90
      256
102
RTVSPost2010Prop51ColorRGB
 90
-16777216
102
RTVSPost2010PropOp51
 70
     0
102
RTVSPost2010Prop52
140
1.0
102
RTVSPost2010PropOp52
 70
     0
102
RTVSPost2010Prop53
 90
        2
102
RTVSPost2010PropOp53
 70
     1
102
RTVSPost2010Prop54
  1
strokes_ogs.tif
102
RTVSPost2010PropOp54
 70
     1
102
RTVSPost2010Prop55
280
     0
102
RTVSPost2010PropOp55
 70
     1
102
RTVSPost2010Prop56
140
1.0
102
RTVSPost2010PropOp56
 70
     1
102
RTVSPost2010Prop57
140
1.0
102
RTVSPost2010PropOp57
 70
     1
  0
XRECORD
  5
657B1
102
{ACAD_REACTORS
330
657B0
102
}
330
657B0
100
AcDbXrecord
280
     1
102
RTVSPost2010Prop28
280
     0
102
RTVSPost2010PropOp28
 70
     1
102
RTVSPost2010Prop29
280
     1
102
RTVSPost2010PropOp29
 70
     1
102
RTVSPost2010Prop30
280
     1
102
RTVSPost2010PropOp30
 70
     1
102
RTVSPost2010Prop31
280
     0
102
RTVSPost2010PropOp31
 70
     1
102
RTVSPost2010Prop32
280
     0
102
RTVSPost2010PropOp32
 70
     1
102
RTVSPost2010Prop33
280
     0
102
RTVSPost2010PropOp33
 70
     1
102
RTVSPost2010Prop34
280
     0
102
RTVSPost2010PropOp34
 70
     1
102
RTVSPost2010Prop35
280
     0
102
RTVSPost2010PropOp35
 70
     1
102
RTVSPost2010Prop36
280
     0
102
RTVSPost2010PropOp36
 70
     1
102
RTVSPost2010Prop37
 90
       50
102
RTVSPost2010PropOp37
 70
     1
102
RTVSPost2010Prop38
140
0.0
102
RTVSPost2010PropOp38
 70
     1
102
RTVSPost2010Prop39
140
1.0
102
RTVSPost2010PropOp39
 70
     1
102
RTVSPost2010Prop40
 90
        0
102
RTVSPost2010PropOp40
 70
     1
102
RTVSPost2010Prop41ColorIndex
 90
       18
102
RTVSPost2010Prop41ColorRGB
 90
        0
102
RTVSPost2010PropOp41
 70
     1
102
RTVSPost2010Prop42
 90
       50
102
RTVSPost2010PropOp42
 70
     1
102
RTVSPost2010Prop43
 90
        3
102
RTVSPost2010PropOp43
 70
     1
102
RTVSPost2010Prop44ColorIndex
 90
        5
102
RTVSPost2010Prop44ColorRGB
 90
      255
102
RTVSPost2010PropOp44
 70
     1
102
RTVSPost2010Prop45
280
     0
102
RTVSPost2010PropOp45
 70
     1
102
RTVSPost2010Prop46
 90
       50
102
RTVSPost2010PropOp46
 70
     1
102
RTVSPost2010Prop47
 90
       50
102
RTVSPost2010PropOp47
 70
     1
102
RTVSPost2010Prop48
 90
       50
102
RTVSPost2010PropOp48
 70
     1
102
RTVSPost2010Prop49
280
     0
102
RTVSPost2010PropOp49
 70
     1
102
RTVSPost2010Prop50
 90
       50
102
RTVSPost2010PropOp50
 70
     1
102
RTVSPost2010Prop51ColorIndex
 90
      256
102
RTVSPost2010Prop51ColorRGB
 90
-16777216
102
RTVSPost2010PropOp51
 70
     0
102
RTVSPost2010Prop52
140
1.0
102
RTVSPost2010PropOp52
 70
     0
102
RTVSPost2010Prop53
 90
        2
102
RTVSPost2010PropOp53
 70
     1
102
RTVSPost2010Prop54
  1
strokes_ogs.tif
102
RTVSPost2010PropOp54
 70
     1
102
RTVSPost2010Prop55
280
     0
102
RTVSPost2010PropOp55
 70
     1
102
RTVSPost2010Prop56
140
1.0
102
RTVSPost2010PropOp56
 70
     1
102
RTVSPost2010Prop57
140
1.0
102
RTVSPost2010PropOp57
 70
     1
  0
XRECORD
  5
657CD
102
{ACAD_REACTORS
330
657CC
102
}
330
657CC
100
AcDbXrecord
280
     1
102
RTVSPost2010Prop28
280
     0
102
RTVSPost2010PropOp28
 70
     1
102
RTVSPost2010Prop29
280
     1
102
RTVSPost2010PropOp29
 70
     1
102
RTVSPost2010Prop30
280
     1
102
RTVSPost2010PropOp30
 70
     1
102
RTVSPost2010Prop31
280
     0
102
RTVSPost2010PropOp31
 70
     1
102
RTVSPost2010Prop32
280
     0
102
RTVSPost2010PropOp32
 70
     1
102
RTVSPost2010Prop33
280
     0
102
RTVSPost2010PropOp33
 70
     1
102
RTVSPost2010Prop34
280
     0
102
RTVSPost2010PropOp34
 70
     1
102
RTVSPost2010Prop35
280
     0
102
RTVSPost2010PropOp35
 70
     1
102
RTVSPost2010Prop36
280
     0
102
RTVSPost2010PropOp36
 70
     1
102
RTVSPost2010Prop37
 90
       50
102
RTVSPost2010PropOp37
 70
     1
102
RTVSPost2010Prop38
140
0.0
102
RTVSPost2010PropOp38
 70
     1
102
RTVSPost2010Prop39
140
1.0
102
RTVSPost2010PropOp39
 70
     1
102
RTVSPost2010Prop40
 90
        0
102
RTVSPost2010PropOp40
 70
     1
102
RTVSPost2010Prop41ColorIndex
 90
       18
102
RTVSPost2010Prop41ColorRGB
 90
        0
102
RTVSPost2010PropOp41
 70
     1
102
RTVSPost2010Prop42
 90
       50
102
RTVSPost2010PropOp42
 70
     1
102
RTVSPost2010Prop43
 90
        3
102
RTVSPost2010PropOp43
 70
     1
102
RTVSPost2010Prop44ColorIndex
 90
        5
102
RTVSPost2010Prop44ColorRGB
 90
      255
102
RTVSPost2010PropOp44
 70
     1
102
RTVSPost2010Prop45
280
     0
102
RTVSPost2010PropOp45
 70
     1
102
RTVSPost2010Prop46
 90
       50
102
RTVSPost2010PropOp46
 70
     1
102
RTVSPost2010Prop47
 90
       50
102
RTVSPost2010PropOp47
 70
     1
102
RTVSPost2010Prop48
 90
       50
102
RTVSPost2010PropOp48
 70
     1
102
RTVSPost2010Prop49
280
     0
102
RTVSPost2010PropOp49
 70
     1
102
RTVSPost2010Prop50
 90
       50
102
RTVSPost2010PropOp50
 70
     1
102
RTVSPost2010Prop51ColorIndex
 90
      256
102
RTVSPost2010Prop51ColorRGB
 90
-16777216
102
RTVSPost2010PropOp51
 70
     0
102
RTVSPost2010Prop52
140
1.0
102
RTVSPost2010PropOp52
 70
     0
102
RTVSPost2010Prop53
 90
        2
102
RTVSPost2010PropOp53
 70
     1
102
RTVSPost2010Prop54
  1
strokes_ogs.tif
102
RTVSPost2010PropOp54
 70
     1
102
RTVSPost2010Prop55
280
     0
102
RTVSPost2010PropOp55
 70
     1
102
RTVSPost2010Prop56
140
1.0
102
RTVSPost2010PropOp56
 70
     1
102
RTVSPost2010Prop57
140
1.0
102
RTVSPost2010PropOp57
 70
     1
  0
XRECORD
  5
657D9
102
{ACAD_REACTORS
330
657D8
102
}
330
657D8
100
AcDbXrecord
280
     1
102
RTVSPost2010Prop28
280
     0
102
RTVSPost2010PropOp28
 70
     0
102
RTVSPost2010Prop29
280
     1
102
RTVSPost2010PropOp29
 70
     0
102
RTVSPost2010Prop30
280
     1
102
RTVSPost2010PropOp30
 70
     0
102
RTVSPost2010Prop31
280
     0
102
RTVSPost2010PropOp31
 70
     0
102
RTVSPost2010Prop32
280
     0
102
RTVSPost2010PropOp32
 70
     0
102
RTVSPost2010Prop33
280
     0
102
RTVSPost2010PropOp33
 70
     0
102
RTVSPost2010Prop34
280
     0
102
RTVSPost2010PropOp34
 70
     0
102
RTVSPost2010Prop35
280
     0
102
RTVSPost2010PropOp35
 70
     0
102
RTVSPost2010Prop36
280
     0
102
RTVSPost2010PropOp36
 70
     0
102
RTVSPost2010Prop37
 90
       50
102
RTVSPost2010PropOp37
 70
     0
102
RTVSPost2010Prop38
140
0.0
102
RTVSPost2010PropOp38
 70
     0
102
RTVSPost2010Prop39
140
1.0
102
RTVSPost2010PropOp39
 70
     0
102
RTVSPost2010Prop40
 90
        0
102
RTVSPost2010PropOp40
 70
     0
102
RTVSPost2010Prop41ColorIndex
 90
       18
102
RTVSPost2010Prop41ColorRGB
 90
        0
102
RTVSPost2010PropOp41
 70
     0
102
RTVSPost2010Prop42
 90
       50
102
RTVSPost2010PropOp42
 70
     0
102
RTVSPost2010Prop43
 90
        3
102
RTVSPost2010PropOp43
 70
     0
102
RTVSPost2010Prop44ColorIndex
 90
        5
102
RTVSPost2010Prop44ColorRGB
 90
      255
102
RTVSPost2010PropOp44
 70
     0
102
RTVSPost2010Prop45
280
     0
102
RTVSPost2010PropOp45
 70
     0
102
RTVSPost2010Prop46
 90
       50
102
RTVSPost2010PropOp46
 70
     0
102
RTVSPost2010Prop47
 90
       50
102
RTVSPost2010PropOp47
 70
     0
102
RTVSPost2010Prop48
 90
       50
102
RTVSPost2010PropOp48
 70
     0
102
RTVSPost2010Prop49
280
     0
102
RTVSPost2010PropOp49
 70
     0
102
RTVSPost2010Prop50
 90
       50
102
RTVSPost2010PropOp50
 70
     0
102
RTVSPost2010Prop51ColorIndex
 90
      256
102
RTVSPost2010Prop51ColorRGB
 90
-16777216
102
RTVSPost2010PropOp51
 70
     0
102
RTVSPost2010Prop52
140
1.0
102
RTVSPost2010PropOp52
 70
     0
102
RTVSPost2010Prop53
 90
        2
102
RTVSPost2010PropOp53
 70
     0
102
RTVSPost2010Prop54
  1
strokes_ogs.tif
102
RTVSPost2010PropOp54
 70
     0
102
RTVSPost2010Prop55
280
     0
102
RTVSPost2010PropOp55
 70
     0
102
RTVSPost2010Prop56
140
1.0
102
RTVSPost2010PropOp56
 70
     0
102
RTVSPost2010Prop57
140
1.0
102
RTVSPost2010PropOp57
 70
     0
  0
XRECORD
  5
657C5
102
{ACAD_REACTORS
330
657C4
102
}
330
657C4
100
AcDbXrecord
280
     1
102
RTVSPost2010Prop28
280
     0
102
RTVSPost2010PropOp28
 70
     1
102
RTVSPost2010Prop29
280
     1
102
RTVSPost2010PropOp29
 70
     1
102
RTVSPost2010Prop30
280
     1
102
RTVSPost2010PropOp30
 70
     1
102
RTVSPost2010Prop31
280
     0
102
RTVSPost2010PropOp31
 70
     1
102
RTVSPost2010Prop32
280
     0
102
RTVSPost2010PropOp32
 70
     1
102
RTVSPost2010Prop33
280
     0
102
RTVSPost2010PropOp33
 70
     1
102
RTVSPost2010Prop34
280
     0
102
RTVSPost2010PropOp34
 70
     1
102
RTVSPost2010Prop35
280
     0
102
RTVSPost2010PropOp35
 70
     1
102
RTVSPost2010Prop36
280
     0
102
RTVSPost2010PropOp36
 70
     1
102
RTVSPost2010Prop37
 90
       50
102
RTVSPost2010PropOp37
 70
     1
102
RTVSPost2010Prop38
140
0.0
102
RTVSPost2010PropOp38
 70
     1
102
RTVSPost2010Prop39
140
1.0
102
RTVSPost2010PropOp39
 70
     1
102
RTVSPost2010Prop40
 90
        0
102
RTVSPost2010PropOp40
 70
     1
102
RTVSPost2010Prop41ColorIndex
 90
       18
102
RTVSPost2010Prop41ColorRGB
 90
        0
102
RTVSPost2010PropOp41
 70
     1
102
RTVSPost2010Prop42
 90
       50
102
RTVSPost2010PropOp42
 70
     1
102
RTVSPost2010Prop43
 90
        3
102
RTVSPost2010PropOp43
 70
     1
102
RTVSPost2010Prop44ColorIndex
 90
        5
102
RTVSPost2010Prop44ColorRGB
 90
      255
102
RTVSPost2010PropOp44
 70
     1
102
RTVSPost2010Prop45
280
     0
102
RTVSPost2010PropOp45
 70
     1
102
RTVSPost2010Prop46
 90
       50
102
RTVSPost2010PropOp46
 70
     1
102
RTVSPost2010Prop47
 90
       50
102
RTVSPost2010PropOp47
 70
     1
102
RTVSPost2010Prop48
 90
       50
102
RTVSPost2010PropOp48
 70
     1
102
RTVSPost2010Prop49
280
     0
102
RTVSPost2010PropOp49
 70
     1
102
RTVSPost2010Prop50
 90
       50
102
RTVSPost2010PropOp50
 70
     1
102
RTVSPost2010Prop51ColorIndex
 90
      256
102
RTVSPost2010Prop51ColorRGB
 90
-16777216
102
RTVSPost2010PropOp51
 70
     0
102
RTVSPost2010Prop52
140
1.0
102
RTVSPost2010PropOp52
 70
     0
102
RTVSPost2010Prop53
 90
        2
102
RTVSPost2010PropOp53
 70
     1
102
RTVSPost2010Prop54
  1
strokes_ogs.tif
102
RTVSPost2010PropOp54
 70
     1
102
RTVSPost2010Prop55
280
     0
102
RTVSPost2010PropOp55
 70
     1
102
RTVSPost2010Prop56
140
1.0
102
RTVSPost2010PropOp56
 70
     1
102
RTVSPost2010Prop57
140
1.0
102
RTVSPost2010PropOp57
 70
     1
  0
XRECORD
  5
657DB
102
{ACAD_REACTORS
330
657DA
102
}
330
657DA
100
AcDbXrecord
280
     1
102
RTVSPost2010Prop28
280
     0
102
RTVSPost2010PropOp28
 70
     0
102
RTVSPost2010Prop29
280
     1
102
RTVSPost2010PropOp29
 70
     0
102
RTVSPost2010Prop30
280
     1
102
RTVSPost2010PropOp30
 70
     0
102
RTVSPost2010Prop31
280
     0
102
RTVSPost2010PropOp31
 70
     0
102
RTVSPost2010Prop32
280
     0
102
RTVSPost2010PropOp32
 70
     0
102
RTVSPost2010Prop33
280
     0
102
RTVSPost2010PropOp33
 70
     0
102
RTVSPost2010Prop34
280
     0
102
RTVSPost2010PropOp34
 70
     0
102
RTVSPost2010Prop35
280
     0
102
RTVSPost2010PropOp35
 70
     0
102
RTVSPost2010Prop36
280
     0
102
RTVSPost2010PropOp36
 70
     0
102
RTVSPost2010Prop37
 90
       50
102
RTVSPost2010PropOp37
 70
     0
102
RTVSPost2010Prop38
140
0.0
102
RTVSPost2010PropOp38
 70
     0
102
RTVSPost2010Prop39
140
1.0
102
RTVSPost2010PropOp39
 70
     0
102
RTVSPost2010Prop40
 90
        0
102
RTVSPost2010PropOp40
 70
     0
102
RTVSPost2010Prop41ColorIndex
 90
       18
102
RTVSPost2010Prop41ColorRGB
 90
        0
102
RTVSPost2010PropOp41
 70
     0
102
RTVSPost2010Prop42
 90
       50
102
RTVSPost2010PropOp42
 70
     0
102
RTVSPost2010Prop43
 90
        3
102
RTVSPost2010PropOp43
 70
     0
102
RTVSPost2010Prop44ColorIndex
 90
        5
102
RTVSPost2010Prop44ColorRGB
 90
      255
102
RTVSPost2010PropOp44
 70
     0
102
RTVSPost2010Prop45
280
     0
102
RTVSPost2010PropOp45
 70
     0
102
RTVSPost2010Prop46
 90
       50
102
RTVSPost2010PropOp46
 70
     0
102
RTVSPost2010Prop47
 90
       50
102
RTVSPost2010PropOp47
 70
     0
102
RTVSPost2010Prop48
 90
       50
102
RTVSPost2010PropOp48
 70
     0
102
RTVSPost2010Prop49
280
     0
102
RTVSPost2010PropOp49
 70
     0
102
RTVSPost2010Prop50
 90
       50
102
RTVSPost2010PropOp50
 70
     0
102
RTVSPost2010Prop51ColorIndex
 90
      256
102
RTVSPost2010Prop51ColorRGB
 90
-16777216
102
RTVSPost2010PropOp51
 70
     0
102
RTVSPost2010Prop52
140
1.0
102
RTVSPost2010PropOp52
 70
     0
102
RTVSPost2010Prop53
 90
        2
102
RTVSPost2010PropOp53
 70
     0
102
RTVSPost2010Prop54
  1
strokes_ogs.tif
102
RTVSPost2010PropOp54
 70
     0
102
RTVSPost2010Prop55
280
     0
102
RTVSPost2010PropOp55
 70
     0
102
RTVSPost2010Prop56
140
1.0
102
RTVSPost2010PropOp56
 70
     0
102
RTVSPost2010Prop57
140
1.0
102
RTVSPost2010PropOp57
 70
     0
  0
XRECORD
  5
657BD
102
{ACAD_REACTORS
330
657BC
102
}
330
657BC
100
AcDbXrecord
280
     1
102
RTVSPost2010Prop28
280
     0
102
RTVSPost2010PropOp28
 70
     1
102
RTVSPost2010Prop29
280
     1
102
RTVSPost2010PropOp29
 70
     1
102
RTVSPost2010Prop30
280
     1
102
RTVSPost2010PropOp30
 70
     1
102
RTVSPost2010Prop31
280
     0
102
RTVSPost2010PropOp31
 70
     1
102
RTVSPost2010Prop32
280
     0
102
RTVSPost2010PropOp32
 70
     1
102
RTVSPost2010Prop33
280
     0
102
RTVSPost2010PropOp33
 70
     1
102
RTVSPost2010Prop34
280
     0
102
RTVSPost2010PropOp34
 70
     1
102
RTVSPost2010Prop35
280
     0
102
RTVSPost2010PropOp35
 70
     1
102
RTVSPost2010Prop36
280
     0
102
RTVSPost2010PropOp36
 70
     1
102
RTVSPost2010Prop37
 90
       50
102
RTVSPost2010PropOp37
 70
     1
102
RTVSPost2010Prop38
140
0.0
102
RTVSPost2010PropOp38
 70
     1
102
RTVSPost2010Prop39
140
1.0
102
RTVSPost2010PropOp39
 70
     1
102
RTVSPost2010Prop40
 90
        0
102
RTVSPost2010PropOp40
 70
     1
102
RTVSPost2010Prop41ColorIndex
 90
       18
102
RTVSPost2010Prop41ColorRGB
 90
        0
102
RTVSPost2010PropOp41
 70
     1
102
RTVSPost2010Prop42
 90
       50
102
RTVSPost2010PropOp42
 70
     1
102
RTVSPost2010Prop43
 90
        3
102
RTVSPost2010PropOp43
 70
     1
102
RTVSPost2010Prop44ColorIndex
 90
        5
102
RTVSPost2010Prop44ColorRGB
 90
      255
102
RTVSPost2010PropOp44
 70
     1
102
RTVSPost2010Prop45
280
     0
102
RTVSPost2010PropOp45
 70
     1
102
RTVSPost2010Prop46
 90
       50
102
RTVSPost2010PropOp46
 70
     1
102
RTVSPost2010Prop47
 90
       50
102
RTVSPost2010PropOp47
 70
     1
102
RTVSPost2010Prop48
 90
       50
102
RTVSPost2010PropOp48
 70
     1
102
RTVSPost2010Prop49
280
     0
102
RTVSPost2010PropOp49
 70
     1
102
RTVSPost2010Prop50
 90
       50
102
RTVSPost2010PropOp50
 70
     1
102
RTVSPost2010Prop51ColorIndex
 90
      256
102
RTVSPost2010Prop51ColorRGB
 90
-16777216
102
RTVSPost2010PropOp51
 70
     0
102
RTVSPost2010Prop52
140
1.0
102
RTVSPost2010PropOp52
 70
     0
102
RTVSPost2010Prop53
 90
        2
102
RTVSPost2010PropOp53
 70
     1
102
RTVSPost2010Prop54
  1
strokes_ogs.tif
102
RTVSPost2010PropOp54
 70
     1
102
RTVSPost2010Prop55
280
     0
102
RTVSPost2010PropOp55
 70
     1
102
RTVSPost2010Prop56
140
1.0
102
RTVSPost2010PropOp56
 70
     1
102
RTVSPost2010Prop57
140
1.0
102
RTVSPost2010PropOp57
 70
     1
  0
XRECORD
  5
657D7
102
{ACAD_REACTORS
330
657D6
102
}
330
657D6
100
AcDbXrecord
280
     1
102
RTVSPost2010Prop28
280
     0
102
RTVSPost2010PropOp28
 70
     1
102
RTVSPost2010Prop29
280
     1
102
RTVSPost2010PropOp29
 70
     1
102
RTVSPost2010Prop30
280
     1
102
RTVSPost2010PropOp30
 70
     1
102
RTVSPost2010Prop31
280
     0
102
RTVSPost2010PropOp31
 70
     1
102
RTVSPost2010Prop32
280
     0
102
RTVSPost2010PropOp32
 70
     1
102
RTVSPost2010Prop33
280
     0
102
RTVSPost2010PropOp33
 70
     1
102
RTVSPost2010Prop34
280
     0
102
RTVSPost2010PropOp34
 70
     1
102
RTVSPost2010Prop35
280
     0
102
RTVSPost2010PropOp35
 70
     1
102
RTVSPost2010Prop36
280
     0
102
RTVSPost2010PropOp36
 70
     1
102
RTVSPost2010Prop37
 90
       50
102
RTVSPost2010PropOp37
 70
     1
102
RTVSPost2010Prop38
140
0.0
102
RTVSPost2010PropOp38
 70
     1
102
RTVSPost2010Prop39
140
1.0
102
RTVSPost2010PropOp39
 70
     1
102
RTVSPost2010Prop40
 90
        0
102
RTVSPost2010PropOp40
 70
     1
102
RTVSPost2010Prop41ColorIndex
 90
       18
102
RTVSPost2010Prop41ColorRGB
 90
        0
102
RTVSPost2010PropOp41
 70
     1
102
RTVSPost2010Prop42
 90
       50
102
RTVSPost2010PropOp42
 70
     1
102
RTVSPost2010Prop43
 90
        3
102
RTVSPost2010PropOp43
 70
     1
102
RTVSPost2010Prop44ColorIndex
 90
        5
102
RTVSPost2010Prop44ColorRGB
 90
      255
102
RTVSPost2010PropOp44
 70
     1
102
RTVSPost2010Prop45
280
     0
102
RTVSPost2010PropOp45
 70
     1
102
RTVSPost2010Prop46
 90
       50
102
RTVSPost2010PropOp46
 70
     1
102
RTVSPost2010Prop47
 90
       50
102
RTVSPost2010PropOp47
 70
     1
102
RTVSPost2010Prop48
 90
       50
102
RTVSPost2010PropOp48
 70
     1
102
RTVSPost2010Prop49
280
     0
102
RTVSPost2010PropOp49
 70
     1
102
RTVSPost2010Prop50
 90
       50
102
RTVSPost2010PropOp50
 70
     1
102
RTVSPost2010Prop51ColorIndex
 90
      256
102
RTVSPost2010Prop51ColorRGB
 90
-16777216
102
RTVSPost2010PropOp51
 70
     0
102
RTVSPost2010Prop52
140
1.0
102
RTVSPost2010PropOp52
 70
     0
102
RTVSPost2010Prop53
 90
        2
102
RTVSPost2010PropOp53
 70
     1
102
RTVSPost2010Prop54
  1
strokes_ogs.tif
102
RTVSPost2010PropOp54
 70
     1
102
RTVSPost2010Prop55
280
     0
102
RTVSPost2010PropOp55
 70
     1
102
RTVSPost2010Prop56
140
1.0
102
RTVSPost2010PropOp56
 70
     1
102
RTVSPost2010Prop57
140
1.0
102
RTVSPost2010PropOp57
 70
     1
  0
XRECORD
  5
657D5
102
{ACAD_REACTORS
330
657D4
102
}
330
657D4
100
AcDbXrecord
280
     1
102
RTVSPost2010Prop28
280
     0
102
RTVSPost2010PropOp28
 70
     1
102
RTVSPost2010Prop29
280
     1
102
RTVSPost2010PropOp29
 70
     1
102
RTVSPost2010Prop30
280
     1
102
RTVSPost2010PropOp30
 70
     1
102
RTVSPost2010Prop31
280
     0
102
RTVSPost2010PropOp31
 70
     1
102
RTVSPost2010Prop32
280
     0
102
RTVSPost2010PropOp32
 70
     1
102
RTVSPost2010Prop33
280
     0
102
RTVSPost2010PropOp33
 70
     1
102
RTVSPost2010Prop34
280
     0
102
RTVSPost2010PropOp34
 70
     1
102
RTVSPost2010Prop35
280
     0
102
RTVSPost2010PropOp35
 70
     1
102
RTVSPost2010Prop36
280
     0
102
RTVSPost2010PropOp36
 70
     1
102
RTVSPost2010Prop37
 90
       50
102
RTVSPost2010PropOp37
 70
     1
102
RTVSPost2010Prop38
140
0.0
102
RTVSPost2010PropOp38
 70
     1
102
RTVSPost2010Prop39
140
1.0
102
RTVSPost2010PropOp39
 70
     1
102
RTVSPost2010Prop40
 90
        0
102
RTVSPost2010PropOp40
 70
     1
102
RTVSPost2010Prop41ColorIndex
 90
       18
102
RTVSPost2010Prop41ColorRGB
 90
        0
102
RTVSPost2010PropOp41
 70
     1
102
RTVSPost2010Prop42
 90
       50
102
RTVSPost2010PropOp42
 70
     1
102
RTVSPost2010Prop43
 90
        3
102
RTVSPost2010PropOp43
 70
     1
102
RTVSPost2010Prop44ColorIndex
 90
        5
102
RTVSPost2010Prop44ColorRGB
 90
      255
102
RTVSPost2010PropOp44
 70
     1
102
RTVSPost2010Prop45
280
     0
102
RTVSPost2010PropOp45
 70
     1
102
RTVSPost2010Prop46
 90
       50
102
RTVSPost2010PropOp46
 70
     1
102
RTVSPost2010Prop47
 90
       50
102
RTVSPost2010PropOp47
 70
     1
102
RTVSPost2010Prop48
 90
       50
102
RTVSPost2010PropOp48
 70
     1
102
RTVSPost2010Prop49
280
     0
102
RTVSPost2010PropOp49
 70
     1
102
RTVSPost2010Prop50
 90
       50
102
RTVSPost2010PropOp50
 70
     1
102
RTVSPost2010Prop51ColorIndex
 90
      256
102
RTVSPost2010Prop51ColorRGB
 90
-16777216
102
RTVSPost2010PropOp51
 70
     0
102
RTVSPost2010Prop52
140
1.0
102
RTVSPost2010PropOp52
 70
     0
102
RTVSPost2010Prop53
 90
        2
102
RTVSPost2010PropOp53
 70
     1
102
RTVSPost2010Prop54
  1
strokes_ogs.tif
102
RTVSPost2010PropOp54
 70
     1
102
RTVSPost2010Prop55
280
     0
102
RTVSPost2010PropOp55
 70
     1
102
RTVSPost2010Prop56
140
1.0
102
RTVSPost2010PropOp56
 70
     1
102
RTVSPost2010Prop57
140
1.0
102
RTVSPost2010PropOp57
 70
     1
  0
XRECORD
  5
657CF
102
{ACAD_REACTORS
330
657CE
102
}
330
657CE
100
AcDbXrecord
280
     1
102
RTVSPost2010Prop28
280
     0
102
RTVSPost2010PropOp28
 70
     1
102
RTVSPost2010Prop29
280
     1
102
RTVSPost2010PropOp29
 70
     1
102
RTVSPost2010Prop30
280
     1
102
RTVSPost2010PropOp30
 70
     1
102
RTVSPost2010Prop31
280
     0
102
RTVSPost2010PropOp31
 70
     1
102
RTVSPost2010Prop32
280
     0
102
RTVSPost2010PropOp32
 70
     1
102
RTVSPost2010Prop33
280
     0
102
RTVSPost2010PropOp33
 70
     1
102
RTVSPost2010Prop34
280
     0
102
RTVSPost2010PropOp34
 70
     1
102
RTVSPost2010Prop35
280
     0
102
RTVSPost2010PropOp35
 70
     1
102
RTVSPost2010Prop36
280
     0
102
RTVSPost2010PropOp36
 70
     1
102
RTVSPost2010Prop37
 90
       50
102
RTVSPost2010PropOp37
 70
     1
102
RTVSPost2010Prop38
140
0.0
102
RTVSPost2010PropOp38
 70
     1
102
RTVSPost2010Prop39
140
1.0
102
RTVSPost2010PropOp39
 70
     1
102
RTVSPost2010Prop40
 90
        0
102
RTVSPost2010PropOp40
 70
     1
102
RTVSPost2010Prop41ColorIndex
 90
       18
102
RTVSPost2010Prop41ColorRGB
 90
        0
102
RTVSPost2010PropOp41
 70
     1
102
RTVSPost2010Prop42
 90
       50
102
RTVSPost2010PropOp42
 70
     1
102
RTVSPost2010Prop43
 90
        3
102
RTVSPost2010PropOp43
 70
     1
102
RTVSPost2010Prop44ColorIndex
 90
        5
102
RTVSPost2010Prop44ColorRGB
 90
      255
102
RTVSPost2010PropOp44
 70
     1
102
RTVSPost2010Prop45
280
     0
102
RTVSPost2010PropOp45
 70
     1
102
RTVSPost2010Prop46
 90
       50
102
RTVSPost2010PropOp46
 70
     1
102
RTVSPost2010Prop47
 90
       50
102
RTVSPost2010PropOp47
 70
     1
102
RTVSPost2010Prop48
 90
       50
102
RTVSPost2010PropOp48
 70
     1
102
RTVSPost2010Prop49
280
     0
102
RTVSPost2010PropOp49
 70
     1
102
RTVSPost2010Prop50
 90
       50
102
RTVSPost2010PropOp50
 70
     1
102
RTVSPost2010Prop51ColorIndex
 90
      256
102
RTVSPost2010Prop51ColorRGB
 90
-16777216
102
RTVSPost2010PropOp51
 70
     0
102
RTVSPost2010Prop52
140
1.0
102
RTVSPost2010PropOp52
 70
     0
102
RTVSPost2010Prop53
 90
        2
102
RTVSPost2010PropOp53
 70
     1
102
RTVSPost2010Prop54
  1
strokes_ogs.tif
102
RTVSPost2010PropOp54
 70
     1
102
RTVSPost2010Prop55
280
     0
102
RTVSPost2010PropOp55
 70
     1
102
RTVSPost2010Prop56
140
1.0
102
RTVSPost2010PropOp56
 70
     1
102
RTVSPost2010Prop57
140
1.0
102
RTVSPost2010PropOp57
 70
     1
  0
XRECORD
  5
657D1
102
{ACAD_REACTORS
330
657D0
102
}
330
657D0
100
AcDbXrecord
280
     1
102
RTVSPost2010Prop28
280
     0
102
RTVSPost2010PropOp28
 70
     1
102
RTVSPost2010Prop29
280
     1
102
RTVSPost2010PropOp29
 70
     1
102
RTVSPost2010Prop30
280
     1
102
RTVSPost2010PropOp30
 70
     1
102
RTVSPost2010Prop31
280
     0
102
RTVSPost2010PropOp31
 70
     1
102
RTVSPost2010Prop32
280
     0
102
RTVSPost2010PropOp32
 70
     1
102
RTVSPost2010Prop33
280
     0
102
RTVSPost2010PropOp33
 70
     1
102
RTVSPost2010Prop34
280
     0
102
RTVSPost2010PropOp34
 70
     1
102
RTVSPost2010Prop35
280
     0
102
RTVSPost2010PropOp35
 70
     1
102
RTVSPost2010Prop36
280
     0
102
RTVSPost2010PropOp36
 70
     1
102
RTVSPost2010Prop37
 90
       50
102
RTVSPost2010PropOp37
 70
     1
102
RTVSPost2010Prop38
140
0.0
102
RTVSPost2010PropOp38
 70
     1
102
RTVSPost2010Prop39
140
1.0
102
RTVSPost2010PropOp39
 70
     1
102
RTVSPost2010Prop40
 90
        0
102
RTVSPost2010PropOp40
 70
     1
102
RTVSPost2010Prop41ColorIndex
 90
       18
102
RTVSPost2010Prop41ColorRGB
 90
        0
102
RTVSPost2010PropOp41
 70
     1
102
RTVSPost2010Prop42
 90
       50
102
RTVSPost2010PropOp42
 70
     1
102
RTVSPost2010Prop43
 90
        3
102
RTVSPost2010PropOp43
 70
     1
102
RTVSPost2010Prop44ColorIndex
 90
        5
102
RTVSPost2010Prop44ColorRGB
 90
      255
102
RTVSPost2010PropOp44
 70
     1
102
RTVSPost2010Prop45
280
     0
102
RTVSPost2010PropOp45
 70
     1
102
RTVSPost2010Prop46
 90
       50
102
RTVSPost2010PropOp46
 70
     1
102
RTVSPost2010Prop47
 90
       50
102
RTVSPost2010PropOp47
 70
     1
102
RTVSPost2010Prop48
 90
       50
102
RTVSPost2010PropOp48
 70
     1
102
RTVSPost2010Prop49
280
     0
102
RTVSPost2010PropOp49
 70
     1
102
RTVSPost2010Prop50
 90
       50
102
RTVSPost2010PropOp50
 70
     1
102
RTVSPost2010Prop51ColorIndex
 90
      256
102
RTVSPost2010Prop51ColorRGB
 90
-16777216
102
RTVSPost2010PropOp51
 70
     0
102
RTVSPost2010Prop52
140
1.0
102
RTVSPost2010PropOp52
 70
     0
102
RTVSPost2010Prop53
 90
        2
102
RTVSPost2010PropOp53
 70
     1
102
RTVSPost2010Prop54
  1
strokes_ogs.tif
102
RTVSPost2010PropOp54
 70
     1
102
RTVSPost2010Prop55
280
     0
102
RTVSPost2010PropOp55
 70
     1
102
RTVSPost2010Prop56
140
1.0
102
RTVSPost2010PropOp56
 70
     1
102
RTVSPost2010Prop57
140
1.0
102
RTVSPost2010PropOp57
 70
     1
  0
XRECORD
  5
657C3
102
{ACAD_REACTORS
330
657C2
102
}
330
657C2
100
AcDbXrecord
280
     1
102
RTVSPost2010Prop28
280
     0
102
RTVSPost2010PropOp28
 70
     1
102
RTVSPost2010Prop29
280
     1
102
RTVSPost2010PropOp29
 70
     1
102
RTVSPost2010Prop30
280
     1
102
RTVSPost2010PropOp30
 70
     1
102
RTVSPost2010Prop31
280
     0
102
RTVSPost2010PropOp31
 70
     1
102
RTVSPost2010Prop32
280
     0
102
RTVSPost2010PropOp32
 70
     1
102
RTVSPost2010Prop33
280
     0
102
RTVSPost2010PropOp33
 70
     1
102
RTVSPost2010Prop34
280
     0
102
RTVSPost2010PropOp34
 70
     1
102
RTVSPost2010Prop35
280
     0
102
RTVSPost2010PropOp35
 70
     1
102
RTVSPost2010Prop36
280
     0
102
RTVSPost2010PropOp36
 70
     1
102
RTVSPost2010Prop37
 90
       50
102
RTVSPost2010PropOp37
 70
     1
102
RTVSPost2010Prop38
140
0.0
102
RTVSPost2010PropOp38
 70
     1
102
RTVSPost2010Prop39
140
1.0
102
RTVSPost2010PropOp39
 70
     1
102
RTVSPost2010Prop40
 90
        0
102
RTVSPost2010PropOp40
 70
     1
102
RTVSPost2010Prop41ColorIndex
 90
       18
102
RTVSPost2010Prop41ColorRGB
 90
        0
102
RTVSPost2010PropOp41
 70
     1
102
RTVSPost2010Prop42
 90
       50
102
RTVSPost2010PropOp42
 70
     1
102
RTVSPost2010Prop43
 90
        3
102
RTVSPost2010PropOp43
 70
     1
102
RTVSPost2010Prop44ColorIndex
 90
        5
102
RTVSPost2010Prop44ColorRGB
 90
      255
102
RTVSPost2010PropOp44
 70
     1
102
RTVSPost2010Prop45
280
     0
102
RTVSPost2010PropOp45
 70
     1
102
RTVSPost2010Prop46
 90
       50
102
RTVSPost2010PropOp46
 70
     1
102
RTVSPost2010Prop47
 90
       50
102
RTVSPost2010PropOp47
 70
     1
102
RTVSPost2010Prop48
 90
       50
102
RTVSPost2010PropOp48
 70
     1
102
RTVSPost2010Prop49
280
     0
102
RTVSPost2010PropOp49
 70
     1
102
RTVSPost2010Prop50
 90
       50
102
RTVSPost2010PropOp50
 70
     1
102
RTVSPost2010Prop51ColorIndex
 90
      256
102
RTVSPost2010Prop51ColorRGB
 90
-16777216
102
RTVSPost2010PropOp51
 70
     0
102
RTVSPost2010Prop52
140
1.0
102
RTVSPost2010PropOp52
 70
     0
102
RTVSPost2010Prop53
 90
        2
102
RTVSPost2010PropOp53
 70
     1
102
RTVSPost2010Prop54
  1
strokes_ogs.tif
102
RTVSPost2010PropOp54
 70
     1
102
RTVSPost2010Prop55
280
     0
102
RTVSPost2010PropOp55
 70
     1
102
RTVSPost2010Prop56
140
1.0
102
RTVSPost2010PropOp56
 70
     1
102
RTVSPost2010Prop57
140
1.0
102
RTVSPost2010PropOp57
 70
     1
  0
XRECORD
  5
657CB
102
{ACAD_REACTORS
330
657CA
102
}
330
657CA
100
AcDbXrecord
280
     1
102
RTVSPost2010Prop28
280
     0
102
RTVSPost2010PropOp28
 70
     1
102
RTVSPost2010Prop29
280
     1
102
RTVSPost2010PropOp29
 70
     1
102
RTVSPost2010Prop30
280
     1
102
RTVSPost2010PropOp30
 70
     1
102
RTVSPost2010Prop31
280
     0
102
RTVSPost2010PropOp31
 70
     1
102
RTVSPost2010Prop32
280
     0
102
RTVSPost2010PropOp32
 70
     1
102
RTVSPost2010Prop33
280
     0
102
RTVSPost2010PropOp33
 70
     1
102
RTVSPost2010Prop34
280
     0
102
RTVSPost2010PropOp34
 70
     1
102
RTVSPost2010Prop35
280
     0
102
RTVSPost2010PropOp35
 70
     1
102
RTVSPost2010Prop36
280
     0
102
RTVSPost2010PropOp36
 70
     1
102
RTVSPost2010Prop37
 90
       50
102
RTVSPost2010PropOp37
 70
     1
102
RTVSPost2010Prop38
140
0.0
102
RTVSPost2010PropOp38
 70
     1
102
RTVSPost2010Prop39
140
1.0
102
RTVSPost2010PropOp39
 70
     1
102
RTVSPost2010Prop40
 90
        0
102
RTVSPost2010PropOp40
 70
     1
102
RTVSPost2010Prop41ColorIndex
 90
       18
102
RTVSPost2010Prop41ColorRGB
 90
        0
102
RTVSPost2010PropOp41
 70
     1
102
RTVSPost2010Prop42
 90
       50
102
RTVSPost2010PropOp42
 70
     1
102
RTVSPost2010Prop43
 90
        3
102
RTVSPost2010PropOp43
 70
     1
102
RTVSPost2010Prop44ColorIndex
 90
        5
102
RTVSPost2010Prop44ColorRGB
 90
      255
102
RTVSPost2010PropOp44
 70
     1
102
RTVSPost2010Prop45
280
     0
102
RTVSPost2010PropOp45
 70
     1
102
RTVSPost2010Prop46
 90
       50
102
RTVSPost2010PropOp46
 70
     1
102
RTVSPost2010Prop47
 90
       50
102
RTVSPost2010PropOp47
 70
     1
102
RTVSPost2010Prop48
 90
       50
102
RTVSPost2010PropOp48
 70
     1
102
RTVSPost2010Prop49
280
     0
102
RTVSPost2010PropOp49
 70
     1
102
RTVSPost2010Prop50
 90
       50
102
RTVSPost2010PropOp50
 70
     1
102
RTVSPost2010Prop51ColorIndex
 90
      256
102
RTVSPost2010Prop51ColorRGB
 90
-16777216
102
RTVSPost2010PropOp51
 70
     0
102
RTVSPost2010Prop52
140
1.0
102
RTVSPost2010PropOp52
 70
     0
102
RTVSPost2010Prop53
 90
        2
102
RTVSPost2010PropOp53
 70
     1
102
RTVSPost2010Prop54
  1
strokes_ogs.tif
102
RTVSPost2010PropOp54
 70
     1
102
RTVSPost2010Prop55
280
     0
102
RTVSPost2010PropOp55
 70
     1
102
RTVSPost2010Prop56
140
1.0
102
RTVSPost2010PropOp56
 70
     1
102
RTVSPost2010Prop57
140
1.0
102
RTVSPost2010PropOp57
 70
     1
  0
XRECORD
  5
657D3
102
{ACAD_REACTORS
330
657D2
102
}
330
657D2
100
AcDbXrecord
280
     1
102
RTVSPost2010Prop28
280
     0
102
RTVSPost2010PropOp28
 70
     1
102
RTVSPost2010Prop29
280
     1
102
RTVSPost2010PropOp29
 70
     1
102
RTVSPost2010Prop30
280
     1
102
RTVSPost2010PropOp30
 70
     1
102
RTVSPost2010Prop31
280
     0
102
RTVSPost2010PropOp31
 70
     1
102
RTVSPost2010Prop32
280
     0
102
RTVSPost2010PropOp32
 70
     1
102
RTVSPost2010Prop33
280
     0
102
RTVSPost2010PropOp33
 70
     1
102
RTVSPost2010Prop34
280
     0
102
RTVSPost2010PropOp34
 70
     1
102
RTVSPost2010Prop35
280
     0
102
RTVSPost2010PropOp35
 70
     1
102
RTVSPost2010Prop36
280
     0
102
RTVSPost2010PropOp36
 70
     1
102
RTVSPost2010Prop37
 90
       50
102
RTVSPost2010PropOp37
 70
     1
102
RTVSPost2010Prop38
140
0.0
102
RTVSPost2010PropOp38
 70
     1
102
RTVSPost2010Prop39
140
1.0
102
RTVSPost2010PropOp39
 70
     1
102
RTVSPost2010Prop40
 90
        0
102
RTVSPost2010PropOp40
 70
     1
102
RTVSPost2010Prop41ColorIndex
 90
       18
102
RTVSPost2010Prop41ColorRGB
 90
        0
102
RTVSPost2010PropOp41
 70
     1
102
RTVSPost2010Prop42
 90
       50
102
RTVSPost2010PropOp42
 70
     1
102
RTVSPost2010Prop43
 90
        3
102
RTVSPost2010PropOp43
 70
     1
102
RTVSPost2010Prop44ColorIndex
 90
        5
102
RTVSPost2010Prop44ColorRGB
 90
      255
102
RTVSPost2010PropOp44
 70
     1
102
RTVSPost2010Prop45
280
     0
102
RTVSPost2010PropOp45
 70
     1
102
RTVSPost2010Prop46
 90
       50
102
RTVSPost2010PropOp46
 70
     1
102
RTVSPost2010Prop47
 90
       50
102
RTVSPost2010PropOp47
 70
     1
102
RTVSPost2010Prop48
 90
       50
102
RTVSPost2010PropOp48
 70
     1
102
RTVSPost2010Prop49
280
     0
102
RTVSPost2010PropOp49
 70
     1
102
RTVSPost2010Prop50
 90
       50
102
RTVSPost2010PropOp50
 70
     1
102
RTVSPost2010Prop51ColorIndex
 90
      256
102
RTVSPost2010Prop51ColorRGB
 90
-16777216
102
RTVSPost2010PropOp51
 70
     0
102
RTVSPost2010Prop52
140
1.0
102
RTVSPost2010PropOp52
 70
     0
102
RTVSPost2010Prop53
 90
        2
102
RTVSPost2010PropOp53
 70
     1
102
RTVSPost2010Prop54
  1
strokes_ogs.tif
102
RTVSPost2010PropOp54
 70
     1
102
RTVSPost2010Prop55
280
     0
102
RTVSPost2010PropOp55
 70
     1
102
RTVSPost2010Prop56
140
1.0
102
RTVSPost2010PropOp56
 70
     1
102
RTVSPost2010Prop57
140
1.0
102
RTVSPost2010PropOp57
 70
     1
  0
ENDSEC
  0
EOF
