  0
SECTION
  2
HEADER
  9
$ACADVER
  1
AC1009
  9
$INSBASE
 10
0.0
 20
0.0
 30
0.0
  9
$EXTMIN
 10
-256.40673134836749
 20
-38.458271872361209
 30
0.0
  9
$EXTMAX
 10
1928.121001326909
 20
282.28931819520892
 30
0.0
  9
$LIMMIN
 10
0.0
 20
0.0
  9
$LIMMAX
 10
420.0
 20
297.0
  9
$ORTHOMODE
 70
     1
  9
$REGENMODE
 70
     1
  9
$FILLMODE
 70
     1
  9
$QTEXTMODE
 70
     0
  9
$MIRRTEXT
 70
     1
  9
$DRAGMODE
 70
     2
  9
$LTSCALE
 40
1.0
  9
$OSMODE
 70
    37
  9
$ATTMODE
 70
     1
  9
$TEXTSIZE
 40
2.5
  9
$TRACEWID
 40
1.0
  9
$TEXTSTYLE
  7
KANJI
  9
$CLAYER
  8
1外形線
  9
$CELTYPE
  6
BYLAYER
  9
$CECOLOR
 62
   256
  9
$DIMSCALE
 40
0.0
  9
$DIMASZ
 40
1.8
  9
$DIMEXO
 40
1.0
  9
$DIMDLI
 40
0.0
  9
$DIMRND
 40
0.0
  9
$DIMDLE
 40
0.0
  9
$DIMEXE
 40
1.0
  9
$DIMTP
 40
0.0
  9
$DIMTM
 40
0.0
  9
$DIMTXT
 40
2.5
  9
$DIMCEN
 40
0.0
  9
$DIMTSZ
 40
0.0
  9
$DIMTOL
 70
     0
  9
$DIMLIM
 70
     0
  9
$DIMTIH
 70
     0
  9
$DIMTOH
 70
     0
  9
$DIMSE1
 70
     0
  9
$DIMSE2
 70
     0
  9
$DIMTAD
 70
     1
  9
$DIMZIN
 70
     8
  9
$DIMBLK
  1

  9
$DIMASO
 70
     1
  9
$DIMSHO
 70
     1
  9
$DIMPOST
  1

  9
$DIMAPOST
  1

  9
$DIMALT
 70
     0
  9
$DIMALTD
 70
     2
  9
$DIMALTF
 40
25.399999999999999
  9
$DIMLFAC
 40
1.0
  9
$DIMTOFL
 70
     1
  9
$DIMTVP
 40
0.0
  9
$DIMTIX
 70
     0
  9
$DIMSOXD
 70
     0
  9
$DIMSAH
 70
     1
  9
$DIMBLK1
  1
2
  9
$DIMBLK2
  1
2
  9
$DIMSTYLE
  2
M
  9
$DIMCLRD
 70
     0
  9
$DIMCLRE
 70
     0
  9
$DIMCLRT
 70
     0
  9
$DIMTFAC
 40
1.0
  9
$DIMGAP
 40
0.5
  9
$LUNITS
 70
     2
  9
$LUPREC
 70
     3
  9
$SKETCHINC
 40
1.0
  9
$FILLETRAD
 40
0.0
  9
$AUNITS
 70
     0
  9
$AUPREC
 70
     1
  9
$MENU
  1
.
  9
$ELEVATION
 40
0.0
  9
$PELEVATION
 40
0.0
  9
$THICKNESS
 40
0.0
  9
$LIMCHECK
 70
     0
  9
$BLIPMODE
 70
     0
  9
$CHAMFERA
 40
10.0
  9
$CHAMFERB
 40
10.0
  9
$SKPOLY
 70
     0
  9
$TDCREATE
 40
2454393.806994895
  9
$TDUPDATE
 40
2454396.3823889578
  9
$TDINDWG
 40
0.0089652199
  9
$TDUSRTIMER
 40
0.0089650347
  9
$USRTIMER
 70
     1
  9
$ANGBASE
 50
0.0
  9
$ANGDIR
 70
     0
  9
$PDMODE
 70
     0
  9
$PDSIZE
 40
0.0
  9
$PLINEWID
 40
0.0
  9
$COORDS
 70
     0
  9
$SPLFRAME
 70
     0
  9
$SPLINETYPE
 70
     6
  9
$SPLINESEGS
 70
     8
  9
$ATTDIA
 70
     1
  9
$ATTREQ
 70
     1
  9
$HANDLING
 70
     1
  9
$HANDSEED
  5
5EC
  9
$SURFTAB1
 70
     6
  9
$SURFTAB2
 70
     6
  9
$SURFTYPE
 70
     6
  9
$SURFU
 70
     6
  9
$SURFV
 70
     6
  9
$UCSNAME
  2

  9
$UCSORG
 10
0.0
 20
0.0
 30
0.0
  9
$UCSXDIR
 10
1.0
 20
0.0
 30
0.0
  9
$UCSYDIR
 10
0.0
 20
1.0
 30
0.0
  9
$PUCSNAME
  2

  9
$PUCSORG
 10
0.0
 20
0.0
 30
0.0
  9
$PUCSXDIR
 10
1.0
 20
0.0
 30
0.0
  9
$PUCSYDIR
 10
0.0
 20
1.0
 30
0.0
  9
$USERI1
 70
     0
  9
$USERI2
 70
     0
  9
$USERI3
 70
     0
  9
$USERI4
 70
     0
  9
$USERI5
 70
     0
  9
$USERR1
 40
0.0
  9
$USERR2
 40
0.0
  9
$USERR3
 40
0.0
  9
$USERR4
 40
0.0
  9
$USERR5
 40
0.0
  9
$WORLDVIEW
 70
     1
  9
$SHADEDGE
 70
     3
  9
$SHADEDIF
 70
    70
  9
$TILEMODE
 70
     1
  9
$MAXACTVP
 70
    48
  9
$PLIMCHECK
 70
     0
  9
$PEXTMIN
 10
1.0000000000000000E+020
 20
1.0000000000000000E+020
 30
1.0000000000000000E+020
  9
$PEXTMAX
 10
-1.0000000000000000E+020
 20
-1.0000000000000000E+020
 30
-1.0000000000000000E+020
  9
$PLIMMIN
 10
0.0
 20
0.0
  9
$PLIMMAX
 10
420.0
 20
297.0
  9
$UNITMODE
 70
     0
  9
$VISRETAIN
 70
     1
  9
$PLINEGEN
 70
     0
  9
$PSLTSCALE
 70
     1
  0
ENDSEC
  0
SECTION
  2
TABLES
  0
TABLE
  2
VPORT
 70
     2
  0
VPORT
  2
*ACTIVE
 70
     0
 10
0.0
 20
0.0
 11
1.0
 21
1.0
 12
848.10749374400768
 22
153.04368981486161
 13
0.0
 23
0.0
 14
10.0
 24
10.0
 15
10.0
 25
10.0
 16
0.0
 26
0.0
 36
1.0
 17
0.0
 27
0.0
 37
0.0
 40
1436.8981993502559
 41
1.5937904269081491
 42
50.0
 43
0.0
 44
0.0
 50
0.0
 51
0.0
 71
     0
 72
   100
 73
     1
 74
     1
 75
     0
 76
     0
 77
     0
 78
     0
  0
ENDTAB
  0
TABLE
  2
LTYPE
 70
     2
  0
LTYPE
  2
CONTINUOUS
 70
     0
  3
Solid line
 72
    65
 73
     0
 40
0.0
  0
LTYPE
  2
CENTER
 70
     0
  3
Center ____ _ ____ _ ____ _ ____ _ ____ _ ____
 72
    65
 73
     4
 40
50.799999999999997
 49
31.75
 49
-6.349999999999997
 49
6.349999999999997
 49
-6.349999999999997
  0
ENDTAB
  0
TABLE
  2
LAYER
 70
     4
  0
LAYER
  2
0
 70
     0
 62
     7
  6
CONTINUOUS
  0
LAYER
  2
1外形線
 70
     0
 62
     3
  6
CONTINUOUS
  0
LAYER
  2
2寸法線
 70
     0
 62
     2
  6
CONTINUOUS
  0
LAYER
  2
DEFPOINTS
 70
     0
 62
     7
  6
CONTINUOUS
  0
ENDTAB
  0
TABLE
  2
STYLE
 70
     2
  0
STYLE
  2
STANDARD
 70
     0
 40
0.0
 41
1.0
 50
0.0
 71
     0
 42
2.5
  3
txt
  4

  0
STYLE
  2
KANJI
 70
     0
 40
0.0
 41
1.0
 50
0.0
 71
     0
 42
2.5
  3
simplex.shx
  4
bigfont.shx
  0
ENDTAB
  0
TABLE
  2
VIEW
 70
     0
  0
ENDTAB
  0
TABLE
  2
UCS
 70
     0
  0
ENDTAB
  0
TABLE
  2
APPID
 70
     1
  0
APPID
  2
ACAD
 70
     0
  0
ENDTAB
  0
TABLE
  2
DIMSTYLE
 70
     2
  0
DIMSTYLE
  2
STANDARD
 70
     0
  3

  4

  5

  6

  7

 40
1.0
 41
0.18
 42
0.0625
 43
0.38
 44
0.18
 45
0.0
 46
0.0
 47
0.0
 48
0.0
140
0.18
141
0.09
142
0.0
143
25.399999999999999
144
1.0
145
0.0
146
1.0
147
0.09
 71
     0
 72
     0
 73
     0
 74
     0
 75
     0
 76
     0
 77
     0
 78
     0
170
     0
171
     2
172
     1
173
     0
174
     0
175
     0
176
     0
177
     0
178
     0
  0
DIMSTYLE
  2
M
 70
     0
  3

  4

  5

  6

  7

 40
0.0
 41
2.0
 42
1.0
 43
0.0
 44
1.0
 45
0.0
 46
0.0
 47
0.0
 48
0.0
140
2.5
141
0.0
142
0.0
143
25.399999999999999
144
1.0
145
0.0
146
1.0
147
0.5
 71
     0
 72
     0
 73
     0
 74
     0
 75
     0
 76
     0
 77
     1
 78
     8
170
     0
171
     2
172
     1
173
     1
174
     0
175
     0
176
     0
177
     0
178
     0
  0
ENDTAB
  0
ENDSEC
  0
SECTION
  2
BLOCKS
  0
BLOCK
  8
0
  2
$MODEL_SPACE
 70
     0
 10
0.0
 20
0.0
 30
0.0
  3
$MODEL_SPACE
  1

  0
ENDBLK
  5
5D0
  8
0
  0
BLOCK
 67
     1
  8
0
  2
$PAPER_SPACE
 70
     0
 10
0.0
 20
0.0
 30
0.0
  3
$PAPER_SPACE
  1

  0
ENDBLK
  5
5CC
 67
     1
  8
0
  0
BLOCK
  8
0
  2
2
 70
     0
 10
0.0
 20
0.0
 30
0.0
  3
2
  1

  0
INSERT
  5
131
  8
0
  6
CONTINUOUS
 62
     0
  2
*U3
 10
0.0
 20
0.0
 30
0.0
1001
ACAD
1002
{
1000
R14_HATCH_DATA
1000
131
1011
1.0
1021
0.0
1031
0.0
1021
0.0
1031
0.0
1011
0.0
1021
0.0
1031
0.0
1021
1.0
1031
0.0
1011
0.0
1021
0.0
1031
0.0
1021
0.0
1031
1.0
1040
0.0
1010
0.0
1020
0.0
1030
1.0
1000
SOLID
1070
     1
1070
     0
1071
        1
1071
        1
1071
        3
1070
     1
1040
-0.9999999999983517
1040
0.2679491924306774
1040
0.0
1040
0.0
1070
     1
1040
0.0
1040
0.0
1040
-0.9999999999983517
1040
-0.2679491924306765
1070
     1
1040
-0.9999999999983524
1040
-0.267949192430676
1040
-0.9999999999983524
1040
0.2679491924306774
1071
        0
1070
     0
1070
     1
1071
        1
1040
2.9957451172313361
1040
-4.1249460962632014
1040
0.0
1002
}
  0
ENDBLK
  5
132
  8
0
  0
BLOCK
  8
0
  2
*U3
 70
     1
 10
0.0
 20
0.0
 30
0.0
  3
*U3
  1

  0
SOLID
  5
4CD
  8
0
  6
CONTINUOUS
 62
     0
 10
0.666666666665568
 20
0.0000000000000004
 30
0.0
 11
0.9999999999983517
 21
0.2679491924306774
 31
0.0
 12
0.0
 22
0.0
 32
0.0
 13
0.0
 23
0.0
 33
0.0
210
0.0
220
0.0
230
-1.0
  0
SOLID
  5
4CE
  8
0
  6
CONTINUOUS
 62
     0
 10
0.666666666665568
 20
0.0000000000000004
 30
0.0
 11
0.0
 21
0.0
 31
0.0
 12
0.9999999999983524
 22
-0.267949192430676
 32
0.0
 13
0.9999999999983524
 23
-0.267949192430676
 33
0.0
210
0.0
220
0.0
230
-1.0
  0
SOLID
  5
4CF
  8
0
  6
CONTINUOUS
 62
     0
 10
0.666666666665568
 20
0.0000000000000004
 30
0.0
 11
0.9999999999983524
 21
-0.267949192430676
 31
0.0
 12
0.9999999999983517
 22
0.2679491924306774
 32
0.0
 13
0.9999999999983517
 23
0.2679491924306774
 33
0.0
210
0.0
220
0.0
230
-1.0
  0
ENDBLK
  5
4D1
  8
0
  0
ENDSEC
  0
SECTION
  2
ENTITIES
  0
ARC
  5
261
  8
1外形線
 10
-175.8503821622634
 20
142.78162168883739
 30
0.0
 40
12.0
 50
0.0
 51
27.266044450731108
  0
ARC
  5
267
  8
1外形線
 10
-239.8503821622638
 20
142.78162168883739
 30
0.0
 40
12.0
 50
152.73395554926881
 51
180.00000000000151
  0
ARC
  5
269
  8
1外形線
 10
-185.85038216226309
 20
116.53541043760271
 30
0.0
 40
22.0
 50
270.0
 51
359.99999999999898
  0
ARC
  5
26C
  8
1外形線
 10
-229.8503821622634
 20
116.53541043760271
 30
0.0
 40
22.0
 50
180.0
 51
270.0
  0
LINE
  5
26E
  8
1外形線
 10
-229.8503821622634
 20
94.535410437602707
 30
0.0
 11
-197.8503821622636
 21
94.535410437602707
 31
0.0
  0
LINE
  5
272
  8
1外形線
 10
-185.8503821622632
 20
94.535410437602707
 30
0.0
 11
-197.8503821622636
 21
94.535410437602707
 31
0.0
  0
LINE
  5
280
  8
1外形線
 10
-251.8503821622636
 20
116.53541043760239
 30
0.0
 11
-251.85038216226391
 21
142.78162168883739
 31
0.0
  0
LINE
  5
292
  8
1外形線
 10
-163.8503821622632
 20
116.53541043760239
 30
0.0
 11
-163.8503821622632
 21
142.78162168883739
 31
0.0
  0
LINE
  5
2A6
  8
1外形線
 10
-232.09659341349879
 20
162.53541043760231
 30
0.0
 11
-183.60417091102829
 21
162.53541043760271
 31
0.0
  0
ARC
  5
2A9
  8
1外形線
 10
-223.8503821622634
 20
134.53541043760271
 30
0.0
 40
30.0
 50
117.2660444507318
 51
152.73395554926881
  0
ARC
  5
2AA
  8
1外形線
 10
-232.09659341349879
 20
150.53541043760271
 30
0.0
 40
12.0
 50
89.999999999999986
 51
117.2660444507318
  0
ARC
  5
2AC
  8
1外形線
 10
-191.8503821622634
 20
134.53541043760271
 30
0.0
 40
30.0
 50
27.266044450731108
 51
62.733955549268117
  0
ARC
  5
2AE
  8
1外形線
 10
-183.60417091102829
 20
150.53541043760271
 30
0.0
 40
12.0
 50
62.733955549268117
 51
89.999999999999986
  0
LINE
  5
2B6
  8
1外形線
 10
-98.736524940867184
 20
49.541728127641697
 30
0.0
 11
-98.736524940867184
 21
-38.458271872358132
 31
0.0
  0
LINE
  5
2CB
  8
1外形線
 10
-51.836524940867093
 20
3.641728127641727
 30
0.0
 11
-45.636524940867268
 21
3.641728127641727
 31
0.0
  0
LINE
  5
2CC
  8
1外形線
 10
-51.836524940867093
 20
7.4417281276416789
 30
0.0
 11
-45.636524940867268
 21
7.4417281276416789
 31
0.0
  0
ARC
  5
2CD
  8
1外形線
 10
-51.836524940867093
 20
5.5417281276417043
 30
0.0
 40
1.900000000000003
 50
90.0
 51
270.0
  0
ARC
  5
2CE
  8
1外形線
 10
-45.636524940867268
 20
5.5417281276417043
 30
0.0
 40
1.900000000000003
 50
270.0
 51
90.0
  0
LINE
  5
2DB
  8
1外形線
 10
1901.263475059133
 20
-38.458271872361209
 30
0.0
 11
-98.736524940867184
 21
-38.458271872358132
 31
0.0
  0
LINE
  5
2DD
  8
1外形線
 10
-98.736524940867184
 20
1.3417281276417721
 30
0.0
 11
1901.263475059133
 21
1.3417281276417721
 31
0.0
  0
LINE
  5
2DE
  8
1外形線
 10
-98.736524940867184
 20
9.7417281276416343
 30
0.0
 11
1901.263475059133
 21
9.7417281276416343
 31
0.0
  0
LINE
  5
2E8
  8
1外形線
 10
1901.263475059133
 20
49.541728127641697
 30
0.0
 11
-98.736524940867184
 21
49.541728127641697
 31
0.0
  0
LINE
  5
3B3
  8
1外形線
 10
-98.736524940867184
 20
94.535410437602707
 30
0.0
 11
1901.263475059133
 21
94.535410437602707
 31
0.0
  0
LINE
  5
3B4
  8
1外形線
 10
-98.736524940867184
 20
162.53541043760251
 30
0.0
 11
1901.2634750591319
 21
162.53541043760271
 31
0.0
  0
LINE
  5
3B5
  8
1外形線
 10
-98.736524940867184
 20
162.53541043760251
 30
0.0
 11
-98.736524940867184
 21
94.535410437602707
 31
0.0
  0
LINE
  5
3B7
  8
1外形線
 10
1901.2634750591319
 20
162.53541043760271
 30
0.0
 11
1901.263475059133
 21
94.535410437602707
 31
0.0
  0
LINE
  5
3CF
  8
1外形線
 10
1901.263475059133
 20
49.541728127641697
 30
0.0
 11
1901.263475059133
 21
-38.458271872361209
 31
0.0
  0
ARC
  5
3DD
  8
1外形線
 10
48.1634750591329
 20
5.5417281276417043
 30
0.0
 40
1.900000000000003
 50
90.0
 51
270.0
  0
ARC
  5
3DE
  8
1外形線
 10
54.36347505913271
 20
5.5417281276417043
 30
0.0
 40
1.900000000000003
 50
270.0
 51
90.0
  0
LINE
  5
3DF
  8
1外形線
 10
48.1634750591329
 20
3.641728127641727
 30
0.0
 11
54.36347505913271
 21
3.641728127641727
 31
0.0
  0
LINE
  5
3E0
  8
1外形線
 10
48.1634750591329
 20
7.4417281276416789
 30
0.0
 11
54.36347505913271
 21
7.4417281276416789
 31
0.0
  0
ARC
  5
3E1
  8
1外形線
 10
148.16347505913291
 20
5.5417281276417043
 30
0.0
 40
1.900000000000003
 50
90.0
 51
270.0
  0
ARC
  5
3E2
  8
1外形線
 10
154.3634750591325
 20
5.5417281276417043
 30
0.0
 40
1.900000000000003
 50
270.0
 51
90.0
  0
LINE
  5
3E3
  8
1外形線
 10
148.16347505913291
 20
3.641728127641727
 30
0.0
 11
154.3634750591325
 21
3.641728127641727
 31
0.0
  0
LINE
  5
3E4
  8
1外形線
 10
148.16347505913291
 20
7.4417281276416789
 30
0.0
 11
154.3634750591325
 21
7.4417281276416789
 31
0.0
  0
ARC
  5
3E5
  8
1外形線
 10
254.3634750591325
 20
5.5417281276417043
 30
0.0
 40
1.900000000000003
 50
270.0
 51
90.0
  0
ARC
  5
3E6
  8
1外形線
 10
248.16347505913271
 20
5.5417281276417043
 30
0.0
 40
1.900000000000003
 50
90.0
 51
270.0
  0
LINE
  5
3E7
  8
1外形線
 10
248.16347505913271
 20
3.641728127641727
 30
0.0
 11
254.3634750591325
 21
3.641728127641727
 31
0.0
  0
LINE
  5
3E8
  8
1外形線
 10
248.16347505913271
 20
7.4417281276416789
 30
0.0
 11
254.3634750591325
 21
7.4417281276416789
 31
0.0
  0
ARC
  5
3E9
  8
1外形線
 10
348.16347505913279
 20
5.5417281276417043
 30
0.0
 40
1.900000000000003
 50
90.0
 51
270.0
  0
ARC
  5
3EA
  8
1外形線
 10
354.36347505913272
 20
5.5417281276417043
 30
0.0
 40
1.900000000000003
 50
270.0
 51
90.0
  0
LINE
  5
3EB
  8
1外形線
 10
348.16347505913279
 20
3.641728127641727
 30
0.0
 11
354.36347505913272
 21
3.641728127641727
 31
0.0
  0
LINE
  5
3EC
  8
1外形線
 10
348.16347505913279
 20
7.4417281276416789
 30
0.0
 11
354.36347505913272
 21
7.4417281276416789
 31
0.0
  0
ARC
  5
3ED
  8
1外形線
 10
554.36347505913272
 20
5.5417281276417043
 30
0.0
 40
1.900000000000003
 50
270.0
 51
90.0
  0
ARC
  5
3EE
  8
1外形線
 10
548.16347505913279
 20
5.5417281276417043
 30
0.0
 40
1.900000000000003
 50
90.0
 51
270.0
  0
ARC
  5
3EF
  8
1外形線
 10
454.36347505913272
 20
5.5417281276417043
 30
0.0
 40
1.900000000000003
 50
270.0
 51
90.0
  0
ARC
  5
3F0
  8
1外形線
 10
448.16347505913279
 20
5.5417281276417043
 30
0.0
 40
1.900000000000003
 50
90.0
 51
270.0
  0
LINE
  5
3F1
  8
1外形線
 10
448.16347505913279
 20
3.641728127641727
 30
0.0
 11
454.36347505913272
 21
3.641728127641727
 31
0.0
  0
LINE
  5
3F2
  8
1外形線
 10
548.16347505913279
 20
3.641728127641727
 30
0.0
 11
554.36347505913272
 21
3.641728127641727
 31
0.0
  0
LINE
  5
3F3
  8
1外形線
 10
448.16347505913279
 20
7.4417281276416789
 30
0.0
 11
454.36347505913272
 21
7.4417281276416789
 31
0.0
  0
LINE
  5
3F4
  8
1外形線
 10
548.16347505913279
 20
7.4417281276416789
 30
0.0
 11
554.36347505913272
 21
7.4417281276416789
 31
0.0
  0
ARC
  5
3F5
  8
1外形線
 10
648.16347505913279
 20
5.5417281276417043
 30
0.0
 40
1.900000000000003
 50
90.0
 51
270.0
  0
ARC
  5
3F6
  8
1外形線
 10
654.36347505913272
 20
5.5417281276417043
 30
0.0
 40
1.900000000000003
 50
270.0
 51
90.0
  0
LINE
  5
3F7
  8
1外形線
 10
648.16347505913279
 20
3.641728127641727
 30
0.0
 11
654.36347505913272
 21
3.641728127641727
 31
0.0
  0
LINE
  5
3F8
  8
1外形線
 10
648.16347505913279
 20
7.4417281276416789
 30
0.0
 11
654.36347505913272
 21
7.4417281276416789
 31
0.0
  0
ARC
  5
3F9
  8
1外形線
 10
854.36347505913261
 20
5.5417281276417043
 30
0.0
 40
1.900000000000003
 50
270.0
 51
90.0
  0
ARC
  5
3FA
  8
1外形線
 10
848.16347505913302
 20
5.5417281276417043
 30
0.0
 40
1.900000000000003
 50
90.0
 51
270.0
  0
ARC
  5
3FB
  8
1外形線
 10
748.16347505913302
 20
5.5417281276417043
 30
0.0
 40
1.900000000000003
 50
90.0
 51
270.0
  0
ARC
  5
3FC
  8
1外形線
 10
754.36347505913272
 20
5.5417281276417043
 30
0.0
 40
1.900000000000003
 50
270.0
 51
90.0
  0
LINE
  5
3FD
  8
1外形線
 10
748.16347505913302
 20
3.641728127641727
 30
0.0
 11
754.36347505913272
 21
3.641728127641727
 31
0.0
  0
LINE
  5
3FE
  8
1外形線
 10
848.16347505913302
 20
3.641728127641727
 30
0.0
 11
854.36347505913261
 21
3.641728127641727
 31
0.0
  0
LINE
  5
3FF
  8
1外形線
 10
748.16347505913302
 20
7.4417281276416789
 30
0.0
 11
754.36347505913272
 21
7.4417281276416789
 31
0.0
  0
LINE
  5
400
  8
1外形線
 10
848.16347505913302
 20
7.4417281276416789
 30
0.0
 11
854.36347505913261
 21
7.4417281276416789
 31
0.0
  0
ARC
  5
401
  8
1外形線
 10
954.36347505913261
 20
5.5417281276417043
 30
0.0
 40
1.900000000000003
 50
270.0
 51
90.0
  0
ARC
  5
402
  8
1外形線
 10
948.16347505913268
 20
5.5417281276417043
 30
0.0
 40
1.900000000000003
 50
90.0
 51
270.0
  0
LINE
  5
403
  8
1外形線
 10
948.16347505913268
 20
3.641728127641727
 30
0.0
 11
954.36347505913261
 21
3.641728127641727
 31
0.0
  0
LINE
  5
404
  8
1外形線
 10
948.16347505913268
 20
7.4417281276416789
 30
0.0
 11
954.36347505913261
 21
7.4417281276416789
 31
0.0
  0
ARC
  5
405
  8
1外形線
 10
1054.36347505913
 20
5.5417281276417043
 30
0.0
 40
1.900000000000003
 50
270.0
 51
90.0
  0
ARC
  5
406
  8
1外形線
 10
1048.1634750591311
 20
5.5417281276417043
 30
0.0
 40
1.900000000000003
 50
90.0
 51
270.0
  0
LINE
  5
407
  8
1外形線
 10
1048.1634750591311
 20
3.641728127641727
 30
0.0
 11
1054.36347505913
 21
3.641728127641727
 31
0.0
  0
LINE
  5
408
  8
1外形線
 10
1048.1634750591311
 20
7.4417281276416789
 30
0.0
 11
1054.36347505913
 21
7.4417281276416789
 31
0.0
  0
ARC
  5
409
  8
1外形線
 10
1148.163475059132
 20
5.5417281276417043
 30
0.0
 40
1.900000000000003
 50
90.0
 51
270.0
  0
ARC
  5
40A
  8
1外形線
 10
1154.36347505913
 20
5.5417281276417043
 30
0.0
 40
1.900000000000003
 50
270.0
 51
90.0
  0
LINE
  5
40B
  8
1外形線
 10
1148.163475059132
 20
3.641728127641727
 30
0.0
 11
1154.36347505913
 21
3.641728127641727
 31
0.0
  0
LINE
  5
40C
  8
1外形線
 10
1148.163475059132
 20
7.4417281276416789
 30
0.0
 11
1154.36347505913
 21
7.4417281276416789
 31
0.0
  0
ARC
  5
40D
  8
1外形線
 10
1248.163475059132
 20
5.5417281276417043
 30
0.0
 40
1.900000000000003
 50
90.0
 51
270.0
  0
ARC
  5
40E
  8
1外形線
 10
1254.36347505913
 20
5.5417281276417043
 30
0.0
 40
1.900000000000003
 50
270.0
 51
90.0
  0
LINE
  5
40F
  8
1外形線
 10
1248.163475059132
 20
3.641728127641727
 30
0.0
 11
1254.36347505913
 21
3.641728127641727
 31
0.0
  0
LINE
  5
410
  8
1外形線
 10
1248.163475059132
 20
7.4417281276416789
 30
0.0
 11
1254.36347505913
 21
7.4417281276416789
 31
0.0
  0
ARC
  5
411
  8
1外形線
 10
1454.363475059132
 20
5.5417281276417043
 30
0.0
 40
1.900000000000003
 50
270.0
 51
90.0
  0
ARC
  5
412
  8
1外形線
 10
1448.163475059132
 20
5.5417281276417043
 30
0.0
 40
1.900000000000003
 50
90.0
 51
270.0
  0
ARC
  5
413
  8
1外形線
 10
1348.163475059132
 20
5.5417281276417043
 30
0.0
 40
1.900000000000003
 50
90.0
 51
270.0
  0
ARC
  5
414
  8
1外形線
 10
1354.36347505913
 20
5.5417281276417043
 30
0.0
 40
1.900000000000003
 50
270.0
 51
90.0
  0
LINE
  5
415
  8
1外形線
 10
1348.163475059132
 20
3.641728127641727
 30
0.0
 11
1354.36347505913
 21
3.641728127641727
 31
0.0
  0
LINE
  5
416
  8
1外形線
 10
1448.163475059132
 20
3.641728127641727
 30
0.0
 11
1454.363475059132
 21
3.641728127641727
 31
0.0
  0
LINE
  5
417
  8
1外形線
 10
1348.163475059132
 20
7.4417281276416789
 30
0.0
 11
1354.36347505913
 21
7.4417281276416789
 31
0.0
  0
LINE
  5
418
  8
1外形線
 10
1448.163475059132
 20
7.4417281276416789
 30
0.0
 11
1454.363475059132
 21
7.4417281276416789
 31
0.0
  0
ARC
  5
419
  8
1外形線
 10
1554.363475059132
 20
5.5417281276417043
 30
0.0
 40
1.900000000000003
 50
270.0
 51
90.0
  0
ARC
  5
41A
  8
1外形線
 10
1548.163475059132
 20
5.5417281276417043
 30
0.0
 40
1.900000000000003
 50
90.0
 51
270.0
  0
LINE
  5
41B
  8
1外形線
 10
1548.163475059132
 20
3.641728127641727
 30
0.0
 11
1554.363475059132
 21
3.641728127641727
 31
0.0
  0
LINE
  5
41C
  8
1外形線
 10
1548.163475059132
 20
7.4417281276416789
 30
0.0
 11
1554.363475059132
 21
7.4417281276416789
 31
0.0
  0
ARC
  5
41D
  8
1外形線
 10
1654.363475059132
 20
5.5417281276417043
 30
0.0
 40
1.900000000000003
 50
270.0
 51
90.0
  0
ARC
  5
41E
  8
1外形線
 10
1648.1634750591311
 20
5.5417281276417043
 30
0.0
 40
1.900000000000003
 50
90.0
 51
270.0
  0
ARC
  5
41F
  8
1外形線
 10
1748.163475059132
 20
5.5417281276417043
 30
0.0
 40
1.900000000000003
 50
90.0
 51
270.0
  0
ARC
  5
420
  8
1外形線
 10
1754.363475059132
 20
5.5417281276417043
 30
0.0
 40
1.900000000000003
 50
270.0
 51
90.0
  0
LINE
  5
421
  8
1外形線
 10
1648.1634750591311
 20
3.641728127641727
 30
0.0
 11
1654.363475059132
 21
3.641728127641727
 31
0.0
  0
LINE
  5
422
  8
1外形線
 10
1748.163475059132
 20
3.641728127641727
 30
0.0
 11
1754.363475059132
 21
3.641728127641727
 31
0.0
  0
LINE
  5
423
  8
1外形線
 10
1648.1634750591311
 20
7.4417281276416789
 30
0.0
 11
1654.363475059132
 21
7.4417281276416789
 31
0.0
  0
LINE
  5
424
  8
1外形線
 10
1748.163475059132
 20
7.4417281276416789
 30
0.0
 11
1754.363475059132
 21
7.4417281276416789
 31
0.0
  0
ARC
  5
425
  8
1外形線
 10
1854.36347505913
 20
5.5417281276417043
 30
0.0
 40
1.900000000000003
 50
270.0
 51
90.0
  0
ARC
  5
426
  8
1外形線
 10
1848.163475059132
 20
5.5417281276417043
 30
0.0
 40
1.900000000000003
 50
90.0
 51
270.0
  0
LINE
  5
427
  8
1外形線
 10
1848.163475059132
 20
3.641728127641727
 30
0.0
 11
1854.36347505913
 21
3.641728127641727
 31
0.0
  0
LINE
  5
428
  8
1外形線
 10
1848.163475059132
 20
7.4417281276416789
 30
0.0
 11
1854.36347505913
 21
7.4417281276416789
 31
0.0
  0
LINE
  5
436
  8
1外形線
 10
-98.736524940867184
 20
194.28931819520901
 30
0.0
 11
-98.736524940867184
 21
282.28931819520892
 31
0.0
  0
LINE
  5
446
  8
1外形線
 10
1901.263475059133
 20
194.28931819520901
 30
0.0
 11
1901.2634750591319
 21
282.28931819520892
 31
0.0
  0
LINE
  5
461
  8
1外形線
  6
CENTER
 62
     2
 10
-119.0502905414186
 20
238.28931819520889
 30
0.0
 11
1920.6053373984
 21
238.28931819520889
 31
0.0
  0
LINE
  5
462
  8
1外形線
  6
CENTER
 62
     2
 10
1928.121001326909
 20
5.5417281276417043
 30
0.0
 11
-108.18760039851981
 21
5.5417281276417043
 31
0.0
  0
LINE
  5
4B1
  8
2寸法線
 10
-207.8503821622636
 20
168.4686371418843
 30
0.0
 11
-207.8503821622636
 21
89.351999685384271
 31
0.0
  0
LINE
  5
4BF
  8
1外形線
 10
-98.736524940867184
 20
194.28931819520901
 30
0.0
 11
1901.263475059133
 21
194.28931819520901
 31
0.0
  0
LINE
  5
4C0
  8
1外形線
 10
-98.736524940867184
 20
282.28931819520892
 30
0.0
 11
1901.2634750591319
 21
282.28931819520892
 31
0.0
  0
ENDSEC
  0
EOF
