  0
SECTION
  2
HEADER
  9
$ACADVER
  1
AC1009
  9
$INSBASE
 10
0.0
 20
0.0
 30
0.0
  9
$EXTMIN
 10
-69.266195509734416
 20
-2473.1634500349751
 30
-0.0015258207003583
  9
$EXTMAX
 10
307.93863906501667
 20
-2359.4103283508539
 30
0.0000000349246037
  9
$LIMMIN
 10
0.0
 20
0.0
  9
$LIMMAX
 10
420.0
 20
297.0
  9
$ORTHOMODE
 70
     1
  9
$REGENMODE
 70
     1
  9
$FILLMODE
 70
     1
  9
$QTEXTMODE
 70
     0
  9
$MIRRTEXT
 70
     1
  9
$DRAGMODE
 70
     2
  9
$LTSCALE
 40
1.0
  9
$OSMODE
 70
    37
  9
$ATTMODE
 70
     1
  9
$TEXTSIZE
 40
2.5
  9
$TRACEWID
 40
1.0
  9
$TEXTSTYLE
  7
KANJI
  9
$CLAYER
  8
2寸法線
  9
$CELTYPE
  6
BYLAYER
  9
$CECOLOR
 62
   256
  9
$DIMSCALE
 40
0.0
  9
$DIMASZ
 40
1.8
  9
$DIMEXO
 40
1.0
  9
$DIMDLI
 40
0.0
  9
$DIMRND
 40
0.0
  9
$DIMDLE
 40
0.0
  9
$DIMEXE
 40
1.0
  9
$DIMTP
 40
0.0
  9
$DIMTM
 40
0.0
  9
$DIMTXT
 40
2.5
  9
$DIMCEN
 40
0.0
  9
$DIMTSZ
 40
0.0
  9
$DIMTOL
 70
     0
  9
$DIMLIM
 70
     0
  9
$DIMTIH
 70
     0
  9
$DIMTOH
 70
     0
  9
$DIMSE1
 70
     0
  9
$DIMSE2
 70
     0
  9
$DIMTAD
 70
     1
  9
$DIMZIN
 70
     8
  9
$DIMBLK
  1

  9
$DIMASO
 70
     1
  9
$DIMSHO
 70
     1
  9
$DIMPOST
  1

  9
$DIMAPOST
  1

  9
$DIMALT
 70
     0
  9
$DIMALTD
 70
     2
  9
$DIMALTF
 40
25.399999999999999
  9
$DIMLFAC
 40
1.0
  9
$DIMTOFL
 70
     1
  9
$DIMTVP
 40
0.0
  9
$DIMTIX
 70
     0
  9
$DIMSOXD
 70
     0
  9
$DIMSAH
 70
     1
  9
$DIMBLK1
  1
2
  9
$DIMBLK2
  1
2
  9
$DIMSTYLE
  2
M
  9
$DIMCLRD
 70
     0
  9
$DIMCLRE
 70
     0
  9
$DIMCLRT
 70
     0
  9
$DIMTFAC
 40
1.0
  9
$DIMGAP
 40
0.5
  9
$LUNITS
 70
     2
  9
$LUPREC
 70
     3
  9
$SKETCHINC
 40
1.0
  9
$FILLETRAD
 40
0.0
  9
$AUNITS
 70
     0
  9
$AUPREC
 70
     1
  9
$MENU
  1
.
  9
$ELEVATION
 40
0.0
  9
$PELEVATION
 40
0.0
  9
$THICKNESS
 40
0.0
  9
$LIMCHECK
 70
     0
  9
$BLIPMODE
 70
     0
  9
$CHAMFERA
 40
10.0
  9
$CHAMFERB
 40
10.0
  9
$SKPOLY
 70
     0
  9
$TDCREATE
 40
2454393.806994895
  9
$TDUPDATE
 40
2454396.4866207289
  9
$TDINDWG
 40
0.0597455556
  9
$TDUSRTIMER
 40
0.0597453704
  9
$USRTIMER
 70
     1
  9
$ANGBASE
 50
0.0
  9
$ANGDIR
 70
     0
  9
$PDMODE
 70
     0
  9
$PDSIZE
 40
0.0
  9
$PLINEWID
 40
0.0
  9
$COORDS
 70
     0
  9
$SPLFRAME
 70
     0
  9
$SPLINETYPE
 70
     6
  9
$SPLINESEGS
 70
     8
  9
$ATTDIA
 70
     1
  9
$ATTREQ
 70
     1
  9
$HANDLING
 70
     1
  9
$HANDSEED
  5
7E2D
  9
$SURFTAB1
 70
     6
  9
$SURFTAB2
 70
     6
  9
$SURFTYPE
 70
     6
  9
$SURFU
 70
     6
  9
$SURFV
 70
     6
  9
$UCSNAME
  2

  9
$UCSORG
 10
0.0
 20
0.0
 30
0.0
  9
$UCSXDIR
 10
1.0
 20
0.0
 30
0.0
  9
$UCSYDIR
 10
0.0
 20
1.0
 30
0.0
  9
$PUCSNAME
  2

  9
$PUCSORG
 10
0.0
 20
0.0
 30
0.0
  9
$PUCSXDIR
 10
1.0
 20
0.0
 30
0.0
  9
$PUCSYDIR
 10
0.0
 20
1.0
 30
0.0
  9
$USERI1
 70
     0
  9
$USERI2
 70
     0
  9
$USERI3
 70
     0
  9
$USERI4
 70
     0
  9
$USERI5
 70
     0
  9
$USERR1
 40
0.0
  9
$USERR2
 40
0.0
  9
$USERR3
 40
0.0
  9
$USERR4
 40
0.0
  9
$USERR5
 40
0.0
  9
$WORLDVIEW
 70
     1
  9
$SHADEDGE
 70
     3
  9
$SHADEDIF
 70
    70
  9
$TILEMODE
 70
     1
  9
$MAXACTVP
 70
    48
  9
$PLIMCHECK
 70
     0
  9
$PEXTMIN
 10
1.0000000000000000E+020
 20
1.0000000000000000E+020
 30
1.0000000000000000E+020
  9
$PEXTMAX
 10
-1.0000000000000000E+020
 20
-1.0000000000000000E+020
 30
-1.0000000000000000E+020
  9
$PLIMMIN
 10
0.0
 20
0.0
  9
$PLIMMAX
 10
420.0
 20
297.0
  9
$UNITMODE
 70
     0
  9
$VISRETAIN
 70
     1
  9
$PLINEGEN
 70
     0
  9
$PSLTSCALE
 70
     1
  0
ENDSEC
  0
SECTION
  2
TABLES
  0
TABLE
  2
VPORT
 70
     3
  0
VPORT
  2
*ACTIVE
 70
     0
 10
0.0
 20
0.0
 11
1.0
 21
1.0
 12
143.94917627884419
 22
-2410.6415924241828
 13
0.0
 23
0.0
 14
10.0
 24
10.0
 15
10.0
 25
10.0
 16
0.0
 26
0.0
 36
1.0
 17
0.0
 27
0.0
 37
0.0
 40
332.79731044039318
 41
1.5937904269081491
 42
50.0
 43
0.0
 44
0.0
 50
0.0
 51
0.0
 71
     0
 72
   100
 73
     1
 74
     1
 75
     0
 76
     0
 77
     0
 78
     0
  0
ENDTAB
  0
TABLE
  2
LTYPE
 70
     4
  0
LTYPE
  2
CONTINUOUS
 70
     0
  3
Solid line
 72
    65
 73
     0
 40
0.0
  0
ENDTAB
  0
TABLE
  2
LAYER
 70
    11
  0
LAYER
  2
0
 70
     0
 62
     7
  6
CONTINUOUS
  0
LAYER
  2
2寸法線
 70
     0
 62
     2
  6
CONTINUOUS
  0
LAYER
  2
1外形線
 70
     0
 62
     3
  6
CONTINUOUS
  0
LAYER
  2
DEFPOINTS
 70
     0
 62
     7
  6
CONTINUOUS
  0
ENDTAB
  0
TABLE
  2
STYLE
 70
     3
  0
STYLE
  2
STANDARD
 70
     0
 40
0.0
 41
1.0
 50
0.0
 71
     0
 42
2.5
  3
txt
  4

  0
STYLE
  2
KANJI
 70
     0
 40
0.0
 41
1.0
 50
0.0
 71
     0
 42
2.5
  3
simplex.shx
  4
bigfont.shx
  0
ENDTAB
  0
TABLE
  2
VIEW
 70
     0
  0
ENDTAB
  0
TABLE
  2
UCS
 70
     0
  0
ENDTAB
  0
TABLE
  2
APPID
 70
     1
  0
APPID
  2
ACAD
 70
     0
  0
ENDTAB
  0
TABLE
  2
DIMSTYLE
 70
     5
  0
DIMSTYLE
  2
STANDARD
 70
     0
  3

  4

  5

  6

  7

 40
1.0
 41
0.18
 42
0.0625
 43
0.38
 44
0.18
 45
0.0
 46
0.0
 47
0.0
 48
0.0
140
0.18
141
0.09
142
0.0
143
25.399999999999999
144
1.0
145
0.0
146
1.0
147
0.09
 71
     0
 72
     0
 73
     0
 74
     0
 75
     0
 76
     0
 77
     0
 78
     0
170
     0
171
     2
172
     1
173
     0
174
     0
175
     0
176
     0
177
     0
178
     0
  0
DIMSTYLE
  2
M
 70
     0
  3

  4

  5

  6

  7

 40
0.0
 41
2.0
 42
1.0
 43
0.0
 44
1.0
 45
0.0
 46
0.0
 47
0.0
 48
0.0
140
2.5
141
0.0
142
0.0
143
25.399999999999999
144
1.0
145
0.0
146
1.0
147
0.5
 71
     0
 72
     0
 73
     0
 74
     0
 75
     0
 76
     0
 77
     1
 78
     8
170
     0
171
     2
172
     1
173
     1
174
     0
175
     0
176
     0
177
     0
178
     0
  0
ENDTAB
  0
ENDSEC
  0
SECTION
  2
BLOCKS
  0
BLOCK
  8
0
  2
$MODEL_SPACE
 70
     0
 10
0.0
 20
0.0
 30
0.0
  3
$MODEL_SPACE
  1

  0
ENDBLK
  5
791E
  8
0
  0
BLOCK
 67
     1
  8
0
  2
$PAPER_SPACE
 70
     0
 10
0.0
 20
0.0
 30
0.0
  3
$PAPER_SPACE
  1

  0
ENDBLK
  5
791A
 67
     1
  8
0
  0
BLOCK
  8
0
  2
2
 70
     0
 10
0.0
 20
0.0
 30
0.0
  3
2
  1

  0
INSERT
  5
131
  8
0
  6
CONTINUOUS
 62
     0
  2
*U3
 10
0.0
 20
0.0
 30
0.0
1001
ACAD
1002
{
1000
R14_HATCH_DATA
1000
131
1011
1.0
1021
0.0
1031
0.0
1021
0.0
1031
0.0
1011
0.0
1021
0.0
1031
0.0
1021
1.0
1031
0.0
1011
0.0
1021
0.0
1031
0.0
1021
0.0
1031
1.0
1040
0.0
1010
0.0
1020
0.0
1030
1.0
1000
SOLID
1070
     1
1070
     0
1071
        1
1071
        1
1071
        3
1070
     1
1040
-0.9999999999983517
1040
0.2679491924306774
1040
0.0
1040
0.0
1070
     1
1040
0.0
1040
0.0
1040
-0.9999999999983517
1040
-0.2679491924306765
1070
     1
1040
-0.9999999999983524
1040
-0.267949192430676
1040
-0.9999999999983524
1040
0.2679491924306774
1071
        0
1070
     0
1070
     1
1071
        1
1040
2.9957451172313361
1040
-4.1249460962632014
1040
0.0
1002
}
  0
ENDBLK
  5
132
  8
0
  0
BLOCK
  8
0
  2
*U3
 70
     1
 10
0.0
 20
0.0
 30
0.0
  3
*U3
  1

  0
SOLID
  5
7793
  8
0
  6
CONTINUOUS
 62
     0
 10
0.666666666665568
 20
0.0000000000000004
 30
0.0
 11
0.9999999999983517
 21
0.2679491924306774
 31
0.0
 12
0.0
 22
0.0
 32
0.0
 13
0.0
 23
0.0
 33
0.0
210
0.0
220
0.0
230
-1.0
  0
SOLID
  5
7794
  8
0
  6
CONTINUOUS
 62
     0
 10
0.666666666665568
 20
0.0000000000000004
 30
0.0
 11
0.0
 21
0.0
 31
0.0
 12
0.9999999999983524
 22
-0.267949192430676
 32
0.0
 13
0.9999999999983524
 23
-0.267949192430676
 33
0.0
210
0.0
220
0.0
230
-1.0
  0
SOLID
  5
7795
  8
0
  6
CONTINUOUS
 62
     0
 10
0.666666666665568
 20
0.0000000000000004
 30
0.0
 11
0.9999999999983524
 21
-0.267949192430676
 31
0.0
 12
0.9999999999983517
 22
0.2679491924306774
 32
0.0
 13
0.9999999999983517
 23
0.2679491924306774
 33
0.0
210
0.0
220
0.0
230
-1.0
  0
ENDBLK
  5
7797
  8
0
  0
ENDSEC
  0
SECTION
  2
ENTITIES
  0
ARC
  5
7505
  8
1外形線
 10
146.55897584417741
 20
-2390.1597086735728
 30
0.0
 40
20.0
 50
0.0
 51
45.000000000000519
  0
LINE
  5
7507
  8
1外形線
 10
166.55897584417681
 20
-2456.1597086735728
 30
0.0
 11
104.55897584417779
 21
-2456.1597086735728
 31
0.0
  0
LINE
  5
7509
  8
1外形線
 10
166.55897584417681
 20
-2451.1597086735728
 30
0.0
 11
142.55897584417639
 21
-2451.1597086735728
 31
0.0
  0
LINE
  5
750A
  8
1外形線
 10
166.55897584417741
 20
-2390.1597086735728
 30
0.0
 11
166.55897584417681
 21
-2456.1597086735728
 31
0.0
  0
ARC
  5
7510
  8
1外形線
 10
102.55897584417779
 20
-2434.1597086735719
 30
0.0
 40
2.0
 50
0.0
 51
45.000000000012669
  0
LINE
  5
7511
  8
1外形線
 10
104.55897584417779
 20
-2456.1597086735728
 30
0.0
 11
104.55897584417779
 21
-2434.1597086735742
 31
0.0
  0
LINE
  5
7525
  8
1外形線
 10
-63.861735111140661
 20
-2456.1597086735728
 30
0.0
 11
10.13826488886343
 21
-2456.1597086735728
 31
0.0
  0
LINE
  5
7529
  8
1外形線
 10
-63.861735111140668
 20
-2456.1597086735728
 30
0.0
 11
-63.861735111139232
 21
-2396.1597086735719
 31
0.0
  0
LINE
  5
777F
  8
1外形線
 10
80.558975844177056
 20
-2432.159708673571
 30
0.0
 11
102.5589758441765
 21
-2432.1597086735728
 31
0.0
  0
ARC
  5
7780
  8
1外形線
 10
102.5589758441769
 20
-2434.1597086735719
 30
0.0
 40
2.0
 50
44.999999999986969
 51
89.999999999999659
  0
ARC
  5
7781
  8
1外形線
 10
146.55897584417639
 20
-2390.1597086735728
 30
0.0
 40
20.0
 50
44.999999999999119
 51
89.999999999999659
  0
LINE
  5
7784
  8
1外形線
 10
146.55897584417681
 20
-2370.1597086735719
 30
0.0
 11
80.558975844177581
 21
-2370.1597086735719
 31
0.0
  0
LINE
  5
7DE5
  8
1外形線
 62
     2
 10
-26.861735111138611
 20
-2473.0641794291541
 30
0.0
 11
-26.861735111138611
 21
-2359.574949643023
 31
0.0
  0
LINE
  5
7DF3
  8
1外形線
 10
-37.861735111139218
 20
-2370.1597086735719
 30
0.0
 11
-15.861735111137991
 21
-2370.1597086735719
 31
0.0
  0
ARC
  5
7E01
  8
1外形線
 10
-37.861735111139218
 20
-2396.1597086735728
 30
0.0
 40
26.0
 50
90.0
 51
179.99999999999861
  0
LINE
  5
7E02
  8
1外形線
 10
-39.861735111139517
 20
-2432.1597086735728
 30
0.0
 11
-13.861735111137699
 21
-2432.1597086735728
 31
0.0
  0
ARC
  5
7E03
  8
1外形線
 10
-39.861735111139517
 20
-2408.1597086735728
 30
0.0
 40
24.0
 50
179.99999999999861
 51
270.0
  0
ARC
  5
7E04
  8
1外形線
 10
-13.861735111137699
 20
-2408.1597086735728
 30
0.0
 40
24.0
 50
270.0
 51
0.000000000001381
  0
ARC
  5
7E05
  8
1外形線
 10
-15.861735111137991
 20
-2396.1597086735728
 30
0.0
 40
26.0
 50
0.000000000001381
 51
90.0
  0
LINE
  5
7E06
  8
1外形線
 10
10.13826488886345
 20
-2456.1597086735728
 30
0.0
 11
10.138264888862
 21
-2396.1597086735719
 31
0.0
  0
LINE
  5
7E07
  8
1外形線
 10
80.558975844177581
 20
-2370.1597086735719
 30
0.0
 11
80.558975844177056
 21
-2432.159708673571
 31
0.0
  0
LINE
  5
7E16
  8
1外形線
 10
85.558975844177581
 20
-2370.1597086735719
 30
0.0
 11
85.558975844177354
 21
-2396.1597086735719
 31
0.0
  0
ARC
  5
7E18
  8
1外形線
 10
276.54889990719118
 20
-2396.1597086735728
 30
0.0
 40
26.0
 50
0.000000000001381
 51
90.0
  0
LINE
  5
7E19
  8
1外形線
 10
302.54889990719261
 20
-2456.1597086735728
 30
0.0
 11
228.54889990718851
 21
-2456.1597086735728
 31
0.0
  0
LINE
  5
7E1A
  8
1外形線
 10
302.54889990719261
 20
-2456.1597086735728
 30
0.0
 11
302.54889990719118
 21
-2396.1597086735719
 31
0.0
  0
LINE
  5
7E1B
  8
1外形線
 62
     2
 10
265.54889990719062
 20
-2473.0641794291541
 30
0.0
 11
265.54889990719062
 21
-2359.574949643023
 31
0.0
  0
ARC
  5
7E1C
  8
1外形線
 10
254.54889990718999
 20
-2396.1597086735728
 30
0.0
 40
26.0
 50
90.0
 51
179.99999999999861
  0
LINE
  5
7E1F
  8
1外形線
 10
228.54889990718851
 20
-2456.1597086735728
 30
0.0
 11
228.54889990718991
 21
-2396.1597086735719
 31
0.0
  0
LINE
  5
7E20
  8
1外形線
 10
276.54889990719118
 20
-2370.1597086735719
 30
0.0
 11
254.54889990718999
 21
-2370.1597086735719
 31
0.0
  0
ENDSEC
  0
EOF
