  0
SECTION
  2
HEADER
  9
$ACADVER
  1
AC1009
  9
$INSBASE
 10
0.0
 20
0.0
 30
0.0
  9
$EXTMIN
 10
797.47004108540284
 20
-4071.2051585291069
 30
0.0
  9
$EXTMAX
 10
1201.3890526874391
 20
-3749.5787652172198
 30
0.0
  9
$LIMMIN
 10
0.0
 20
0.0
  9
$LIMMAX
 10
420.0
 20
297.0
  9
$ORTHOMODE
 70
     1
  9
$REGENMODE
 70
     1
  9
$FILLMODE
 70
     1
  9
$QTEXTMODE
 70
     0
  9
$MIRRTEXT
 70
     1
  9
$DRAGMODE
 70
     2
  9
$LTSCALE
 40
1.0
  9
$OSMODE
 70
    37
  9
$ATTMODE
 70
     1
  9
$TEXTSIZE
 40
2.5
  9
$TRACEWID
 40
1.0
  9
$TEXTSTYLE
  7
KANJI
  9
$CLAYER
  8
2寸法線
  9
$CELTYPE
  6
BYLAYER
  9
$CECOLOR
 62
   256
  9
$DIMSCALE
 40
0.0
  9
$DIMASZ
 40
1.8
  9
$DIMEXO
 40
1.0
  9
$DIMDLI
 40
0.0
  9
$DIMRND
 40
0.0
  9
$DIMDLE
 40
0.0
  9
$DIMEXE
 40
1.0
  9
$DIMTP
 40
0.0
  9
$DIMTM
 40
0.0
  9
$DIMTXT
 40
2.5
  9
$DIMCEN
 40
0.0
  9
$DIMTSZ
 40
0.0
  9
$DIMTOL
 70
     0
  9
$DIMLIM
 70
     0
  9
$DIMTIH
 70
     0
  9
$DIMTOH
 70
     0
  9
$DIMSE1
 70
     0
  9
$DIMSE2
 70
     0
  9
$DIMTAD
 70
     1
  9
$DIMZIN
 70
     8
  9
$DIMBLK
  1

  9
$DIMASO
 70
     1
  9
$DIMSHO
 70
     1
  9
$DIMPOST
  1

  9
$DIMAPOST
  1

  9
$DIMALT
 70
     0
  9
$DIMALTD
 70
     2
  9
$DIMALTF
 40
25.399999999999999
  9
$DIMLFAC
 40
1.0
  9
$DIMTOFL
 70
     1
  9
$DIMTVP
 40
0.0
  9
$DIMTIX
 70
     0
  9
$DIMSOXD
 70
     0
  9
$DIMSAH
 70
     1
  9
$DIMBLK1
  1
2
  9
$DIMBLK2
  1
2
  9
$DIMSTYLE
  2
M
  9
$DIMCLRD
 70
     0
  9
$DIMCLRE
 70
     0
  9
$DIMCLRT
 70
     0
  9
$DIMTFAC
 40
1.0
  9
$DIMGAP
 40
0.5
  9
$LUNITS
 70
     2
  9
$LUPREC
 70
     3
  9
$SKETCHINC
 40
1.0
  9
$FILLETRAD
 40
0.0
  9
$AUNITS
 70
     0
  9
$AUPREC
 70
     1
  9
$MENU
  1
.
  9
$ELEVATION
 40
0.0
  9
$PELEVATION
 40
0.0
  9
$THICKNESS
 40
0.0
  9
$LIMCHECK
 70
     0
  9
$BLIPMODE
 70
     0
  9
$CHAMFERA
 40
10.0
  9
$CHAMFERB
 40
10.0
  9
$SKPOLY
 70
     0
  9
$TDCREATE
 40
2454393.806994895
  9
$TDUPDATE
 40
2454396.510411412
  9
$TDINDWG
 40
0.0811545255
  9
$TDUSRTIMER
 40
0.0811543403
  9
$USRTIMER
 70
     1
  9
$ANGBASE
 50
0.0
  9
$ANGDIR
 70
     0
  9
$PDMODE
 70
     0
  9
$PDSIZE
 40
0.0
  9
$PLINEWID
 40
0.0
  9
$COORDS
 70
     0
  9
$SPLFRAME
 70
     0
  9
$SPLINETYPE
 70
     6
  9
$SPLINESEGS
 70
     8
  9
$ATTDIA
 70
     1
  9
$ATTREQ
 70
     1
  9
$HANDLING
 70
     1
  9
$HANDSEED
  5
B423
  9
$SURFTAB1
 70
     6
  9
$SURFTAB2
 70
     6
  9
$SURFTYPE
 70
     6
  9
$SURFU
 70
     6
  9
$SURFV
 70
     6
  9
$UCSNAME
  2

  9
$UCSORG
 10
0.0
 20
0.0
 30
0.0
  9
$UCSXDIR
 10
1.0
 20
0.0
 30
0.0
  9
$UCSYDIR
 10
0.0
 20
1.0
 30
0.0
  9
$PUCSNAME
  2

  9
$PUCSORG
 10
0.0
 20
0.0
 30
0.0
  9
$PUCSXDIR
 10
1.0
 20
0.0
 30
0.0
  9
$PUCSYDIR
 10
0.0
 20
1.0
 30
0.0
  9
$USERI1
 70
     0
  9
$USERI2
 70
     0
  9
$USERI3
 70
     0
  9
$USERI4
 70
     0
  9
$USERI5
 70
     0
  9
$USERR1
 40
0.0
  9
$USERR2
 40
0.0
  9
$USERR3
 40
0.0
  9
$USERR4
 40
0.0
  9
$USERR5
 40
0.0
  9
$WORLDVIEW
 70
     1
  9
$SHADEDGE
 70
     3
  9
$SHADEDIF
 70
    70
  9
$TILEMODE
 70
     1
  9
$MAXACTVP
 70
    48
  9
$PLIMCHECK
 70
     0
  9
$PEXTMIN
 10
1.0000000000000000E+020
 20
1.0000000000000000E+020
 30
1.0000000000000000E+020
  9
$PEXTMAX
 10
-1.0000000000000000E+020
 20
-1.0000000000000000E+020
 30
-1.0000000000000000E+020
  9
$PLIMMIN
 10
0.0
 20
0.0
  9
$PLIMMAX
 10
420.0
 20
297.0
  9
$UNITMODE
 70
     0
  9
$VISRETAIN
 70
     1
  9
$PLINEGEN
 70
     0
  9
$PSLTSCALE
 70
     1
  0
ENDSEC
  0
SECTION
  2
TABLES
  0
TABLE
  2
VPORT
 70
     3
  0
VPORT
  2
*ACTIVE
 70
     0
 10
0.0
 20
0.0
 11
1.0
 21
1.0
 12
1050.115652244597
 22
-3961.4000315152571
 13
0.0
 23
0.0
 14
10.0
 24
10.0
 15
10.0
 25
10.0
 16
0.0
 26
0.0
 36
1.0
 17
0.0
 27
0.0
 37
0.0
 40
225.70113625334619
 41
1.5937904269081491
 42
50.0
 43
0.0
 44
0.0
 50
0.0
 51
0.0
 71
     0
 72
   100
 73
     1
 74
     1
 75
     0
 76
     0
 77
     0
 78
     0
  0
ENDTAB
  0
TABLE
  2
LTYPE
 70
     4
  0
LTYPE
  2
CONTINUOUS
 70
     0
  3
Solid line
 72
    65
 73
     0
 40
0.0
  0
ENDTAB
  0
TABLE
  2
LAYER
 70
    11
  0
LAYER
  2
0
 70
     0
 62
     7
  6
CONTINUOUS
  0
LAYER
  2
2寸法線
 70
     0
 62
     2
  6
CONTINUOUS
  0
LAYER
  2
1外形線
 70
     0
 62
     3
  6
CONTINUOUS
  0
LAYER
  2
DEFPOINTS
 70
     0
 62
     7
  6
CONTINUOUS
  0
ENDTAB
  0
TABLE
  2
STYLE
 70
     4
  0
STYLE
  2
STANDARD
 70
     0
 40
0.0
 41
1.0
 50
0.0
 71
     0
 42
2.5
  3
txt
  4

  0
STYLE
  2
KANJI
 70
     0
 40
0.0
 41
1.0
 50
0.0
 71
     0
 42
2.5
  3
simplex.shx
  4
bigfont.shx
  0
ENDTAB
  0
TABLE
  2
VIEW
 70
     0
  0
ENDTAB
  0
TABLE
  2
UCS
 70
     0
  0
ENDTAB
  0
TABLE
  2
APPID
 70
     1
  0
APPID
  2
ACAD
 70
     0
  0
ENDTAB
  0
TABLE
  2
DIMSTYLE
 70
     5
  0
DIMSTYLE
  2
STANDARD
 70
     0
  3

  4

  5

  6

  7

 40
1.0
 41
0.18
 42
0.0625
 43
0.38
 44
0.18
 45
0.0
 46
0.0
 47
0.0
 48
0.0
140
0.18
141
0.09
142
0.0
143
25.399999999999999
144
1.0
145
0.0
146
1.0
147
0.09
 71
     0
 72
     0
 73
     0
 74
     0
 75
     0
 76
     0
 77
     0
 78
     0
170
     0
171
     2
172
     1
173
     0
174
     0
175
     0
176
     0
177
     0
178
     0
  0
DIMSTYLE
  2
M
 70
     0
  3

  4

  5

  6

  7

 40
0.0
 41
2.0
 42
1.0
 43
0.0
 44
1.0
 45
0.0
 46
0.0
 47
0.0
 48
0.0
140
2.5
141
0.0
142
0.0
143
25.399999999999999
144
1.0
145
0.0
146
1.0
147
0.5
 71
     0
 72
     0
 73
     0
 74
     0
 75
     0
 76
     0
 77
     1
 78
     8
170
     0
171
     2
172
     1
173
     1
174
     0
175
     0
176
     0
177
     0
178
     0
  0
ENDTAB
  0
ENDSEC
  0
SECTION
  2
BLOCKS
  0
BLOCK
  8
0
  2
$MODEL_SPACE
 70
     0
 10
0.0
 20
0.0
 30
0.0
  3
$MODEL_SPACE
  1

  0
ENDBLK
  5
AD07
  8
0
  0
BLOCK
 67
     1
  8
0
  2
$PAPER_SPACE
 70
     0
 10
0.0
 20
0.0
 30
0.0
  3
$PAPER_SPACE
  1

  0
ENDBLK
  5
AD03
 67
     1
  8
0
  0
BLOCK
  8
0
  2
2
 70
     0
 10
0.0
 20
0.0
 30
0.0
  3
2
  1

  0
INSERT
  5
131
  8
0
  6
CONTINUOUS
 62
     0
  2
*U3
 10
0.0
 20
0.0
 30
0.0
1001
ACAD
1002
{
1000
R14_HATCH_DATA
1000
131
1011
1.0
1021
4.0917382627877661E+149
1031
0.0
1021
0.0
1031
0.0
1011
0.0
1021
4.0917382627877661E+149
1031
0.0
1021
1.0
1031
0.0
1011
0.0
1021
4.0917382627877661E+149
1031
0.0
1021
0.0
1031
1.0
1040
0.0
1010
0.0
1020
0.0
1030
1.0
1000
SOLID
1070
     1
1070
     0
1071
        1
1071
        1
1071
        3
1070
     1
1040
-0.9999999999983517
1040
0.2679491924306774
1040
0.0
1040
0.0
1070
     1
1040
0.0
1040
0.0
1040
-0.9999999999983517
1040
-0.2679491924306765
1070
     1
1040
-0.9999999999983524
1040
-0.267949192430676
1040
-0.9999999999983524
1040
0.2679491924306774
1071
        0
1070
     0
1070
     1
1071
        1
1040
2.9957451172313361
1040
-4.1249460962632014
1040
0.0
1002
}
  0
ENDBLK
  5
132
  8
0
  0
BLOCK
  8
0
  2
*U3
 70
     1
 10
0.0
 20
0.0
 30
0.0
  3
*U3
  1

  0
SOLID
  5
AB54
  8
0
  6
CONTINUOUS
 62
     0
 10
0.666666666665568
 20
0.0000000000000004
 30
0.0
 11
0.9999999999983517
 21
0.2679491924306774
 31
0.0
 12
0.0
 22
0.0
 32
0.0
 13
0.0
 23
0.0
 33
0.0
210
0.0
220
0.0
230
-1.0
  0
SOLID
  5
AB55
  8
0
  6
CONTINUOUS
 62
     0
 10
0.666666666665568
 20
0.0000000000000004
 30
0.0
 11
0.0
 21
0.0
 31
0.0
 12
0.9999999999983524
 22
-0.267949192430676
 32
0.0
 13
0.9999999999983524
 23
-0.267949192430676
 33
0.0
210
0.0
220
0.0
230
-1.0
  0
SOLID
  5
AB56
  8
0
  6
CONTINUOUS
 62
     0
 10
0.666666666665568
 20
0.0000000000000004
 30
0.0
 11
0.9999999999983524
 21
-0.267949192430676
 31
0.0
 12
0.9999999999983517
 22
0.2679491924306774
 32
0.0
 13
0.9999999999983517
 23
0.2679491924306774
 33
0.0
210
0.0
220
0.0
230
-1.0
  0
ENDBLK
  5
AB58
  8
0
  0
ENDSEC
  0
SECTION
  2
ENTITIES
  0
LINE
  5
A341
  8
1外形線
 62
     2
 10
985.28521909958704
 20
-3866.5061257392999
 30
0.0
 11
985.28521909958704
 21
-3942.1977459340019
 31
0.0
  0
LINE
  5
A371
  8
1外形線
 10
938.38521909958683
 20
-3884.0377977421881
 30
0.0
 11
985.28521909958704
 21
-3884.0377977421881
 31
0.0
  0
LINE
  5
A372
  8
1外形線
 10
938.28521909958693
 20
-3879.0377977421881
 30
0.0
 11
985.28521909958704
 21
-3879.0377977421881
 31
0.0
  0
LINE
  5
A37C
  8
1外形線
 10
938.28521909958693
 20
-3909.0377977421881
 30
0.0
 11
985.28521909958704
 21
-3909.0377977421881
 31
0.0
  0
POINT
  5
A38F
  8
1外形線
 10
985.28521909958704
 20
-3892.5377977421881
 30
0.0
  0
LINE
  5
A3CE
  8
1外形線
 10
945.78649092353089
 20
-3929.0377977421881
 30
0.0
 11
985.28521909958704
 21
-3929.0377977421881
 31
0.0
  0
LINE
  5
A3CF
  8
1外形線
 10
942.78598219395326
 20
-3921.0377977421881
 30
0.0
 11
985.28521909958704
 21
-3921.0377977421881
 31
0.0
  0
LINE
  5
A3D0
  8
1外形線
 10
940.91066423796735
 20
-3916.0377977421881
 30
0.0
 11
985.28521909958704
 21
-3916.0377977421881
 31
0.0
  0
ARC
  5
A3E8
  8
1外形線
 10
1294.758912850421
 20
-4194.0917534618247
 30
0.0
 40
385.86093054045381
 50
149.90705115053291
 51
154.58054940647389
  0
LINE
  5
A3E9
  8
1外形線
 62
     2
 10
985.28521909958704
 20
-3972.4659666800649
 30
0.0
 11
985.28521909958704
 21
-4066.6378029444272
 31
0.0
  0
LINE
  5
A41F
  8
1外形線
 10
985.28521909958704
 20
-3994.5869941944879
 30
0.0
 11
971.31793720099711
 21
-3994.5869941944879
 31
0.0
  0
ARC
  5
A421
  8
1外形線
 10
971.31793720099711
 20
-4006.5869941944879
 30
0.0
 40
12.0
 50
90.0
 51
150.178711641039
  0
LINE
  5
A787
  8
1外形線
 10
985.28521909958704
 20
-4055.516709235354
 30
0.0
 11
963.28521909958647
 21
-4055.5167092353531
 31
0.0
  0
LINE
  5
B398
  8
1外形線
 10
985.28521909958704
 20
-3982.5167092353531
 30
0.0
 11
964.28521909958693
 21
-3982.5167092353531
 31
0.0
  0
LINE
  5
B399
  8
1外形線
 10
938.28521909958693
 20
-4008.516709235354
 30
0.0
 11
938.2852190995867
 21
-4031.5167092353531
 31
0.0
  0
ARC
  5
B39A
  8
1外形線
 10
964.28521909958693
 20
-4008.516709235354
 30
0.0
 40
26.0
 50
90.0
 51
180.0
  0
ARC
  5
B39B
  8
1外形線
 10
962.2852190995867
 20
-4031.5167092353531
 30
0.0
 40
24.0
 50
180.0
 51
270.0
  0
LINE
  5
B3B6
  8
1外形線
 10
945.28521909958693
 20
-4032.7565423084602
 30
0.0
 11
945.28521909958693
 21
-4037.5167092353531
 31
0.0
  0
ARC
  5
B3C1
  8
1外形線
 10
963.28521909958693
 20
-4037.5167092353531
 30
0.0
 40
18.0
 50
179.9999999999996
 51
269.99999999999892
  0
ARC
  5
B3D1
  8
1外形線
 10
955.28521909958693
 20
-4032.7565423084602
 30
0.0
 40
10.0
 50
154.5805494064744
 51
180.0
  0
LINE
  5
B3D2
  8
1外形線
 10
985.28521909958704
 20
-4055.516709235354
 30
0.0
 11
1007.285219099587
 21
-4055.5167092353531
 31
0.0
  0
LINE
  5
B3D3
  8
1外形線
 10
985.28521909958704
 20
-3982.5167092353531
 30
0.0
 11
1006.285219099587
 21
-3982.5167092353531
 31
0.0
  0
LINE
  5
B3D4
  8
1外形線
 10
985.28521909958704
 20
-3994.5869941944879
 30
0.0
 11
999.25250099817674
 21
-3994.5869941944879
 31
0.0
  0
ARC
  5
B3D5
  8
1外形線
 10
1007.285219099586
 20
-4037.5167092353531
 30
0.0
 40
18.0
 50
270.00000000000102
 51
0.0000000000003123
  0
ARC
  5
B3D6
  8
1外形線
 10
1008.285219099587
 20
-4031.5167092353531
 30
0.0
 40
24.0
 50
270.0
 51
0.000000000000007
  0
ARC
  5
B3D7
  8
1外形線
 10
1006.285219099587
 20
-4008.516709235354
 30
0.0
 40
26.0
 50
0.000000000000007
 51
90.0
  0
LINE
  5
B3D8
  8
1外形線
 10
1032.285219099587
 20
-4008.516709235354
 30
0.0
 11
1032.285219099587
 21
-4031.5167092353531
 31
0.0
  0
ARC
  5
B3D9
  8
1外形線
 10
999.25250099817674
 20
-4006.5869941944879
 30
0.0
 40
12.0
 50
29.821288358960921
 51
90.0
  0
ARC
  5
B3DA
  8
1外形線
 10
675.81152534875241
 20
-4194.0917534618247
 30
0.0
 40
385.86093054045381
 50
25.419450593526019
 51
30.092948849467099
  0
LINE
  5
B3DB
  8
1外形線
 10
1025.2852190995859
 20
-4032.7565423084602
 30
0.0
 11
1025.2852190995859
 21
-4037.5167092353531
 31
0.0
  0
ARC
  5
B3DC
  8
1外形線
 10
1015.285219099586
 20
-4032.7565423084602
 30
0.0
 40
10.0
 50
0.000000000000007
 51
25.419450593525561
  0
LINE
  5
B3DE
  8
1外形線
 10
1093.395110618683
 20
-4055.5167092353531
 30
0.0
 11
1143.395110618683
 21
-4055.5167092353531
 31
0.0
  0
LINE
  5
B3E0
  8
1外形線
 10
1138.395110618683
 20
-4027.5167092353522
 30
0.0
 11
1138.395110618683
 21
-4055.5167092353531
 31
0.0
  0
LINE
  5
B3E1
  8
1外形線
 10
1143.395110618683
 20
-4022.5167092353531
 30
0.0
 11
1143.395110618683
 21
-4055.5167092353531
 31
0.0
  0
LINE
  5
B3E6
  8
1外形線
 10
1143.395110618683
 20
-3982.5167092353522
 30
0.0
 11
1143.395110618683
 21
-4027.5167092353522
 31
0.0
  0
LINE
  5
B3E7
  8
1外形線
 10
1138.395110618683
 20
-3982.5167092353522
 30
0.0
 11
1138.395110618683
 21
-4027.5167092353522
 31
0.0
  0
LINE
  5
B3E9
  8
1外形線
 10
1113.395110618683
 20
-4027.5167092353522
 30
0.0
 11
1113.395110618683
 21
-4055.5167092353531
 31
0.0
  0
LINE
  5
B3EB
  8
1外形線
 10
1113.395110618683
 20
-3982.5167092353522
 30
0.0
 11
1113.395110618683
 21
-4027.5167092353522
 31
0.0
  0
LINE
  5
B3F2
  8
1外形線
 10
1093.395110618683
 20
-4031.5167092353522
 30
0.0
 11
1093.395110618683
 21
-4055.5167092353531
 31
0.0
  0
LINE
  5
B3FA
  8
1外形線
 10
1093.395110618683
 20
-3994.586994194487
 30
0.0
 11
1093.395110618683
 21
-4036.5167092353522
 31
0.0
  0
LINE
  5
B3FC
  8
1外形線
 10
1113.3951106186839
 20
-3982.5167092353522
 30
0.0
 11
1143.395110618683
 21
-3982.5167092353522
 31
0.0
  0
LINE
  5
B3FD
  8
1外形線
 10
1093.395110618683
 20
-3994.586994194487
 30
0.0
 11
1113.3951106186839
 21
-3982.5167092353522
 31
0.0
  0
LINE
  5
B3FF
  8
1外形線
 10
938.28521909958693
 20
-3879.0377977421881
 30
0.0
 11
938.28521909958693
 21
-3909.0377977421881
 31
0.0
  0
LINE
  5
B400
  8
1外形線
 10
945.78649092353089
 20
-3929.0377977421881
 30
0.0
 11
938.28521909958693
 21
-3909.0377977421881
 31
0.0
  0
LINE
  5
B401
  8
1外形線
 10
1029.6597739612059
 20
-3916.0377977421881
 30
0.0
 11
985.28521909958704
 21
-3916.0377977421881
 31
0.0
  0
LINE
  5
B402
  8
1外形線
 10
1027.7844560052199
 20
-3921.0377977421881
 30
0.0
 11
985.28521909958704
 21
-3921.0377977421881
 31
0.0
  0
LINE
  5
B403
  8
1外形線
 10
1032.285219099587
 20
-3909.0377977421881
 30
0.0
 11
985.28521909958704
 21
-3909.0377977421881
 31
0.0
  0
LINE
  5
B404
  8
1外形線
 10
1032.285219099587
 20
-3879.0377977421881
 30
0.0
 11
985.28521909958704
 21
-3879.0377977421881
 31
0.0
  0
LINE
  5
B405
  8
1外形線
 10
1024.783947275642
 20
-3929.0377977421881
 30
0.0
 11
985.28521909958704
 21
-3929.0377977421881
 31
0.0
  0
LINE
  5
B406
  8
1外形線
 10
1032.1852190995869
 20
-3884.0377977421881
 30
0.0
 11
985.28521909958704
 21
-3884.0377977421881
 31
0.0
  0
LINE
  5
B407
  8
1外形線
 10
1024.783947275642
 20
-3929.0377977421881
 30
0.0
 11
1032.285219099587
 21
-3909.0377977421881
 31
0.0
  0
LINE
  5
B408
  8
1外形線
 10
1032.285219099587
 20
-3879.0377977421881
 30
0.0
 11
1032.285219099587
 21
-3909.0377977421881
 31
0.0
  0
POINT
  5
B409
  8
1外形線
 10
985.28521909958704
 20
-3892.5377977421881
 30
0.0
  0
ENDSEC
  0
EOF
