  0
SECTION
  2
HEADER
  9
$ACADVER
  1
AC1009
  9
$INSBASE
 10
0.0
 20
0.0
 30
0.0
  9
$EXTMIN
 10
721.18011422139796
 20
-4502.1447138105286
 30
-0.0000000349181948
  9
$EXTMAX
 10
1736.594909792633
 20
-4251.7087131329581
 30
0.0000000814935747
  9
$LIMMIN
 10
0.0
 20
0.0
  9
$LIMMAX
 10
420.0
 20
297.0
  9
$ORTHOMODE
 70
     1
  9
$REGENMODE
 70
     1
  9
$FILLMODE
 70
     1
  9
$QTEXTMODE
 70
     0
  9
$MIRRTEXT
 70
     1
  9
$DRAGMODE
 70
     2
  9
$LTSCALE
 40
1.0
  9
$OSMODE
 70
    37
  9
$ATTMODE
 70
     1
  9
$TEXTSIZE
 40
2.5
  9
$TRACEWID
 40
1.0
  9
$TEXTSTYLE
  7
KANJI
  9
$CLAYER
  8
2寸法線
  9
$CELTYPE
  6
BYLAYER
  9
$CECOLOR
 62
   256
  9
$DIMSCALE
 40
0.0
  9
$DIMASZ
 40
1.8
  9
$DIMEXO
 40
1.0
  9
$DIMDLI
 40
0.0
  9
$DIMRND
 40
0.0
  9
$DIMDLE
 40
0.0
  9
$DIMEXE
 40
1.0
  9
$DIMTP
 40
0.0
  9
$DIMTM
 40
0.0
  9
$DIMTXT
 40
2.5
  9
$DIMCEN
 40
0.0
  9
$DIMTSZ
 40
0.0
  9
$DIMTOL
 70
     0
  9
$DIMLIM
 70
     0
  9
$DIMTIH
 70
     0
  9
$DIMTOH
 70
     0
  9
$DIMSE1
 70
     0
  9
$DIMSE2
 70
     0
  9
$DIMTAD
 70
     1
  9
$DIMZIN
 70
     8
  9
$DIMBLK
  1

  9
$DIMASO
 70
     1
  9
$DIMSHO
 70
     1
  9
$DIMPOST
  1

  9
$DIMAPOST
  1

  9
$DIMALT
 70
     0
  9
$DIMALTD
 70
     2
  9
$DIMALTF
 40
25.399999999999999
  9
$DIMLFAC
 40
1.0
  9
$DIMTOFL
 70
     1
  9
$DIMTVP
 40
0.0
  9
$DIMTIX
 70
     0
  9
$DIMSOXD
 70
     0
  9
$DIMSAH
 70
     1
  9
$DIMBLK1
  1
2
  9
$DIMBLK2
  1
2
  9
$DIMSTYLE
  2
M
  9
$DIMCLRD
 70
     0
  9
$DIMCLRE
 70
     0
  9
$DIMCLRT
 70
     0
  9
$DIMTFAC
 40
1.0
  9
$DIMGAP
 40
0.5
  9
$LUNITS
 70
     2
  9
$LUPREC
 70
     3
  9
$SKETCHINC
 40
1.0
  9
$FILLETRAD
 40
0.0
  9
$AUNITS
 70
     0
  9
$AUPREC
 70
     1
  9
$MENU
  1
.
  9
$ELEVATION
 40
0.0
  9
$PELEVATION
 40
0.0
  9
$THICKNESS
 40
0.0
  9
$LIMCHECK
 70
     0
  9
$BLIPMODE
 70
     0
  9
$CHAMFERA
 40
10.0
  9
$CHAMFERB
 40
10.0
  9
$SKPOLY
 70
     0
  9
$TDCREATE
 40
2454393.806994895
  9
$TDUPDATE
 40
2454396.5186414928
  9
$TDINDWG
 40
0.0915118634
  9
$TDUSRTIMER
 40
0.0915107755
  9
$USRTIMER
 70
     1
  9
$ANGBASE
 50
0.0
  9
$ANGDIR
 70
     0
  9
$PDMODE
 70
     0
  9
$PDSIZE
 40
0.0
  9
$PLINEWID
 40
0.0
  9
$COORDS
 70
     0
  9
$SPLFRAME
 70
     0
  9
$SPLINETYPE
 70
     6
  9
$SPLINESEGS
 70
     8
  9
$ATTDIA
 70
     1
  9
$ATTREQ
 70
     1
  9
$HANDLING
 70
     1
  9
$HANDSEED
  5
DD1B
  9
$SURFTAB1
 70
     6
  9
$SURFTAB2
 70
     6
  9
$SURFTYPE
 70
     6
  9
$SURFU
 70
     6
  9
$SURFV
 70
     6
  9
$UCSNAME
  2

  9
$UCSORG
 10
0.0
 20
0.0
 30
0.0
  9
$UCSXDIR
 10
1.0
 20
0.0
 30
0.0
  9
$UCSYDIR
 10
0.0
 20
1.0
 30
0.0
  9
$PUCSNAME
  2

  9
$PUCSORG
 10
0.0
 20
0.0
 30
0.0
  9
$PUCSXDIR
 10
1.0
 20
0.0
 30
0.0
  9
$PUCSYDIR
 10
0.0
 20
1.0
 30
0.0
  9
$USERI1
 70
     0
  9
$USERI2
 70
     0
  9
$USERI3
 70
     0
  9
$USERI4
 70
     0
  9
$USERI5
 70
     0
  9
$USERR1
 40
0.0
  9
$USERR2
 40
0.0
  9
$USERR3
 40
0.0
  9
$USERR4
 40
0.0
  9
$USERR5
 40
0.0
  9
$WORLDVIEW
 70
     1
  9
$SHADEDGE
 70
     3
  9
$SHADEDIF
 70
    70
  9
$TILEMODE
 70
     1
  9
$MAXACTVP
 70
    48
  9
$PLIMCHECK
 70
     0
  9
$PEXTMIN
 10
1.0000000000000000E+020
 20
1.0000000000000000E+020
 30
1.0000000000000000E+020
  9
$PEXTMAX
 10
-1.0000000000000000E+020
 20
-1.0000000000000000E+020
 30
-1.0000000000000000E+020
  9
$PLIMMIN
 10
0.0
 20
0.0
  9
$PLIMMAX
 10
420.0
 20
297.0
  9
$UNITMODE
 70
     0
  9
$VISRETAIN
 70
     1
  9
$PLINEGEN
 70
     0
  9
$PSLTSCALE
 70
     1
  0
ENDSEC
  0
SECTION
  2
TABLES
  0
TABLE
  2
VPORT
 70
     4
  0
VPORT
  2
*ACTIVE
 70
     0
 10
0.0
 20
0.0
 11
1.0
 21
1.0
 12
1228.8875120070149
 22
-4376.9267134717438
 13
0.0
 23
0.0
 14
10.0
 24
10.0
 15
10.0
 25
10.0
 16
0.0
 26
0.0
 36
1.0
 17
0.0
 27
0.0
 37
0.0
 40
800.25704063814896
 41
1.5937904269081491
 42
50.0
 43
0.0
 44
0.0
 50
0.0
 51
0.0
 71
     0
 72
   100
 73
     1
 74
     1
 75
     0
 76
     0
 77
     0
 78
     0
  0
ENDTAB
  0
TABLE
  2
LTYPE
 70
     4
  0
LTYPE
  2
CONTINUOUS
 70
     0
  3
Solid line
 72
    65
 73
     0
 40
0.0
  0
ENDTAB
  0
TABLE
  2
LAYER
 70
    11
  0
LAYER
  2
0
 70
     0
 62
     7
  6
CONTINUOUS
  0
LAYER
  2
2寸法線
 70
     0
 62
     2
  6
CONTINUOUS
  0
LAYER
  2
1外形線
 70
     0
 62
     3
  6
CONTINUOUS
  0
LAYER
  2
DEFPOINTS
 70
     0
 62
     7
  6
CONTINUOUS
  0
ENDTAB
  0
TABLE
  2
STYLE
 70
     4
  0
STYLE
  2
STANDARD
 70
     0
 40
0.0
 41
1.0
 50
0.0
 71
     0
 42
2.5
  3
txt
  4

  0
STYLE
  2
KANJI
 70
     0
 40
0.0
 41
1.0
 50
0.0
 71
     0
 42
2.5
  3
simplex.shx
  4
bigfont.shx
  0
ENDTAB
  0
TABLE
  2
VIEW
 70
     0
  0
ENDTAB
  0
TABLE
  2
UCS
 70
     0
  0
ENDTAB
  0
TABLE
  2
APPID
 70
     1
  0
APPID
  2
ACAD
 70
     0
  0
ENDTAB
  0
TABLE
  2
DIMSTYLE
 70
     5
  0
DIMSTYLE
  2
STANDARD
 70
     0
  3

  4

  5

  6

  7

 40
1.0
 41
0.18
 42
0.0625
 43
0.38
 44
0.18
 45
0.0
 46
0.0
 47
0.0
 48
0.0
140
0.18
141
0.09
142
0.0
143
25.399999999999999
144
1.0
145
0.0
146
1.0
147
0.09
 71
     0
 72
     0
 73
     0
 74
     0
 75
     0
 76
     0
 77
     0
 78
     0
170
     0
171
     2
172
     1
173
     0
174
     0
175
     0
176
     0
177
     0
178
     0
  0
DIMSTYLE
  2
M
 70
     0
  3

  4

  5

  6

  7

 40
0.0
 41
2.0
 42
1.0
 43
0.0
 44
1.0
 45
0.0
 46
0.0
 47
0.0
 48
0.0
140
2.5
141
0.0
142
0.0
143
25.399999999999999
144
1.0
145
0.0
146
1.0
147
0.5
 71
     0
 72
     0
 73
     0
 74
     0
 75
     0
 76
     0
 77
     1
 78
     8
170
     0
171
     2
172
     1
173
     1
174
     0
175
     0
176
     0
177
     0
178
     0
  0
ENDTAB
  0
ENDSEC
  0
SECTION
  2
BLOCKS
  0
BLOCK
  8
0
  2
$MODEL_SPACE
 70
     0
 10
0.0
 20
0.0
 30
0.0
  3
$MODEL_SPACE
  1

  0
ENDBLK
  5
D5EF
  8
0
  0
BLOCK
 67
     1
  8
0
  2
$PAPER_SPACE
 70
     0
 10
0.0
 20
0.0
 30
0.0
  3
$PAPER_SPACE
  1

  0
ENDBLK
  5
D5EB
 67
     1
  8
0
  0
BLOCK
  8
0
  2
2
 70
     0
 10
0.0
 20
0.0
 30
0.0
  3
2
  1

  0
INSERT
  5
131
  8
0
  6
CONTINUOUS
 62
     0
  2
*U3
 10
0.0
 20
0.0
 30
0.0
1001
ACAD
1002
{
1000
R14_HATCH_DATA
1000
131
1011
1.0
1021
0.0
1031
0.0
1021
0.0
1031
0.0
1011
0.0
1021
0.0
1031
0.0
1021
1.0
1031
0.0
1011
0.0
1021
0.0
1031
0.0
1021
0.0
1031
1.0
1040
0.0
1010
0.0
1020
0.0
1030
1.0
1000
SOLID
1070
     1
1070
     0
1071
        1
1071
        1
1071
        3
1070
     1
1040
-0.9999999999983517
1040
0.2679491924306774
1040
0.0
1040
0.0
1070
     1
1040
0.0
1040
0.0
1040
-0.9999999999983517
1040
-0.2679491924306765
1070
     1
1040
-0.9999999999983524
1040
-0.267949192430676
1040
-0.9999999999983524
1040
0.2679491924306774
1071
        0
1070
     0
1070
     1
1071
        1
1040
2.9957451172313361
1040
-4.1249460962632014
1040
0.0
1002
}
  0
ENDBLK
  5
132
  8
0
  0
BLOCK
  8
0
  2
*U3
 70
     1
 10
0.0
 20
0.0
 30
0.0
  3
*U3
  1

  0
SOLID
  5
BA3E
  8
0
  6
CONTINUOUS
 62
     0
 10
0.666666666665568
 20
0.0000000000000004
 30
0.0
 11
0.9999999999983517
 21
0.2679491924306774
 31
0.0
 12
0.0
 22
0.0
 32
0.0
 13
0.0
 23
0.0
 33
0.0
210
0.0
220
0.0
230
-1.0
  0
SOLID
  5
BA3F
  8
0
  6
CONTINUOUS
 62
     0
 10
0.666666666665568
 20
0.0000000000000004
 30
0.0
 11
0.0
 21
0.0
 31
0.0
 12
0.9999999999983524
 22
-0.267949192430676
 32
0.0
 13
0.9999999999983524
 23
-0.267949192430676
 33
0.0
210
0.0
220
0.0
230
-1.0
  0
SOLID
  5
BA40
  8
0
  6
CONTINUOUS
 62
     0
 10
0.666666666665568
 20
0.0000000000000004
 30
0.0
 11
0.9999999999983524
 21
-0.267949192430676
 31
0.0
 12
0.9999999999983517
 22
0.2679491924306774
 32
0.0
 13
0.9999999999983517
 23
0.2679491924306774
 33
0.0
210
0.0
220
0.0
230
-1.0
  0
ENDBLK
  5
BA42
  8
0
  0
ENDSEC
  0
SECTION
  2
ENTITIES
  0
ARC
  5
C81D
  8
1外形線
 10
743.26145520573823
 20
-4474.8305078145677
 30
0.0
 40
22.0
 50
180.0
 51
270.0
  0
LINE
  5
C821
  8
1外形線
 62
     2
 10
764.96145520573816
 20
-4423.8305078145668
 30
0.0
 11
764.96145520573805
 21
-4501.8305078145677
 31
0.0
  0
ARC
  5
C824
  8
1外形線
 10
786.66145520573832
 20
-4474.8305078145677
 30
0.0
 40
22.0
 50
270.0
 51
0.0
  0
LINE
  5
C828
  8
1外形線
 10
743.26145520573823
 20
-4496.8305078145668
 30
0.0
 11
764.96145520573805
 21
-4496.8305078145668
 31
0.0
  0
LINE
  5
C82A
  8
1外形線
 10
786.66145520573775
 20
-4496.8305078145668
 30
0.0
 11
764.96145520573805
 21
-4496.8305078145668
 31
0.0
  0
LINE
  5
C846
  8
1外形線
 10
741.01524395450303
 20
-4428.8305078145668
 30
0.0
 11
764.96145520573816
 21
-4428.8305078145668
 31
0.0
  0
ARC
  5
C84B
  8
1外形線
 10
749.26145520573834
 20
-4456.8305078145677
 30
0.0
 40
30.0
 50
117.2660444507431
 51
152.73395554927421
  0
LINE
  5
C84E
  8
1外形線
 10
721.26145520573834
 20
-4448.584296563331
 30
0.0
 11
721.26145520573834
 21
-4474.8305078145677
 31
0.0
  0
ARC
  5
C84F
  8
1外形線
 10
733.26145520573846
 20
-4448.584296563331
 30
0.0
 40
12.0
 50
152.73395554927421
 51
180.0
  0
ARC
  5
C857
  8
1外形線
 10
741.01524395450303
 20
-4440.8305078145677
 30
0.0
 40
12.0
 50
90.0
 51
117.2660444507431
  0
ARC
  5
C85F
  8
1外形線
 10
780.66145520573855
 20
-4456.8305078145677
 30
0.0
 40
30.0
 50
27.26604445072569
 51
62.733955549256763
  0
LINE
  5
C862
  8
1外形線
 10
808.66145520573866
 20
-4448.5842965633328
 30
0.0
 11
808.66145520573832
 21
-4474.8305078145677
 31
0.0
  0
ARC
  5
C869
  8
1外形線
 10
796.66145520573878
 20
-4448.5842965633328
 30
0.0
 40
12.0
 50
0.0
 51
27.26604445072569
  0
LINE
  5
C86D
  8
1外形線
 10
788.90766645697397
 20
-4428.8305078145668
 30
0.0
 11
764.96145520573884
 21
-4428.8305078145668
 31
0.0
  0
ARC
  5
C871
  8
1外形線
 10
788.90766645697386
 20
-4440.8305078145677
 30
0.0
 40
12.0
 50
62.733955549256763
 51
90.0
  0
LINE
  5
C894
  8
1外形線
 10
887.44095757383832
 20
-4430.130507814566
 30
0.0
 11
887.44095757383832
 21
-4495.3305078145659
 31
0.0
  0
LINE
  5
C8AE
  8
1外形線
 10
887.44095757383832
 20
-4495.3305078145659
 30
0.0
 11
957.67707683754156
 21
-4495.3305078145659
 31
0.0
  0
LINE
  5
C8B4
  8
1外形線
 10
958.12217701087047
 20
-4496.8305078145559
 30
0.0
 11
957.67707683754156
 21
-4495.3305078145659
 31
0.0
  0
LINE
  5
C965
  8
1外形線
 10
887.44095757383832
 20
-4430.130507814566
 30
0.0
 11
957.73642352730644
 21
-4430.130507814566
 31
0.0
  0
LINE
  5
C9CE
  8
1外形線
 10
958.12217701087275
 20
-4428.8305078145213
 30
0.0
 11
957.73642352730644
 21
-4430.130507814566
 31
0.0
  0
LINE
  5
CBC3
  8
1外形線
 10
1687.440957573838
 20
-4430.130507814566
 30
0.0
 11
1687.440957573838
 21
-4495.3305078145659
 31
0.0
  0
LINE
  5
CBC7
  8
1外形線
 10
1617.1454916203561
 20
-4430.130507814566
 30
0.0
 11
1687.440957573838
 21
-4430.130507814566
 31
0.0
  0
LINE
  5
CBC9
  8
1外形線
 10
1617.204838310118
 20
-4495.3305078145659
 30
0.0
 11
1687.440957573838
 21
-4495.3305078145659
 31
0.0
  0
LINE
  5
CC3F
  8
1外形線
 10
1616.7597381367959
 20
-4428.8305078145213
 30
0.0
 11
1617.1454916203561
 21
-4430.130507814566
 31
0.0
  0
LINE
  5
DCD1
  8
1外形線
 10
958.12217701087275
 20
-4428.8305078145213
 30
0.0
 11
1616.7597381367959
 21
-4428.8305078145213
 31
0.0
  0
LINE
  5
DCD2
  8
1外形線
 10
958.12217701087275
 20
-4496.8305078145631
 30
0.0
 11
958.12217701087275
 21
-4428.8305078145213
 31
0.0
  0
LINE
  5
DCD3
  8
1外形線
 10
957.73642352730644
 20
-4495.5305078145229
 30
0.0
 11
957.73642352730644
 21
-4430.130507814566
 31
0.0
  0
LINE
  5
DCD5
  8
1外形線
 10
958.12217701087047
 20
-4496.8305078145559
 30
0.0
 11
1616.7597381367959
 21
-4496.8305078145559
 31
0.0
  0
LINE
  5
DCD6
  8
1外形線
 10
1616.7597381367959
 20
-4428.8305078145213
 30
0.0
 11
1616.7597381367959
 21
-4496.8305078145559
 31
0.0
  0
LINE
  5
DCD7
  8
1外形線
 10
1617.1454916203561
 20
-4430.130507814566
 30
0.0
 11
1617.1454916203561
 21
-4495.5305078145129
 31
0.0
  0
LINE
  5
DCD8
  8
1外形線
 10
1616.7597381367959
 20
-4496.8305078145559
 30
0.0
 11
1617.204838310118
 21
-4495.3305078145659
 31
0.0
  0
LINE
  5
DCD9
  8
1外形線
 10
887.44095757383843
 20
-4296.0676146825299
 30
0.0
 11
887.44095757383843
 21
-4253.8676146825301
 31
0.0
  0
LINE
  5
DCDA
  8
1外形線
 62
     2
 10
851.0336835613864
 20
-4296.0676146825299
 30
0.0
 11
1736.508615052395
 21
-4296.0676146825299
 31
0.0
  0
LINE
  5
DCE8
  8
1外形線
 10
957.73642352730644
 20
-4253.8676146825301
 30
0.0
 11
887.44095757383843
 21
-4253.8676146825301
 31
0.0
  0
LINE
  5
DCF6
  8
1外形線
 10
958.12217701087275
 20
-4252.0676146825299
 30
0.0
 11
1616.7597381367959
 21
-4252.0676146825299
 31
0.0
  0
LINE
  5
DCF7
  8
1外形線
 10
957.73642352730644
 20
-4296.0676146825299
 30
0.0
 11
957.73642352730644
 21
-4253.8676146825301
 31
0.0
  0
LINE
  5
DCF8
  8
1外形線
 10
958.12217701087275
 20
-4296.0676146825299
 30
0.0
 11
958.12217701087275
 21
-4252.0676146825299
 31
0.0
  0
LINE
  5
DCF9
  8
1外形線
 10
957.73642352730644
 20
-4253.8676146825301
 30
0.0
 11
958.12217701087275
 21
-4252.0676146825299
 31
0.0
  0
LINE
  5
DCFA
  8
1外形線
 10
1687.440957573838
 20
-4296.0676146825299
 30
0.0
 11
1687.440957573838
 21
-4253.8676146825301
 31
0.0
  0
LINE
  5
DCFB
  8
1外形線
 10
1617.1454916203561
 20
-4253.8676146825301
 30
0.0
 11
1687.440957573838
 21
-4253.8676146825301
 31
0.0
  0
LINE
  5
DCFC
  8
1外形線
 10
1617.1454916203561
 20
-4253.8676146825301
 30
0.0
 11
1617.1454916203561
 21
-4296.0676146825299
 31
0.0
  0
LINE
  5
DCFD
  8
1外形線
 10
1616.7597381367959
 20
-4252.0676146825299
 30
0.0
 11
1616.7597381367959
 21
-4296.0676146825299
 31
0.0
  0
LINE
  5
DCFE
  8
1外形線
 10
1617.1454916203561
 20
-4253.8676146825301
 30
0.0
 11
1616.7597381367959
 21
-4252.0676146825299
 31
0.0
  0
LINE
  5
DCFF
  8
1外形線
 10
958.12217701087275
 20
-4340.0676146825299
 30
0.0
 11
1616.7597381367959
 21
-4340.0676146825299
 31
0.0
  0
LINE
  5
DD00
  8
1外形線
 10
957.73642352730644
 20
-4338.2676146825288
 30
0.0
 11
887.44095757383843
 21
-4338.2676146825288
 31
0.0
  0
LINE
  5
DD01
  8
1外形線
 10
887.44095757383843
 20
-4296.0676146825299
 30
0.0
 11
887.44095757383843
 21
-4338.2676146825288
 31
0.0
  0
LINE
  5
DD02
  8
1外形線
 10
957.73642352730644
 20
-4296.0676146825299
 30
0.0
 11
957.73642352730644
 21
-4338.2676146825288
 31
0.0
  0
LINE
  5
DD03
  8
1外形線
 10
958.12217701087275
 20
-4296.0676146825299
 30
0.0
 11
958.12217701087275
 21
-4340.0676146825299
 31
0.0
  0
LINE
  5
DD04
  8
1外形線
 10
957.73642352730644
 20
-4338.2676146825288
 30
0.0
 11
958.12217701087275
 21
-4340.0676146825299
 31
0.0
  0
LINE
  5
DD05
  8
1外形線
 10
1617.1454916203561
 20
-4338.2676146825288
 30
0.0
 11
1687.440957573838
 21
-4338.2676146825288
 31
0.0
  0
LINE
  5
DD06
  8
1外形線
 10
1617.1454916203561
 20
-4338.2676146825288
 30
0.0
 11
1617.1454916203561
 21
-4296.0676146825299
 31
0.0
  0
LINE
  5
DD07
  8
1外形線
 10
1616.7597381367959
 20
-4340.0676146825299
 30
0.0
 11
1616.7597381367959
 21
-4296.0676146825299
 31
0.0
  0
LINE
  5
DD08
  8
1外形線
 10
1617.1454916203561
 20
-4338.2676146825288
 30
0.0
 11
1616.7597381367959
 21
-4340.0676146825299
 31
0.0
  0
LINE
  5
DD09
  8
1外形線
 10
1687.440957573838
 20
-4296.0676146825299
 30
0.0
 11
1687.440957573838
 21
-4338.2676146825288
 31
0.0
  0
ENDSEC
  0
EOF
