  0
SECTION
  2
HEADER
  9
$ACADVER
  1
AC1015
  9
$ACADMAINTVER
 70
    20
  9
$DWGCODEPAGE
  3
ANSI_932
  9
$INSBASE
 10
268.4340021441085
 20
176.78614296069
 30
0.0
  9
$EXTMIN
 10
618.3232856019958
 20
-1553.772432694345
 30
-0.0000000349181948
  9
$EXTMAX
 10
940.7103554755604
 20
-1307.900384691166
 30
0.0000000814935747
  9
$LIMMIN
 10
0.0
 20
0.0
  9
$LIMMAX
 10
554.0
 20
395.0
  9
$ORTHOMODE
 70
     1
  9
$REGENMODE
 70
     1
  9
$FILLMODE
 70
     1
  9
$QTEXTMODE
 70
     0
  9
$MIRRTEXT
 70
     1
  9
$LTSCALE
 40
2.0
  9
$ATTMODE
 70
     1
  9
$TEXTSIZE
 40
3.5
  9
$TRACEWID
 40
0.2
  9
$TEXTSTYLE
  7
KANJI
  9
$CLAYER
  8
2寸法線
  9
$CELTYPE
  6
BYLAYER
  9
$CECOLOR
 62
   256
  9
$CELTSCALE
 40
2.0
  9
$DISPSILH
 70
     0
  9
$DIMSCALE
 40
1.0
  9
$DIMASZ
 40
1.0
  9
$DIMEXO
 40
1.0
  9
$DIMDLI
 40
6.0
  9
$DIMRND
 40
0.0
  9
$DIMDLE
 40
0.0
  9
$DIMEXE
 40
1.0
  9
$DIMTP
 40
0.0
  9
$DIMTM
 40
0.0
  9
$DIMTXT
 40
2.5
  9
$DIMCEN
 40
0.0
  9
$DIMTSZ
 40
0.0
  9
$DIMTOL
 70
     0
  9
$DIMLIM
 70
     0
  9
$DIMTIH
 70
     0
  9
$DIMTOH
 70
     0
  9
$DIMSE1
 70
     0
  9
$DIMSE2
 70
     0
  9
$DIMTAD
 70
     1
  9
$DIMZIN
 70
     8
  9
$DIMBLK
  1

  9
$DIMASO
 70
     1
  9
$DIMSHO
 70
     1
  9
$DIMPOST
  1

  9
$DIMAPOST
  1

  9
$DIMALT
 70
     0
  9
$DIMALTD
 70
     2
  9
$DIMALTF
 40
25.4
  9
$DIMLFAC
 40
1.0
  9
$DIMTOFL
 70
     1
  9
$DIMTVP
 40
0.0
  9
$DIMTIX
 70
     0
  9
$DIMSOXD
 70
     0
  9
$DIMSAH
 70
     1
  9
$DIMBLK1
  1
Y2
  9
$DIMBLK2
  1
Y2
  9
$DIMSTYLE
  2
STANDARD
  9
$DIMCLRD
 70
     0
  9
$DIMCLRE
 70
     0
  9
$DIMCLRT
 70
     0
  9
$DIMTFAC
 40
1.0
  9
$DIMGAP
 40
0.5
  9
$DIMJUST
 70
     0
  9
$DIMSD1
 70
     0
  9
$DIMSD2
 70
     0
  9
$DIMTOLJ
 70
     1
  9
$DIMTZIN
 70
     8
  9
$DIMALTZ
 70
     8
  9
$DIMALTTZ
 70
     8
  9
$DIMUPT
 70
     0
  9
$DIMDEC
 70
     4
  9
$DIMTDEC
 70
     4
  9
$DIMALTU
 70
     2
  9
$DIMALTTD
 70
     2
  9
$DIMTXSTY
  7
KANJI
  9
$DIMAUNIT
 70
     0
  9
$DIMADEC
 70
     0
  9
$DIMALTRND
 40
0.0
  9
$DIMAZIN
 70
     0
  9
$DIMDSEP
 70
    46
  9
$DIMATFIT
 70
     3
  9
$DIMFRAC
 70
     0
  9
$DIMLDRBLK
  1
Y2
  9
$DIMLUNIT
 70
     2
  9
$DIMLWD
 70
    -2
  9
$DIMLWE
 70
    -2
  9
$DIMTMOVE
 70
     0
  9
$LUNITS
 70
     2
  9
$LUPREC
 70
     4
  9
$SKETCHINC
 40
0.1
  9
$FILLETRAD
 40
0.0
  9
$AUNITS
 70
     0
  9
$AUPREC
 70
     0
  9
$MENU
  1
tcad-s
  9
$ELEVATION
 40
0.0
  9
$PELEVATION
 40
0.0
  9
$THICKNESS
 40
0.0
  9
$LIMCHECK
 70
     0
  9
$CHAMFERA
 40
0.0
  9
$CHAMFERB
 40
0.0
  9
$CHAMFERC
 40
0.0
  9
$CHAMFERD
 40
0.0
  9
$SKPOLY
 70
     0
  9
$TDCREATE
 40
2451123.361182072
  9
$TDUCREATE
 40
2451122.986182072
  9
$TDUPDATE
 40
2455859.720707581
  9
$TDUUPDATE
 40
2455859.345707581
  9
$TDINDWG
 40
0.9624992824
  9
$TDUSRTIMER
 40
0.9624906134
  9
$USRTIMER
 70
     1
  9
$ANGBASE
 50
0.0
  9
$ANGDIR
 70
     0
  9
$PDMODE
 70
     0
  9
$PDSIZE
 40
2.399999999999999
  9
$PLINEWID
 40
0.0
  9
$SPLFRAME
 70
     0
  9
$SPLINETYPE
 70
     6
  9
$SPLINESEGS
 70
     8
  9
$HANDSEED
  5
BE58
  9
$SURFTAB1
 70
     6
  9
$SURFTAB2
 70
     6
  9
$SURFTYPE
 70
     6
  9
$SURFU
 70
     6
  9
$SURFV
 70
     6
  9
$UCSBASE
  2

  9
$UCSNAME
  2

  9
$UCSORG
 10
0.0
 20
0.0
 30
0.0
  9
$UCSXDIR
 10
1.0
 20
0.0
 30
0.0
  9
$UCSYDIR
 10
0.0
 20
1.0
 30
0.0
  9
$UCSORTHOREF
  2

  9
$UCSORTHOVIEW
 70
     0
  9
$UCSORGTOP
 10
0.0
 20
0.0
 30
0.0
  9
$UCSORGBOTTOM
 10
0.0
 20
0.0
 30
0.0
  9
$UCSORGLEFT
 10
0.0
 20
0.0
 30
0.0
  9
$UCSORGRIGHT
 10
0.0
 20
0.0
 30
0.0
  9
$UCSORGFRONT
 10
0.0
 20
0.0
 30
0.0
  9
$UCSORGBACK
 10
0.0
 20
0.0
 30
0.0
  9
$PUCSBASE
  2

  9
$PUCSNAME
  2

  9
$PUCSORG
 10
0.0
 20
0.0
 30
0.0
  9
$PUCSXDIR
 10
1.0
 20
0.0
 30
0.0
  9
$PUCSYDIR
 10
0.0
 20
1.0
 30
0.0
  9
$PUCSORTHOREF
  2

  9
$PUCSORTHOVIEW
 70
     0
  9
$PUCSORGTOP
 10
0.0
 20
0.0
 30
0.0
  9
$PUCSORGBOTTOM
 10
0.0
 20
0.0
 30
0.0
  9
$PUCSORGLEFT
 10
0.0
 20
0.0
 30
0.0
  9
$PUCSORGRIGHT
 10
0.0
 20
0.0
 30
0.0
  9
$PUCSORGFRONT
 10
0.0
 20
0.0
 30
0.0
  9
$PUCSORGBACK
 10
0.0
 20
0.0
 30
0.0
  9
$USERI1
 70
     0
  9
$USERI2
 70
     0
  9
$USERI3
 70
     0
  9
$USERI4
 70
     0
  9
$USERI5
 70
     0
  9
$USERR1
 40
0.0
  9
$USERR2
 40
0.0
  9
$USERR3
 40
0.0
  9
$USERR4
 40
0.0
  9
$USERR5
 40
0.0
  9
$WORLDVIEW
 70
     1
  9
$SHADEDGE
 70
     3
  9
$SHADEDIF
 70
    70
  9
$TILEMODE
 70
     1
  9
$MAXACTVP
 70
    16
  9
$PINSBASE
 10
0.0
 20
0.0
 30
0.0
  9
$PLIMCHECK
 70
     0
  9
$PEXTMIN
 10
1.000000000000000E+20
 20
1.000000000000000E+20
 30
1.000000000000000E+20
  9
$PEXTMAX
 10
-1.000000000000000E+20
 20
-1.000000000000000E+20
 30
-1.000000000000000E+20
  9
$PLIMMIN
 10
0.0
 20
0.0
  9
$PLIMMAX
 10
12.0
 20
9.0
  9
$UNITMODE
 70
     0
  9
$VISRETAIN
 70
     0
  9
$PLINEGEN
 70
     0
  9
$PSLTSCALE
 70
     0
  9
$TREEDEPTH
 70
  3020
  9
$CMLSTYLE
  2
STANDARD
  9
$CMLJUST
 70
     0
  9
$CMLSCALE
 40
1.0
  9
$PROXYGRAPHICS
 70
     1
  9
$MEASUREMENT
 70
     0
  9
$CELWEIGHT
370
    -1
  9
$ENDCAPS
280
     0
  9
$JOINSTYLE
280
     0
  9
$LWDISPLAY
290
     0
  9
$INSUNITS
 70
     0
  9
$HYPERLINKBASE
  1

  9
$STYLESHEET
  1
INABA-CAD-CANON.CTB
  9
$XEDIT
290
     1
  9
$CEPSNTYPE
380
     0
  9
$PSTYLEMODE
290
     1
  9
$FINGERPRINTGUID
  2
{C845D700-0FF8-4D54-8B39-CB42730E90A9}
  9
$VERSIONGUID
  2
{2805DE06-E560-4D82-8FDE-669560A94922}
  9
$EXTNAMES
290
     1
  9
$PSVPSCALE
 40
0.0
  9
$OLESTARTUP
290
     0
  0
ENDSEC
  0
SECTION
  2
CLASSES
  0
CLASS
  1
DICTIONARYVAR
  2
AcDbDictionaryVar
  3
ObjectDBX Classes
 90
        0
280
     0
281
     0
  0
CLASS
  1
SORTENTSTABLE
  2
AcDbSortentsTable
  3
ObjectDBX Classes
 90
        0
280
     0
281
     0
  0
CLASS
  1
ACDBDICTIONARYWDFLT
  2
AcDbDictionaryWithDefault
  3
ObjectDBX Classes
 90
        0
280
     0
281
     0
  0
CLASS
  1
ACDBPLACEHOLDER
  2
AcDbPlaceHolder
  3
ObjectDBX Classes
 90
        0
280
     0
281
     0
  0
CLASS
  1
LAYOUT
  2
AcDbLayout
  3
ObjectDBX Classes
 90
        0
280
     0
281
     0
  0
CLASS
  1
TABLESTYLE
  2
AcDbTableStyle
  3
ObjectDBX Classes
 90
     2047
280
     0
281
     0
  0
ENDSEC
  0
SECTION
  2
TABLES
  0
TABLE
  2
VPORT
  5
8
330
0
100
AcDbSymbolTable
 70
     2
  0
VPORT
  5
BE52
330
8
100
AcDbSymbolTableRecord
100
AcDbViewportTableRecord
  2
*Active
 70
     0
 10
0.0
 20
0.0
 11
1.0
 21
1.0
 12
816.2397819543004
 22
-1459.79212867471
 13
0.0
 23
0.0
 14
1.0
 24
1.0
 15
0.0
 25
0.0
 16
0.0
 26
0.0
 36
1.0
 17
0.0
 27
0.0
 37
0.0
 40
396.3241685945704
 41
1.386243386243386
 42
50.0
 43
0.0
 44
0.0
 50
0.0
 51
0.0
 71
     0
 72
  1000
 73
     1
 74
     1
 75
     0
 76
     0
 77
     0
 78
     1
281
     0
 65
     1
110
0.0
120
0.0
130
0.0
111
1.0
121
0.0
131
0.0
112
0.0
122
1.0
132
0.0
 79
     0
146
0.0
  0
ENDTAB
  0
TABLE
  2
LTYPE
  5
5
330
0
100
AcDbSymbolTable
 70
     7
  0
LTYPE
  5
11
330
5
100
AcDbSymbolTableRecord
100
AcDbLinetypeTableRecord
  2
BYBLOCK
 70
     0
  3

 72
    65
 73
     0
 40
0.0
  0
LTYPE
  5
12
330
5
100
AcDbSymbolTableRecord
100
AcDbLinetypeTableRecord
  2
BYLAYER
 70
     0
  3

 72
    65
 73
     0
 40
0.0
  0
LTYPE
  5
13
330
5
100
AcDbSymbolTableRecord
100
AcDbLinetypeTableRecord
  2
CONTINUOUS
 70
     0
  3
Solid line
 72
    65
 73
     0
 40
0.0
  0
ENDTAB
  0
TABLE
  2
LAYER
  5
2
102
{ACAD_XDICTIONARY
360
8B8C
102
}
330
0
100
AcDbSymbolTable
 70
    21
  0
LAYER
  5
E
330
2
100
AcDbSymbolTableRecord
100
AcDbLayerTableRecord
  2
0
 70
     0
 62
     7
  6
CONTINUOUS
370
    -3
390
7DCE
  0
LAYER
  5
E1F
330
2
100
AcDbSymbolTableRecord
100
AcDbLayerTableRecord
  2
DEFPOINTS
 70
     0
 62
     7
  6
CONTINUOUS
290
     0
370
    -3
390
7DCE
  0
LAYER
  5
7595
330
2
100
AcDbSymbolTableRecord
100
AcDbLayerTableRecord
  2
1外形線
 70
     0
 62
     3
  6
CONTINUOUS
370
    -3
390
7DCE
  0
LAYER
  5
7596
330
2
100
AcDbSymbolTableRecord
100
AcDbLayerTableRecord
  2
2寸法線
 70
     0
 62
     2
  6
CONTINUOUS
370
    -3
390
7DCE
  0
ENDTAB
  0
TABLE
  2
STYLE
  5
3
330
0
100
AcDbSymbolTable
 70
     6
  0
STYLE
  5
F
330
3
100
AcDbSymbolTableRecord
100
AcDbTextStyleTableRecord
  2
STANDARD
 70
     0
 40
0.0
 41
1.0
 50
0.0
 71
     0
 42
0.2
  3
txt
  4

  0
STYLE
  5
3B
330
3
100
AcDbSymbolTableRecord
100
AcDbTextStyleTableRecord
  2
KANJI
 70
     0
 40
0.0
 41
1.0
 50
0.0
 71
     0
 42
3.5
  3
simplex
  4
bigfont
  0
ENDTAB
  0
TABLE
  2
VIEW
  5
6
330
0
100
AcDbSymbolTable
 70
     0
  0
ENDTAB
  0
TABLE
  2
UCS
  5
7
330
0
100
AcDbSymbolTable
 70
     0
  0
ENDTAB
  0
TABLE
  2
APPID
  5
9
330
0
100
AcDbSymbolTable
 70
     2
  0
APPID
  5
10
330
9
100
AcDbSymbolTableRecord
100
AcDbRegAppTableRecord
  2
ACAD
 70
     0
  0
APPID
  5
A138
330
9
100
AcDbSymbolTableRecord
100
AcDbRegAppTableRecord
  2
ACAD_PSEXT
 70
     0
  0
ENDTAB
  0
TABLE
  2
DIMSTYLE
  5
A
330
0
100
AcDbSymbolTable
 70
     4
100
AcDbDimStyleTable
 71
     1
340
E11
  0
DIMSTYLE
105
E11
330
A
100
AcDbSymbolTableRecord
100
AcDbDimStyleTableRecord
  2
STANDARD
 70
     0
 41
1.0
 42
1.0
 43
6.0
 44
1.0
 73
     0
 74
     0
 77
     1
 78
     8
140
2.5
141
0.0
147
0.5
172
     1
173
     1
284
     8
285
     8
286
     8
340
3B
341
39F6
343
39F6
344
39F6
  0
ENDTAB
  0
TABLE
  2
BLOCK_RECORD
  5
1
330
0
100
AcDbSymbolTable
 70
   349
  0
BLOCK_RECORD
  5
17
102
{ACAD_XDICTIONARY
360
46FA
102
}
330
1
100
AcDbSymbolTableRecord
100
AcDbBlockTableRecord
  2
*MODEL_SPACE
340
7DD1
  0
BLOCK_RECORD
  5
14
102
{ACAD_XDICTIONARY
360
7F4E
102
}
330
1
100
AcDbSymbolTableRecord
100
AcDbBlockTableRecord
  2
*PAPER_SPACE
340
7DD2
  0
BLOCK_RECORD
  5
39F6
330
1
100
AcDbSymbolTableRecord
100
AcDbBlockTableRecord
  2
Y2
340
0
102
{BLKREFS
331
8647
331
8648
331
8651
331
8652
331
8661
331
8662
331
866A
331
866B
331
8673
331
8674
331
867C
331
867D
331
8686
331
8687
331
87C5
331
87C6
331
87CE
331
87CF
331
87D7
331
87D8
331
87E0
331
87E1
331
87E9
331
87EA
331
87F2
331
87F3
331
B5AF
331
B5B0
331
B736
331
B737
331
BB0C
331
BB0D
331
BB42
331
BB43
331
BB4F
331
BB50
331
BB5B
331
BB5C
331
BB67
331
BB68
331
BB73
331
BB74
331
BB7E
331
BB7F
331
BB8B
331
BB8C
331
BB98
331
BB99
331
BBA5
331
BBA6
331
BD6C
331
BD6D
331
BD75
331
BD76
331
BD7E
331
BD7F
331
BD87
331
BD88
331
BD90
331
BD91
331
BD9B
331
BD9C
331
BDAE
331
BDAF
331
BDBB
331
BDBC
102
}
  0
ENDTAB
  0
ENDSEC
  0
SECTION
  2
BLOCKS
  0
BLOCK
  5
4F
330
17
100
AcDbEntity
  8
0
100
AcDbBlockBegin
  2
*MODEL_SPACE
 70
     0
 10
0.0
 20
0.0
 30
0.0
  3
*MODEL_SPACE
  1

  0
ENDBLK
  5
50
330
17
100
AcDbEntity
  8
0
100
AcDbBlockEnd
  0
BLOCK
  5
4D
330
14
100
AcDbEntity
 67
     1
  8
0
100
AcDbBlockBegin
  2
*PAPER_SPACE
 70
     0
 10
0.0
 20
0.0
 30
0.0
  3
*PAPER_SPACE
  1

  0
ENDBLK
  5
4E
330
14
100
AcDbEntity
 67
     1
  8
0
100
AcDbBlockEnd
  0
BLOCK
  5
39F7
330
39F6
100
AcDbEntity
  8
0
 48
2.0
100
AcDbBlockBegin
  2
Y2
 70
     0
 10
0.0
 20
0.0
 30
0.0
  3
Y2
  1

  0
SOLID
  5
39F8
330
39F6
100
AcDbEntity
  8
0
  6
ByBlock
 62
     0
380
     1
100
AcDbTrace
 10
-1.811110924292108
 20
0.485285709567151
 30
0.0
 11
-1.811110924292108
 21
-0.4852857095673784
 31
0.0
 12
-0.0000000000000568
 22
-0.0000000000000142
 32
0.0
 13
-0.0000000000000568
 23
-0.0000000000000142
 33
0.0
  0
ENDBLK
  5
39F9
330
39F6
100
AcDbEntity
  8
0
 48
2.0
100
AcDbBlockEnd
  0
ENDSEC
  0
SECTION
  2
ENTITIES
  0
LINE
  5
BBB3
330
17
100
AcDbEntity
  8
1外形線
 48
3.0
100
AcDbLine
 10
932.6084484587143
 20
-1438.811092081071
 30
0.0
 11
932.4084484587141
 21
-1449.61109208107
 31
0.0
  0
LINE
  5
BBB4
330
17
100
AcDbEntity
  8
1外形線
 48
3.0
100
AcDbLine
 10
935.6084484587134
 20
-1438.811092081071
 30
0.0
 11
935.6084484587134
 21
-1449.411092081072
 31
0.0
  0
LINE
  5
BBB5
330
17
100
AcDbEntity
  8
1外形線
 48
3.0
100
AcDbLine
 10
861.2084484587146
 20
-1438.811092081071
 30
0.0
 11
861.2084484587146
 21
-1449.411092081072
 31
0.0
  0
LINE
  5
BBB6
330
17
100
AcDbEntity
  8
1外形線
 48
3.0
100
AcDbLine
 10
864.2084484587137
 20
-1438.811092081071
 30
0.0
 11
864.4084484587137
 21
-1449.61109208107
 31
0.0
  0
LINE
  5
BBB7
330
17
100
AcDbEntity
  8
1外形線
100
AcDbLine
 10
758.5548866427359
 20
-1411.61109208107
 30
0.0
 11
758.5548866427359
 21
-1473.61109208107
 31
0.0
  0
LINE
  5
BBB8
330
17
100
AcDbEntity
  8
1外形線
100
AcDbLine
 10
763.5548866427359
 20
-1412.41109208107
 30
0.0
 11
763.5548866427359
 21
-1472.61109208107
 31
0.0
  0
ARC
  5
BBB9
330
17
100
AcDbEntity
  8
1外形線
 48
3.0
100
AcDbCircle
 10
751.0548866427359
 20
-1523.61109208107
 30
0.0
 40
87.30000000000003
100
AcDbArc
 50
112.6198649480321
 51
143.5162629386137
  0
ARC
  5
BBBA
330
17
100
AcDbEntity
  8
1外形線
 48
3.0
100
AcDbCircle
 10
738.5548866427359
 20
-1493.611092081071
 30
0.0
 40
54.80000000000018
100
AcDbArc
 50
90.0
 51
112.6198649480321
  0
ARC
  5
BBBB
330
17
100
AcDbEntity
  8
1外形線
 48
3.0
100
AcDbCircle
 10
751.0548866427359
 20
-1523.61109208107
 30
0.0
 40
114.5000000000003
100
AcDbArc
 50
112.6198649480321
 51
143.5162629386137
  0
LINE
  5
BBBC
330
17
100
AcDbEntity
  8
1外形線
 48
3.0
100
AcDbLine
 10
619.5548866427359
 20
-1523.61109208107
 30
0.0
 11
693.7726904557877
 21
-1523.611092081071
 31
0.0
  0
ARC
  5
BBBD
330
17
100
AcDbEntity
  8
1外形線
 48
3.0
100
AcDbCircle
 10
646.9335631782317
 20
-1446.61109208107
 30
0.0
 40
42.20000000000072
100
AcDbArc
 50
270.0
 51
323.5162629386138
  0
LINE
  5
BBBE
330
17
100
AcDbEntity
  8
1外形線
100
AcDbLine
 10
618.5548866427359
 20
-1462.41109208107
 30
0.0
 11
618.5548866427359
 21
-1522.61109208107
 31
0.0
  0
LINE
  5
BBBF
330
17
100
AcDbEntity
  8
1外形線
100
AcDbLine
 10
646.9335631782317
 20
-1488.81109208107
 30
0.0
 11
618.5548866427359
 21
-1488.81109208107
 31
0.0
  0
LINE
  5
BBC0
330
17
100
AcDbEntity
  8
1外形線
100
AcDbLine
 10
623.5548866427359
 20
-1461.611092081071
 30
0.0
 11
646.9335631782322
 21
-1461.61109208107
 31
0.0
  0
ARC
  5
BBC1
330
17
100
AcDbEntity
  8
1外形線
100
AcDbCircle
 10
623.3548866427359
 20
-1461.611092081071
 30
0.0
 40
0.2
100
AcDbArc
 50
0.0
 51
90.0
  0
ARC
  5
BBC2
330
17
100
AcDbEntity
  8
1外形線
100
AcDbCircle
 10
619.5548866427359
 20
-1462.41109208107
 30
0.0
 40
1.0
100
AcDbArc
 50
90.0
 51
180.0
  0
LINE
  5
BBC3
330
17
100
AcDbEntity
  8
1外形線
100
AcDbLine
 10
619.5548866427359
 20
-1461.41109208107
 30
0.0
 11
623.3548866427359
 21
-1461.41109208107
 31
0.0
  0
ARC
  5
BBC4
330
17
100
AcDbEntity
  8
1外形線
 48
3.0
100
AcDbCircle
 10
646.9335631782317
 20
-1446.61109208107
 30
0.0
 40
15.0
100
AcDbArc
 50
270.0
 51
323.5162629386138
  0
ELLIPSE
  5
BBC5
330
17
100
AcDbEntity
  8
1外形線
100
AcDbEllipse
 10
646.0548866427359
 20
-1469.778167369172
 30
0.0
 11
0.0
 21
7.093012195123262
 31
0.0
210
0.0
220
0.0
230
1.0
 40
0.6344272188188164
 41
4.712388980384688
 42
7.853981633974482
  0
LINE
  5
BBC6
330
17
100
AcDbEntity
  8
1外形線
100
AcDbLine
 10
641.5548866427359
 20
-1481.81109208107
 30
0.0
 11
650.5548866427359
 21
-1481.81109208107
 31
0.0
  0
LINE
  5
BBC7
330
17
100
AcDbEntity
  8
1外形線
100
AcDbLine
 10
641.5548866427359
 20
-1481.81109208107
 30
0.0
 11
641.5548866427359
 21
-1469.778167369172
 31
0.0
  0
LINE
  5
BBC8
330
17
100
AcDbEntity
  8
1外形線
100
AcDbLine
 10
650.5548866427359
 20
-1481.81109208107
 30
0.0
 11
650.5548866427359
 21
-1469.778167369172
 31
0.0
  0
LINE
  5
BBC9
330
17
100
AcDbEntity
  8
1外形線
100
AcDbLine
 10
623.5548866427359
 20
-1461.611092081071
 30
0.0
 11
623.5548866427359
 21
-1523.61109208107
 31
0.0
  0
ARC
  5
BBCA
330
17
100
AcDbEntity
  8
1外形線
100
AcDbCircle
 10
619.5548866427359
 20
-1522.61109208107
 30
0.0
 40
1.0
100
AcDbArc
 50
180.0
 51
270.0
  0
ARC
  5
BBCB
330
17
100
AcDbEntity
  8
1外形線
 48
3.0
100
AcDbCircle
 10
738.5548866427359
 20
-1493.611092081071
 30
0.0
 40
20.0
100
AcDbArc
 50
90.0
 51
112.6198649480321
  0
ARC
  5
BBCC
330
17
100
AcDbEntity
  8
1外形線
 48
3.0
100
AcDbCircle
 10
751.0548866427359
 20
-1523.61109208107
 30
0.0
 40
52.49999999999989
100
AcDbArc
 50
112.6198649480321
 51
175.0114580244509
  0
ARC
  5
BBCD
330
17
100
AcDbEntity
  8
1外形線
 48
3.0
100
AcDbCircle
 10
693.7726904557877
 20
-1518.61109208107
 30
0.0
 40
5.0
100
AcDbArc
 50
270.0
 51
355.011458024451
  0
LINE
  5
BBCE
330
17
100
AcDbEntity
  8
1外形線
100
AcDbLine
 10
738.5548866427359
 20
-1473.61109208107
 30
0.0
 11
762.5548866427359
 21
-1473.61109208107
 31
0.0
  0
ARC
  5
BBCF
330
17
100
AcDbEntity
  8
1外形線
100
AcDbCircle
 10
762.5548866427359
 20
-1472.61109208107
 30
0.0
 40
1.0
100
AcDbArc
 50
270.0
 51
0.0
  0
ARC
  5
BBD0
330
17
100
AcDbEntity
  8
1外形線
 48
3.0
100
AcDbCircle
 10
885.408448458714
 20
-1449.411092081072
 30
0.0
 40
24.19999999999998
100
AcDbArc
 50
180.0
 51
270.0
  0
ARC
  5
BBD1
330
17
100
AcDbEntity
  8
1外形線
 48
3.0
100
AcDbCircle
 10
886.408448458714
 20
-1449.611092081071
 30
0.0
 40
22.0
100
AcDbArc
 50
180.0
 51
270.0
  0
ARC
  5
BBD2
330
17
100
AcDbEntity
  8
1外形線
 48
3.0
100
AcDbCircle
 10
885.408448458714
 20
-1499.611092081071
 30
0.0
 40
24.0
100
AcDbArc
 50
180.0
 51
270.0
  0
LINE
  5
BBD3
330
17
100
AcDbEntity
  8
1外形線
 48
3.0
100
AcDbLine
 10
861.408448458714
 20
-1452.515927020323
 30
0.0
 11
861.408448458714
 21
-1499.611092081071
 31
0.0
  0
LINE
  5
BBD4
330
17
100
AcDbEntity
  8
1外形線
 48
3.0
100
AcDbLine
 10
935.4084484587136
 20
-1452.515927020323
 30
0.0
 11
935.4084484587136
 21
-1499.611092081071
 31
0.0
  0
ARC
  5
BBD5
330
17
100
AcDbEntity
  8
1外形線
 48
3.0
100
AcDbCircle
 10
910.408448458714
 20
-1449.611092081071
 30
0.0
 40
22.0
100
AcDbArc
 50
270.0
 51
0.0
  0
ARC
  5
BBD6
330
17
100
AcDbEntity
  8
1外形線
 48
3.0
100
AcDbCircle
 10
911.4084484587136
 20
-1449.411092081072
 30
0.0
 40
24.19999999999998
100
AcDbArc
 50
270.0
 51
0.0
  0
LINE
  5
BBD7
330
17
100
AcDbEntity
  8
1外形線
 48
3.0
100
AcDbLine
 10
911.4084484587136
 20
-1473.611092081071
 30
0.0
 11
898.4084484587144
 21
-1473.611092081071
 31
0.0
  0
LINE
  5
BBD8
330
17
100
AcDbEntity
  8
1外形線
 48
3.0
100
AcDbLine
 10
885.408448458714
 20
-1473.611092081071
 30
0.0
 11
898.4084484587135
 21
-1473.611092081071
 31
0.0
  0
LINE
  5
BBD9
330
17
100
AcDbEntity
  8
1外形線
 48
3.0
100
AcDbLine
 10
910.408448458714
 20
-1471.611092081071
 30
0.0
 11
898.4084484587141
 21
-1471.611092081071
 31
0.0
  0
LINE
  5
BBDA
330
17
100
AcDbEntity
  8
1外形線
 48
3.0
100
AcDbLine
 10
886.408448458714
 20
-1471.611092081071
 30
0.0
 11
898.4084484587141
 21
-1471.611092081071
 31
0.0
  0
LINE
  5
BBDB
330
17
100
AcDbEntity
  8
1外形線
 48
3.0
100
AcDbLine
 10
911.4084484587136
 20
-1523.611092081071
 30
0.0
 11
898.4084484587141
 21
-1523.611092081071
 31
0.0
  0
LINE
  5
BBDC
330
17
100
AcDbEntity
  8
1外形線
 48
3.0
100
AcDbLine
 10
885.408448458714
 20
-1523.611092081071
 30
0.0
 11
898.4084484587141
 21
-1523.611092081071
 31
0.0
  0
ARC
  5
BBDD
330
17
100
AcDbEntity
  8
1外形線
 48
3.0
100
AcDbCircle
 10
911.4084484587136
 20
-1499.611092081071
 30
0.0
 40
24.0
100
AcDbArc
 50
270.0
 51
0.0
  0
LINE
  5
BBDE
330
17
100
AcDbEntity
  8
1外形線
100
AcDbLine
 10
623.5548866427359
 20
-1382.425079100341
 30
0.0
 11
759.5548866427359
 21
-1382.425079100341
 31
0.0
  0
LINE
  5
BBDF
330
17
100
AcDbEntity
  8
1外形線
100
AcDbLine
 10
623.5548866427359
 20
-1308.425079100341
 30
0.0
 11
759.5548866427359
 21
-1308.425079100341
 31
0.0
  0
LINE
  5
BBE0
330
17
100
AcDbEntity
  8
1外形線
100
AcDbLine
 10
623.5548866427359
 20
-1345.425079100341
 30
0.0
 11
623.5548866427359
 21
-1308.425079100341
 31
0.0
  0
LINE
  5
BBE1
330
17
100
AcDbEntity
  8
1外形線
100
AcDbLine
 10
618.5548866427359
 20
-1345.425079100341
 30
0.0
 11
618.5548866427359
 21
-1309.225079100342
 31
0.0
  0
ARC
  5
BBE2
330
17
100
AcDbEntity
  8
1外形線
100
AcDbCircle
 10
623.3548866427359
 20
-1382.425079100341
 30
0.0
 40
0.2
100
AcDbArc
 50
270.0
 51
0.0
  0
ARC
  5
BBE3
330
17
100
AcDbEntity
  8
1外形線
100
AcDbCircle
 10
619.5548866427359
 20
-1381.625079100341
 30
0.0
 40
1.0
100
AcDbArc
 50
180.0
 51
270.0
  0
LINE
  5
BBE4
330
17
100
AcDbEntity
  8
1外形線
100
AcDbLine
 10
619.5548866427359
 20
-1382.625079100341
 30
0.0
 11
623.3548866427359
 21
-1382.625079100341
 31
0.0
  0
LINE
  5
BBE5
330
17
100
AcDbEntity
  8
1外形線
100
AcDbLine
 10
618.5548866427359
 20
-1345.425079100341
 30
0.0
 11
618.5548866427359
 21
-1381.625079100341
 31
0.0
  0
LINE
  5
BBE6
330
17
100
AcDbEntity
  8
1外形線
100
AcDbLine
 10
623.5548866427359
 20
-1345.425079100341
 30
0.0
 11
623.5548866427359
 21
-1382.425079100341
 31
0.0
  0
ARC
  5
BBE7
330
17
100
AcDbEntity
  8
1外形線
 48
3.0
100
AcDbCircle
 10
646.0548866427359
 20
-1372.925079100341
 30
0.0
 40
0.6
100
AcDbArc
 50
188.6269265587099
 51
351.3730734412903
  0
ARC
  5
BBE8
330
17
100
AcDbEntity
  8
1外形線
 48
3.0
100
AcDbCircle
 10
646.0548866427359
 20
-1376.925079100341
 30
0.0
 40
0.6
100
AcDbArc
 50
8.626926558657299
 51
171.3730734413427
  0
ARC
  5
BBE9
330
17
100
AcDbEntity
  8
1外形線
 48
3.0
100
AcDbCircle
 10
644.0548866427359
 20
-1374.925079100341
 30
0.0
 40
0.6
100
AcDbArc
 50
278.6269265586772
 51
81.37307344131595
  0
ARC
  5
BBEA
330
17
100
AcDbEntity
  8
1外形線
100
AcDbCircle
 10
646.0548866427359
 20
-1374.925079100341
 30
0.0
 40
2.0
100
AcDbArc
 50
107.2538531173577
 51
162.7461468826145
  0
ARC
  5
BBEB
330
17
100
AcDbEntity
  8
1外形線
100
AcDbCircle
 10
646.0548866427359
 20
-1374.925079100341
 30
0.0
 40
2.0
100
AcDbArc
 50
197.2538531173299
 51
252.7461468826423
  0
ARC
  5
BBEC
330
17
100
AcDbEntity
  8
1外形線
 48
3.0
100
AcDbCircle
 10
648.0548866427359
 20
-1374.925079100341
 30
0.0
 40
0.6
100
AcDbArc
 50
98.62692655867714
 51
261.3730734413229
  0
ARC
  5
BBED
330
17
100
AcDbEntity
  8
1外形線
100
AcDbCircle
 10
646.0548866427359
 20
-1374.925079100341
 30
0.0
 40
2.0
100
AcDbArc
 50
17.25385311738043
 51
72.74614688264232
  0
ARC
  5
BBEE
330
17
100
AcDbEntity
  8
1外形線
100
AcDbCircle
 10
646.0548866427359
 20
-1374.925079100341
 30
0.0
 40
2.0
100
AcDbArc
 50
287.2538531173577
 51
342.7461468826197
  0
ARC
  5
BBEF
330
17
100
AcDbEntity
  8
1外形線
100
AcDbCircle
 10
646.0548866427359
 20
-1374.925079100341
 30
0.0
 40
4.5
100
AcDbArc
 50
0.0
 51
180.0
  0
LINE
  5
BBF0
330
17
100
AcDbEntity
  8
1外形線
100
AcDbLine
 10
641.5548866427359
 20
-1382.425079100341
 30
0.0
 11
641.5548866427359
 21
-1374.925079100341
 31
0.0
  0
LINE
  5
BBF1
330
17
100
AcDbEntity
  8
1外形線
100
AcDbLine
 10
650.5548866427359
 20
-1382.425079100341
 30
0.0
 11
650.5548866427359
 21
-1374.925079100341
 31
0.0
  0
ARC
  5
BBF2
330
17
100
AcDbEntity
  8
1外形線
100
AcDbCircle
 10
623.3548866427359
 20
-1308.425079100341
 30
0.0
 40
0.2
100
AcDbArc
 50
0.0
 51
90.0
  0
ARC
  5
BBF3
330
17
100
AcDbEntity
  8
1外形線
100
AcDbCircle
 10
619.5548866427359
 20
-1309.225079100342
 30
0.0
 40
1.0
100
AcDbArc
 50
90.0
 51
180.0
  0
LINE
  5
BBF4
330
17
100
AcDbEntity
  8
1外形線
100
AcDbLine
 10
619.5548866427359
 20
-1308.225079100342
 30
0.0
 11
623.3548866427359
 21
-1308.225079100342
 31
0.0
  0
LINE
  5
BBF5
330
17
100
AcDbEntity
  8
1外形線
100
AcDbLine
 10
650.5548866427359
 20
-1308.425079100341
 30
0.0
 11
650.5548866427359
 21
-1315.925079100341
 31
0.0
  0
LINE
  5
BBF6
330
17
100
AcDbEntity
  8
1外形線
100
AcDbLine
 10
641.5548866427359
 20
-1308.425079100341
 30
0.0
 11
641.5548866427359
 21
-1315.925079100341
 31
0.0
  0
ARC
  5
BBF7
330
17
100
AcDbEntity
  8
1外形線
100
AcDbCircle
 10
646.0548866427359
 20
-1315.925079100341
 30
0.0
 40
4.5
100
AcDbArc
 50
180.0
 51
0.0
  0
ARC
  5
BBF8
330
17
100
AcDbEntity
  8
1外形線
100
AcDbCircle
 10
646.0548866427359
 20
-1315.925079100341
 30
0.0
 40
2.0
100
AcDbArc
 50
17.25385311738043
 51
72.74614688264232
  0
ARC
  5
BBF9
330
17
100
AcDbEntity
  8
1外形線
100
AcDbCircle
 10
646.0548866427359
 20
-1315.925079100341
 30
0.0
 40
2.0
100
AcDbArc
 50
287.2538531173577
 51
342.7461468826197
  0
ARC
  5
BBFA
330
17
100
AcDbEntity
  8
1外形線
 48
3.0
100
AcDbCircle
 10
648.0548866427359
 20
-1315.925079100341
 30
0.0
 40
0.6
100
AcDbArc
 50
98.62692655867714
 51
261.3730734413229
  0
ARC
  5
BBFB
330
17
100
AcDbEntity
  8
1外形線
100
AcDbCircle
 10
646.0548866427359
 20
-1315.925079100341
 30
0.0
 40
2.0
100
AcDbArc
 50
107.2538531173577
 51
162.7461468826701
  0
ARC
  5
BBFC
330
17
100
AcDbEntity
  8
1外形線
100
AcDbCircle
 10
646.0548866427359
 20
-1315.925079100341
 30
0.0
 40
2.0
100
AcDbArc
 50
197.2538531173855
 51
252.7461468826423
  0
ARC
  5
BBFD
330
17
100
AcDbEntity
  8
1外形線
 48
3.0
100
AcDbCircle
 10
644.0548866427359
 20
-1315.925079100341
 30
0.0
 40
0.6
100
AcDbArc
 50
278.626926558684
 51
81.37307344132288
  0
ARC
  5
BBFE
330
17
100
AcDbEntity
  8
1外形線
 48
3.0
100
AcDbCircle
 10
646.0548866427359
 20
-1313.925079100341
 30
0.0
 40
0.6
100
AcDbArc
 50
188.6269265586573
 51
351.3730734413428
  0
ARC
  5
BBFF
330
17
100
AcDbEntity
  8
1外形線
 48
3.0
100
AcDbCircle
 10
646.0548866427359
 20
-1317.925079100341
 30
0.0
 40
0.6
100
AcDbArc
 50
8.626926558709799
 51
171.3730734412902
  0
LINE
  5
BC00
330
17
100
AcDbEntity
  8
1外形線
100
AcDbLine
 10
759.5548866427359
 20
-1345.425079100341
 30
0.0
 11
759.5548866427359
 21
-1308.425079100341
 31
0.0
  0
LINE
  5
BC01
330
17
100
AcDbEntity
  8
1外形線
100
AcDbLine
 10
764.5548866427359
 20
-1345.425079100341
 30
0.0
 11
764.5548866427359
 21
-1309.225079100342
 31
0.0
  0
ARC
  5
BC02
330
17
100
AcDbEntity
  8
1外形線
 48
3.0
100
AcDbCircle
 10
738.5548866427359
 20
-1493.611092081071
 30
0.0
 40
82.00000000000043
100
AcDbArc
 50
90.0
 51
112.6198649480321
  0
ARC
  5
BC03
330
17
100
AcDbEntity
  8
1外形線
100
AcDbCircle
 10
737.0548866427359
 20
-1374.925079100341
 30
0.0
 40
4.5
100
AcDbArc
 50
0.0
 51
180.0
  0
LINE
  5
BC04
330
17
100
AcDbEntity
  8
1外形線
100
AcDbLine
 10
732.5548866427359
 20
-1382.425079100341
 30
0.0
 11
732.5548866427359
 21
-1374.925079100341
 31
0.0
  0
LINE
  5
BC05
330
17
100
AcDbEntity
  8
1外形線
100
AcDbLine
 10
764.5548866427359
 20
-1345.425079100341
 30
0.0
 11
764.5548866427359
 21
-1381.625079100341
 31
0.0
  0
ARC
  5
BC06
330
17
100
AcDbEntity
  8
1外形線
100
AcDbCircle
 10
759.7548866427354
 20
-1382.425079100341
 30
0.0
 40
0.2
100
AcDbArc
 50
180.0
 51
270.0
  0
LINE
  5
BC07
330
17
100
AcDbEntity
  8
1外形線
100
AcDbLine
 10
759.7548866427354
 20
-1382.625079100341
 30
0.0
 11
763.5548866427359
 21
-1382.625079100341
 31
0.0
  0
ARC
  5
BC08
330
17
100
AcDbEntity
  8
1外形線
 48
3.0
100
AcDbCircle
 10
739.0548866427359
 20
-1374.925079100341
 30
0.0
 40
0.6
100
AcDbArc
 50
98.62692655867714
 51
261.3730734413229
  0
LINE
  5
BC09
330
17
100
AcDbEntity
  8
1外形線
100
AcDbLine
 10
741.5548866427359
 20
-1382.425079100341
 30
0.0
 11
741.5548866427359
 21
-1374.925079100341
 31
0.0
  0
ARC
  5
BC0A
330
17
100
AcDbEntity
  8
1外形線
100
AcDbCircle
 10
737.0548866427359
 20
-1374.925079100341
 30
0.0
 40
2.0
100
AcDbArc
 50
197.2538531173299
 51
252.7461468826423
  0
ARC
  5
BC0B
330
17
100
AcDbEntity
  8
1外形線
100
AcDbCircle
 10
737.0548866427359
 20
-1374.925079100341
 30
0.0
 40
2.0
100
AcDbArc
 50
107.2538531173577
 51
162.7461468826145
  0
ARC
  5
BC0C
330
17
100
AcDbEntity
  8
1外形線
 48
3.0
100
AcDbCircle
 10
735.0548866427359
 20
-1374.925079100341
 30
0.0
 40
0.6
100
AcDbArc
 50
278.6269265586772
 51
81.37307344131595
  0
ARC
  5
BC0D
330
17
100
AcDbEntity
  8
1外形線
 48
3.0
100
AcDbCircle
 10
737.0548866427359
 20
-1376.925079100341
 30
0.0
 40
0.6
100
AcDbArc
 50
8.626926558657299
 51
171.3730734413427
  0
ARC
  5
BC0E
330
17
100
AcDbEntity
  8
1外形線
 48
3.0
100
AcDbCircle
 10
737.0548866427359
 20
-1372.925079100341
 30
0.0
 40
0.6
100
AcDbArc
 50
188.6269265587099
 51
351.3730734412903
  0
ARC
  5
BC0F
330
17
100
AcDbEntity
  8
1外形線
100
AcDbCircle
 10
737.0548866427359
 20
-1374.925079100341
 30
0.0
 40
2.0
100
AcDbArc
 50
287.2538531173577
 51
342.7461468826197
  0
ARC
  5
BC10
330
17
100
AcDbEntity
  8
1外形線
100
AcDbCircle
 10
737.0548866427359
 20
-1374.925079100341
 30
0.0
 40
2.0
100
AcDbArc
 50
17.25385311738043
 51
72.74614688264232
  0
LINE
  5
BC11
330
17
100
AcDbEntity
  8
1外形線
100
AcDbLine
 10
759.5548866427359
 20
-1345.425079100341
 30
0.0
 11
759.5548866427359
 21
-1382.425079100341
 31
0.0
  0
ARC
  5
BC12
330
17
100
AcDbEntity
  8
1外形線
100
AcDbCircle
 10
763.5548866427359
 20
-1381.625079100341
 30
0.0
 40
1.0
100
AcDbArc
 50
270.0
 51
0.0
  0
LINE
  5
BC13
330
17
100
AcDbEntity
  8
1外形線
100
AcDbLine
 10
738.5548866427359
 20
-1411.61109208107
 30
0.0
 11
758.5548866427359
 21
-1411.61109208107
 31
0.0
  0
LINE
  5
BC14
330
17
100
AcDbEntity
  8
1外形線
100
AcDbLine
 10
738.5548866427359
 20
-1438.81109208107
 30
0.0
 11
763.5548866427359
 21
-1438.81109208107
 31
0.0
  0
ARC
  5
BC15
330
17
100
AcDbEntity
  8
1外形線
100
AcDbCircle
 10
762.5548866427359
 20
-1412.41109208107
 30
0.0
 40
1.0
100
AcDbArc
 50
0.0
 51
90.0
  0
ARC
  5
BC16
330
17
100
AcDbEntity
  8
1外形線
100
AcDbCircle
 10
758.7548866427354
 20
-1411.61109208107
 30
0.0
 40
0.2
100
AcDbArc
 50
90.0
 51
180.0
  0
LINE
  5
BC17
330
17
100
AcDbEntity
  8
1外形線
100
AcDbLine
 10
758.7548866427354
 20
-1411.41109208107
 30
0.0
 11
762.5548866427359
 21
-1411.41109208107
 31
0.0
  0
LINE
  5
BC18
330
17
100
AcDbEntity
  8
1外形線
100
AcDbLine
 10
741.5548866427359
 20
-1431.81109208107
 30
0.0
 11
741.5548866427359
 21
-1419.778167369172
 31
0.0
  0
LINE
  5
BC19
330
17
100
AcDbEntity
  8
1外形線
100
AcDbLine
 10
732.5548866427359
 20
-1431.81109208107
 30
0.0
 11
732.5548866427359
 21
-1419.778167369172
 31
0.0
  0
LINE
  5
BC1A
330
17
100
AcDbEntity
  8
1外形線
100
AcDbLine
 10
732.5548866427359
 20
-1431.81109208107
 30
0.0
 11
741.5548866427359
 21
-1431.81109208107
 31
0.0
  0
ELLIPSE
  5
BC1B
330
17
100
AcDbEntity
  8
1外形線
100
AcDbEllipse
 10
737.0548866427359
 20
-1419.778167369172
 30
0.0
 11
0.0
 21
7.093012195123262
 31
0.0
210
0.0
220
0.0
230
1.0
 40
0.6344272188188164
 41
4.712388980384688
 42
7.853981633974482
  0
ARC
  5
BC1C
330
17
100
AcDbEntity
  8
1外形線
100
AcDbCircle
 10
737.0548866427359
 20
-1315.925079100341
 30
0.0
 40
4.5
100
AcDbArc
 50
180.0
 51
0.0
  0
LINE
  5
BC1D
330
17
100
AcDbEntity
  8
1外形線
100
AcDbLine
 10
732.5548866427359
 20
-1308.425079100341
 30
0.0
 11
732.5548866427359
 21
-1315.925079100341
 31
0.0
  0
ARC
  5
BC1E
330
17
100
AcDbEntity
  8
1外形線
 48
3.0
100
AcDbCircle
 10
737.0548866427359
 20
-1317.925079100341
 30
0.0
 40
0.6
100
AcDbArc
 50
8.626926558709799
 51
171.3730734412902
  0
ARC
  5
BC1F
330
17
100
AcDbEntity
  8
1外形線
 48
3.0
100
AcDbCircle
 10
737.0548866427359
 20
-1313.925079100341
 30
0.0
 40
0.6
100
AcDbArc
 50
188.6269265586573
 51
351.3730734413428
  0
ARC
  5
BC20
330
17
100
AcDbEntity
  8
1外形線
 48
3.0
100
AcDbCircle
 10
735.0548866427359
 20
-1315.925079100341
 30
0.0
 40
0.6
100
AcDbArc
 50
278.626926558684
 51
81.37307344132288
  0
ARC
  5
BC21
330
17
100
AcDbEntity
  8
1外形線
100
AcDbCircle
 10
737.0548866427359
 20
-1315.925079100341
 30
0.0
 40
2.0
100
AcDbArc
 50
197.2538531173855
 51
252.7461468826423
  0
ARC
  5
BC22
330
17
100
AcDbEntity
  8
1外形線
100
AcDbCircle
 10
737.0548866427359
 20
-1315.925079100341
 30
0.0
 40
2.0
100
AcDbArc
 50
107.2538531173577
 51
162.7461468826701
  0
ARC
  5
BC23
330
17
100
AcDbEntity
  8
1外形線
 48
3.0
100
AcDbCircle
 10
739.0548866427359
 20
-1315.925079100341
 30
0.0
 40
0.6
100
AcDbArc
 50
98.62692655867714
 51
261.3730734413229
  0
ARC
  5
BC24
330
17
100
AcDbEntity
  8
1外形線
100
AcDbCircle
 10
737.0548866427359
 20
-1315.925079100341
 30
0.0
 40
2.0
100
AcDbArc
 50
287.2538531173577
 51
342.7461468826197
  0
ARC
  5
BC25
330
17
100
AcDbEntity
  8
1外形線
100
AcDbCircle
 10
737.0548866427359
 20
-1315.925079100341
 30
0.0
 40
2.0
100
AcDbArc
 50
17.25385311738043
 51
72.74614688264232
  0
LINE
  5
BC26
330
17
100
AcDbEntity
  8
1外形線
100
AcDbLine
 10
741.5548866427359
 20
-1308.425079100341
 30
0.0
 11
741.5548866427359
 21
-1315.925079100341
 31
0.0
  0
ARC
  5
BC27
330
17
100
AcDbEntity
  8
1外形線
100
AcDbCircle
 10
759.7548866427354
 20
-1308.425079100341
 30
0.0
 40
0.2
100
AcDbArc
 50
90.0
 51
180.0
  0
ARC
  5
BC28
330
17
100
AcDbEntity
  8
1外形線
100
AcDbCircle
 10
763.5548866427359
 20
-1309.225079100342
 30
0.0
 40
1.0
100
AcDbArc
 50
0.0
 51
90.0
  0
LINE
  5
BC29
330
17
100
AcDbEntity
  8
1外形線
100
AcDbLine
 10
759.7548866427354
 20
-1308.225079100342
 30
0.0
 11
763.5548866427359
 21
-1308.225079100342
 31
0.0
  0
LINE
  5
BC2A
330
17
100
AcDbEntity
  8
1外形線
100
AcDbLine
 10
884.1622372074775
 20
-1411.411092081072
 30
0.0
 11
898.4084484587141
 21
-1411.411092081071
 31
0.0
  0
LINE
  5
BC2B
330
17
100
AcDbEntity
  8
1外形線
100
AcDbLine
 10
884.1622372074775
 20
-1413.61109208107
 30
0.0
 11
898.4084484587141
 21
-1413.61109208107
 31
0.0
  0
LINE
  5
BC2C
330
17
100
AcDbEntity
  8
1外形線
100
AcDbLine
 10
861.2084484587146
 20
-1435.695012297968
 30
0.0
 11
861.2084484587136
 21
-1438.811092081071
 31
0.0
  0
ARC
  5
BC2D
330
17
100
AcDbEntity
  8
1外形線
100
AcDbCircle
 10
875.4084484587144
 20
-1435.695012297969
 30
0.0
 40
14.19999999999999
100
AcDbArc
 50
160.8118635462598
 51
180.0
  0
ARC
  5
BC2E
330
17
100
AcDbEntity
  8
1外形線
100
AcDbCircle
 10
892.4084484587135
 20
-1441.61109208107
 30
0.0
 40
32.20000000000001
100
AcDbArc
 50
117.2660444507387
 51
160.8118635462598
  0
ARC
  5
BC2F
330
17
100
AcDbEntity
  8
1外形線
100
AcDbCircle
 10
884.1622372074775
 20
-1425.61109208107
 30
0.0
 40
12.0
100
AcDbArc
 50
90.0
 51
117.2660444507387
  0
LINE
  5
BC30
330
17
100
AcDbEntity
  8
1外形線
 48
3.0
100
AcDbLine
 10
862.6162885226618
 20
-1438.811092081071
 30
0.0
 11
861.2084484587146
 21
-1438.811092081071
 31
0.0
  0
LINE
  5
BC31
330
17
100
AcDbEntity
  8
1外形線
 48
3.0
100
AcDbLine
 10
862.4241285866117
 20
-1438.811092081071
 30
0.0
 11
861.408448458714
 21
-1438.811092081071
 31
0.0
  0
LINE
  5
BC32
330
17
100
AcDbEntity
  8
1外形線
 48
3.0
100
AcDbLine
 10
862.8161287144074
 20
-1438.61908568874
 30
0.0
 11
863.0007682030209
 21
-1434.003098473401
 31
0.0
  0
ARC
  5
BC33
330
17
100
AcDbEntity
  8
1外形線
 48
3.0
100
AcDbCircle
 10
863.2006083947647
 20
-1434.011092081071
 30
0.0
 40
0.2
100
AcDbArc
 50
90.0
 51
177.7093899573604
  0
LINE
  5
BC34
330
17
100
AcDbEntity
  8
1外形線
 48
3.0
100
AcDbLine
 10
864.2084484587146
 20
-1433.811092081071
 30
0.0
 11
863.2006083947647
 21
-1433.811092081071
 31
0.0
  0
LINE
  5
BC35
330
17
100
AcDbEntity
  8
1外形線
 48
3.0
100
AcDbLine
 10
864.2084484587137
 20
-1433.811092081071
 30
0.0
 11
864.2084484587137
 21
-1438.811092081071
 31
0.0
  0
ARC
  5
BC36
330
17
100
AcDbEntity
  8
1外形線
 48
3.0
100
AcDbCircle
 10
862.6162885226618
 20
-1438.61109208107
 30
0.0
 40
0.2
100
AcDbArc
 50
269.999999999987
 51
357.709389957342
  0
ARC
  5
BC37
330
17
100
AcDbEntity
  8
1外形線
100
AcDbCircle
 10
876.2084484587147
 20
-1433.765073982696
 30
0.0
 40
12.0
100
AcDbArc
 50
154.1580672368486
 51
180.0
  0
ARC
  5
BC38
330
17
100
AcDbEntity
  8
1外形線
100
AcDbCircle
 10
892.4084484587135
 20
-1441.61109208107
 30
0.0
 40
30.0
100
AcDbArc
 50
117.2660444507387
 51
154.1580672368486
  0
ARC
  5
BC39
330
17
100
AcDbEntity
  8
1外形線
100
AcDbCircle
 10
884.1622372074775
 20
-1425.61109208107
 30
0.0
 40
14.19999999999999
100
AcDbArc
 50
90.0
 51
117.2660444507387
  0
LINE
  5
BC3A
330
17
100
AcDbEntity
  8
1外形線
100
AcDbLine
 10
912.6546597099499
 20
-1411.411092081072
 30
0.0
 11
898.4084484587141
 21
-1411.411092081071
 31
0.0
  0
LINE
  5
BC3B
330
17
100
AcDbEntity
  8
1外形線
100
AcDbLine
 10
912.6546597099499
 20
-1413.61109208107
 30
0.0
 11
898.4084484587141
 21
-1413.61109208107
 31
0.0
  0
ARC
  5
BC3C
330
17
100
AcDbEntity
  8
1外形線
100
AcDbCircle
 10
912.6546597099499
 20
-1425.61109208107
 30
0.0
 40
12.0
100
AcDbArc
 50
62.73395554926125
 51
90.0
  0
LINE
  5
BC3D
330
17
100
AcDbEntity
  8
1外形線
 48
3.0
100
AcDbLine
 10
932.6084484587143
 20
-1433.811092081071
 30
0.0
 11
932.6084484587143
 21
-1438.811092081071
 31
0.0
  0
LINE
  5
BC3E
330
17
100
AcDbEntity
  8
1外形線
100
AcDbLine
 10
932.6084484587138
 20
-1433.765073982697
 30
0.0
 11
932.6084484587138
 21
-1433.811092081071
 31
0.0
  0
LINE
  5
BC3F
330
17
100
AcDbEntity
  8
1外形線
100
AcDbLine
 10
932.6084484587138
 20
-1433.765073982696
 30
0.0
 11
932.6084484587138
 21
-1435.81109208107
 31
0.0
  0
LINE
  5
BC40
330
17
100
AcDbEntity
  8
1外形線
100
AcDbLine
 10
935.6084484587134
 20
-1435.695012297968
 30
0.0
 11
935.6084484587142
 21
-1438.811092081071
 31
0.0
  0
ARC
  5
BC41
330
17
100
AcDbEntity
  8
1外形線
100
AcDbCircle
 10
920.6084484587133
 20
-1433.765073982696
 30
0.0
 40
12.0
100
AcDbArc
 50
0.0
 51
25.84193276315141
  0
ARC
  5
BC42
330
17
100
AcDbEntity
  8
1外形線
100
AcDbCircle
 10
921.4084484587136
 20
-1435.695012297969
 30
0.0
 40
14.19999999999999
100
AcDbArc
 50
0.0
 51
19.18813645374013
  0
ARC
  5
BC43
330
17
100
AcDbEntity
  8
1外形線
100
AcDbCircle
 10
904.4084484587145
 20
-1441.61109208107
 30
0.0
 40
30.0
100
AcDbArc
 50
25.84193276315141
 51
62.73395554926125
  0
ARC
  5
BC44
330
17
100
AcDbEntity
  8
1外形線
100
AcDbCircle
 10
904.4084484587145
 20
-1441.61109208107
 30
0.0
 40
32.20000000000001
100
AcDbArc
 50
19.18813645374013
 51
62.73395554926125
  0
ARC
  5
BC45
330
17
100
AcDbEntity
  8
1外形線
100
AcDbCircle
 10
912.6546597099499
 20
-1425.61109208107
 30
0.0
 40
14.19999999999999
100
AcDbArc
 50
62.73395554926125
 51
90.0
  0
LINE
  5
BC46
330
17
100
AcDbEntity
  8
1外形線
 48
3.0
100
AcDbLine
 10
934.2006083947662
 20
-1438.811092081071
 30
0.0
 11
935.6084484587134
 21
-1438.811092081071
 31
0.0
  0
LINE
  5
BC47
330
17
100
AcDbEntity
  8
1外形線
 48
3.0
100
AcDbLine
 10
934.3927683308164
 20
-1438.811092081071
 30
0.0
 11
935.4084484587136
 21
-1438.811092081071
 31
0.0
  0
LINE
  5
BC48
330
17
100
AcDbEntity
  8
1外形線
 48
3.0
100
AcDbLine
 10
934.0007682030206
 20
-1438.61908568874
 30
0.0
 11
933.8161287144073
 21
-1434.003098473401
 31
0.0
  0
ARC
  5
BC49
330
17
100
AcDbEntity
  8
1外形線
 48
3.0
100
AcDbCircle
 10
933.6162885226627
 20
-1434.011092081071
 30
0.0
 40
0.2
100
AcDbArc
 50
2.290610042639571
 51
90.0
  0
LINE
  5
BC4A
330
17
100
AcDbEntity
  8
1外形線
 48
3.0
100
AcDbLine
 10
932.6084484587138
 20
-1433.811092081071
 30
0.0
 11
933.6162885226627
 21
-1433.811092081071
 31
0.0
  0
ARC
  5
BC4B
330
17
100
AcDbEntity
  8
1外形線
 48
3.0
100
AcDbCircle
 10
934.2006083947662
 20
-1438.61109208107
 30
0.0
 40
0.2
100
AcDbArc
 50
182.290610042658
 51
270.000000000013
  0
LINE
  5
BE0C
330
17
100
AcDbEntity
  8
2寸法線
 48
2.0
100
AcDbLine
 10
898.4084484587141
 20
-1391.990972779937
 30
0.0
 11
898.4084484587141
 21
-1553.73892031749
 31
0.0
  0
ENDSEC
  0
SECTION
  2
OBJECTS
  0
DICTIONARY
  5
C
330
0
100
AcDbDictionary
281
     1
  3
ACAD_COLOR
350
869D
  3
ACAD_GROUP
350
D
  3
ACAD_LAYOUT
350
7DCF
  3
ACAD_MATERIAL
350
869C
  3
ACAD_MLINESTYLE
350
1A
  3
ACAD_PLOTSETTINGS
350
7DD0
  3
ACAD_PLOTSTYLENAME
350
7DCD
  3
ACAD_TABLESTYLE
350
869E
  3
ACDBHEADERROUNDTRIPXREC
350
BE53
  3
ACDBVARIABLEDICTIONARY
350
51
  0
DICTIONARY
  5
8B8C
330
2
100
AcDbDictionary
280
     1
281
     1
  3
ACAD_LAYERSTATES
360
8B8D
  0
DICTIONARY
  5
46FA
330
17
100
AcDbDictionary
280
     1
281
     1
  3
ACAD_LAYOUTSELFREF
360
7FBB
  3
ACAD_SORTENTS
360
46FB
  0
DICTIONARY
  5
7F4E
330
14
100
AcDbDictionary
280
     1
281
     1
  3
ACAD_LAYOUTSELFREF
360
7FBA
  0
DICTIONARY
  5
869D
102
{ACAD_REACTORS
330
C
102
}
330
C
100
AcDbDictionary
281
     1
  0
DICTIONARY
  5
D
102
{ACAD_REACTORS
330
C
102
}
330
C
100
AcDbDictionary
281
     1
  3
*A1
350
B6DB
  3
*A2
350
BACC
  0
DICTIONARY
  5
7DCF
102
{ACAD_REACTORS
330
C
102
}
330
C
100
AcDbDictionary
281
     1
  3
Model
350
7DD1
  3
ﾚｲｱｳﾄ1
350
7DD2
  0
DICTIONARY
  5
869C
102
{ACAD_REACTORS
330
C
102
}
330
C
100
AcDbDictionary
281
     1
  0
DICTIONARY
  5
1A
102
{ACAD_REACTORS
330
C
102
}
330
C
100
AcDbDictionary
281
     1
  3
STANDARD
350
1B
  0
DICTIONARY
  5
7DD0
102
{ACAD_REACTORS
330
C
102
}
330
C
100
AcDbDictionary
281
     1
  0
ACDBDICTIONARYWDFLT
  5
7DCD
102
{ACAD_REACTORS
330
C
102
}
330
C
100
AcDbDictionary
281
     1
  3
Normal
350
7DCE
100
AcDbDictionaryWithDefault
340
7DCE
  0
DICTIONARY
  5
869E
102
{ACAD_REACTORS
330
C
102
}
330
C
100
AcDbDictionary
281
     1
  3
Standard
350
869F
  0
DICTIONARY
  5
BE53
102
{ACAD_REACTORS
330
C
102
}
330
C
100
AcDbDictionary
281
     1
  0
DICTIONARY
  5
51
102
{ACAD_REACTORS
330
C
102
}
330
C
100
AcDbDictionary
281
     1
  3
CTABLESTYLE
350
86BC
  3
DIMADEC
350
52
  3
DIMASSOC
350
7DDA
  3
PROJECTNAME
350
86BD
  3
SORTENTS
350
457F
  0
DICTIONARY
  5
8B8D
102
{ACAD_REACTORS
330
8B8C
102
}
330
8B8C
100
AcDbDictionary
281
     1
  0
XRECORD
  5
7FBB
102
{ACAD_REACTORS
330
46FA
102
}
330
46FA
100
AcDbXrecord
280
     1
340
17
  0
SORTENTSTABLE
  5
46FB
102
{ACAD_REACTORS
330
46FA
102
}
330
46FA
100
AcDbSortentsTable
330
17
  0
XRECORD
  5
7FBA
102
{ACAD_REACTORS
330
7F4E
102
}
330
7F4E
100
AcDbXrecord
280
     1
340
14
  0
GROUP
  5
B6DB
102
{ACAD_REACTORS
330
D
102
}
330
D
100
AcDbGroup
300

 70
     1
 71
     1
  0
GROUP
  5
BACC
102
{ACAD_REACTORS
330
D
102
}
330
D
100
AcDbGroup
300

 70
     1
 71
     1
  0
LAYOUT
  5
7DD1
102
{ACAD_XDICTIONARY
360
BE54
102
}
102
{ACAD_REACTORS
330
7DCF
102
}
330
7DCF
100
AcDbPlotSettings
  1

  2
PrimoPDF
  4
A3
  6

 40
3.174999952316281
 41
3.174999952316281
 42
3.17498779296875
 43
3.17498779296875
 44
297.0530090332031
 45
420.1583251953125
 46
-3.149999999999999
 47
-3.1
 48
452.103531874829
 49
161.7459580894186
140
872.103531874829
141
458.7459580894186
142
1.0
143
1.0
 70
 11956
 72
     1
 73
     1
 74
     4
  7
INABA-CAD-Canon.ctb
 75
    16
147
1.0
148
-452.103531874829
149
-161.7459580894186
100
AcDbLayout
  1
Model
 70
     1
 71
     0
 10
0.0
 20
0.0
 11
12.0
 21
9.0
 12
0.0
 22
0.0
 32
0.0
 14
0.0
 24
0.0
 34
0.0
 15
0.0
 25
0.0
 35
0.0
146
0.0
 13
0.0
 23
0.0
 33
0.0
 16
1.0
 26
0.0
 36
0.0
 17
0.0
 27
1.0
 37
0.0
 76
     0
330
17
  0
LAYOUT
  5
7DD2
102
{ACAD_XDICTIONARY
360
BE56
102
}
102
{ACAD_REACTORS
330
7DCF
102
}
330
7DCF
100
AcDbPlotSettings
  1

  2
Canon LASER SHOT LBP-1710
  4

  6

 40
0.0
 41
0.0
 42
0.0
 43
0.0
 44
0.0
 45
0.0
 46
0.0
 47
0.0
 48
0.0
 49
0.0
140
0.0
141
0.0
142
1.0
143
1.0
 70
   688
 72
     0
 73
     0
 74
     5
  7
INABA-CAD-Canon.ctb
 75
    16
147
1.0
148
0.0
149
0.0
100
AcDbLayout
  1
ﾚｲｱｳﾄ1
 70
     0
 71
     1
 10
0.0
 20
0.0
 11
12.0
 21
9.0
 12
0.0
 22
0.0
 32
0.0
 14
1.000000000000000E+20
 24
1.000000000000000E+20
 34
1.000000000000000E+20
 15
-1.000000000000000E+20
 25
-1.000000000000000E+20
 35
-1.000000000000000E+20
146
0.0
 13
0.0
 23
0.0
 33
0.0
 16
1.0
 26
0.0
 36
0.0
 17
0.0
 27
1.0
 37
0.0
 76
     0
330
14
  0
MLINESTYLE
  5
1B
102
{ACAD_REACTORS
330
1A
102
}
330
1A
100
AcDbMlineStyle
  2
STANDARD
 70
     0
  3

 62
   256
 51
90.0
 52
90.0
 71
     2
 49
0.5
 62
   256
  6
BYLAYER
 49
-0.5
 62
   256
  6
BYLAYER
  0
ACDBPLACEHOLDER
  5
7DCE
102
{ACAD_REACTORS
330
7DCD
102
}
330
7DCD
  0
TABLESTYLE
  5
869F
102
{ACAD_REACTORS
330
869E
102
}
330
869E
100
AcDbTableStyle
  3
Standard
 70
     0
 71
     0
 40
0.06
 41
0.06
280
     0
281
     0
  7
STANDARD
140
0.18
170
     2
 62
     0
 63
     7
283
     0
274
    -2
284
     1
 64
     0
275
    -2
285
     1
 65
     0
276
    -2
286
     1
 66
     0
277
    -2
287
     1
 67
     0
278
    -2
288
     1
 68
     0
279
    -2
289
     1
 69
     0
  7
STANDARD
140
0.25
170
     5
 62
     0
 63
     7
283
     0
274
    -2
284
     1
 64
     0
275
    -2
285
     1
 65
     0
276
    -2
286
     1
 66
     0
277
    -2
287
     1
 67
     0
278
    -2
288
     1
 68
     0
279
    -2
289
     1
 69
     0
  7
STANDARD
140
0.18
170
     5
 62
     0
 63
     7
283
     0
274
    -2
284
     1
 64
     0
275
    -2
285
     1
 65
     0
276
    -2
286
     1
 66
     0
277
    -2
287
     1
 67
     0
278
    -2
288
     1
 68
     0
279
    -2
289
     1
 69
     0
  0
DICTIONARYVAR
  5
86BC
102
{ACAD_REACTORS
330
51
102
}
330
51
100
DictionaryVariables
280
     0
  1
STANDARD
  0
DICTIONARYVAR
  5
52
102
{ACAD_REACTORS
330
51
102
}
330
51
100
DictionaryVariables
280
     0
  1
0
  0
DICTIONARYVAR
  5
7DDA
102
{ACAD_REACTORS
330
51
102
}
330
51
100
DictionaryVariables
280
     0
  1
1
  0
DICTIONARYVAR
  5
86BD
102
{ACAD_REACTORS
330
51
102
}
330
51
100
DictionaryVariables
280
     0
  1

  0
DICTIONARYVAR
  5
457F
102
{ACAD_REACTORS
330
51
102
}
330
51
100
DictionaryVariables
280
     0
  1
127
  0
DICTIONARY
  5
BE54
330
7DD1
100
AcDbDictionary
280
     1
281
     1
  3
ACAD_XREC_ROUNDTRIP
360
BE55
  0
DICTIONARY
  5
BE56
330
7DD2
100
AcDbDictionary
280
     1
281
     1
  3
ACAD_XREC_ROUNDTRIP
360
BE57
  0
XRECORD
  5
BE55
102
{ACAD_REACTORS
330
BE54
102
}
330
BE54
100
AcDbXrecord
280
     1
102
SHADEPLOT
 70
     0
102
SHADEPLOTRESLEVEL
 70
     2
102
SHADEPLOTCUSTOMDPI
 70
   300
  0
XRECORD
  5
BE57
102
{ACAD_REACTORS
330
BE56
102
}
330
BE56
100
AcDbXrecord
280
     1
102
SHADEPLOT
 70
     0
102
SHADEPLOTRESLEVEL
 70
     2
102
SHADEPLOTCUSTOMDPI
 70
   300
  0
ENDSEC
  0
EOF
