  0
SECTION
  2
HEADER
  9
$ACADVER
  1
AC1009
  9
$INSBASE
 10
0.0
 20
0.0
 30
0.0
  9
$EXTMIN
 10
-205.12447729874131
 20
-2598.4919205593269
 30
0.0
  9
$EXTMAX
 10
429.37179483841783
 20
-2130.941273224596
 30
0.0
  9
$LIMMIN
 10
0.0
 20
0.0
  9
$LIMMAX
 10
420.0
 20
297.0
  9
$ORTHOMODE
 70
     1
  9
$REGENMODE
 70
     1
  9
$FILLMODE
 70
     1
  9
$QTEXTMODE
 70
     0
  9
$MIRRTEXT
 70
     1
  9
$DRAGMODE
 70
     2
  9
$LTSCALE
 40
1.0
  9
$OSMODE
 70
    37
  9
$ATTMODE
 70
     1
  9
$TEXTSIZE
 40
2.5
  9
$TRACEWID
 40
1.0
  9
$TEXTSTYLE
  7
KANJI
  9
$CLAYER
  8
2寸法線
  9
$CELTYPE
  6
BYLAYER
  9
$CECOLOR
 62
   256
  9
$DIMSCALE
 40
0.0
  9
$DIMASZ
 40
1.8
  9
$DIMEXO
 40
1.0
  9
$DIMDLI
 40
0.0
  9
$DIMRND
 40
0.0
  9
$DIMDLE
 40
0.0
  9
$DIMEXE
 40
1.0
  9
$DIMTP
 40
0.0
  9
$DIMTM
 40
0.0
  9
$DIMTXT
 40
2.5
  9
$DIMCEN
 40
0.0
  9
$DIMTSZ
 40
0.0
  9
$DIMTOL
 70
     0
  9
$DIMLIM
 70
     0
  9
$DIMTIH
 70
     0
  9
$DIMTOH
 70
     0
  9
$DIMSE1
 70
     0
  9
$DIMSE2
 70
     0
  9
$DIMTAD
 70
     1
  9
$DIMZIN
 70
     8
  9
$DIMBLK
  1

  9
$DIMASO
 70
     1
  9
$DIMSHO
 70
     1
  9
$DIMPOST
  1

  9
$DIMAPOST
  1

  9
$DIMALT
 70
     0
  9
$DIMALTD
 70
     2
  9
$DIMALTF
 40
25.399999999999999
  9
$DIMLFAC
 40
1.0
  9
$DIMTOFL
 70
     1
  9
$DIMTVP
 40
0.0
  9
$DIMTIX
 70
     0
  9
$DIMSOXD
 70
     0
  9
$DIMSAH
 70
     1
  9
$DIMBLK1
  1
2
  9
$DIMBLK2
  1
2
  9
$DIMSTYLE
  2
M
  9
$DIMCLRD
 70
     0
  9
$DIMCLRE
 70
     0
  9
$DIMCLRT
 70
     0
  9
$DIMTFAC
 40
1.0
  9
$DIMGAP
 40
0.5
  9
$LUNITS
 70
     2
  9
$LUPREC
 70
     3
  9
$SKETCHINC
 40
1.0
  9
$FILLETRAD
 40
26.0
  9
$AUNITS
 70
     0
  9
$AUPREC
 70
     1
  9
$MENU
  1
.
  9
$ELEVATION
 40
0.0
  9
$PELEVATION
 40
0.0
  9
$THICKNESS
 40
0.0
  9
$LIMCHECK
 70
     0
  9
$BLIPMODE
 70
     0
  9
$CHAMFERA
 40
10.0
  9
$CHAMFERB
 40
10.0
  9
$SKPOLY
 70
     0
  9
$TDCREATE
 40
2454393.806994895
  9
$TDUPDATE
 40
2454396.4839784028
  9
$TDINDWG
 40
0.0609478125
  9
$TDUSRTIMER
 40
0.0609476273
  9
$USRTIMER
 70
     1
  9
$ANGBASE
 50
0.0
  9
$ANGDIR
 70
     0
  9
$PDMODE
 70
     0
  9
$PDSIZE
 40
0.0
  9
$PLINEWID
 40
0.0
  9
$COORDS
 70
     0
  9
$SPLFRAME
 70
     0
  9
$SPLINETYPE
 70
     6
  9
$SPLINESEGS
 70
     8
  9
$ATTDIA
 70
     1
  9
$ATTREQ
 70
     1
  9
$HANDLING
 70
     1
  9
$HANDSEED
  5
7A9B
  9
$SURFTAB1
 70
     6
  9
$SURFTAB2
 70
     6
  9
$SURFTYPE
 70
     6
  9
$SURFU
 70
     6
  9
$SURFV
 70
     6
  9
$UCSNAME
  2

  9
$UCSORG
 10
0.0
 20
0.0
 30
0.0
  9
$UCSXDIR
 10
1.0
 20
0.0
 30
0.0
  9
$UCSYDIR
 10
0.0
 20
1.0
 30
0.0
  9
$PUCSNAME
  2

  9
$PUCSORG
 10
0.0
 20
0.0
 30
0.0
  9
$PUCSXDIR
 10
1.0
 20
0.0
 30
0.0
  9
$PUCSYDIR
 10
0.0
 20
1.0
 30
0.0
  9
$USERI1
 70
     0
  9
$USERI2
 70
     0
  9
$USERI3
 70
     0
  9
$USERI4
 70
     0
  9
$USERI5
 70
     0
  9
$USERR1
 40
0.0
  9
$USERR2
 40
0.0
  9
$USERR3
 40
0.0
  9
$USERR4
 40
0.0
  9
$USERR5
 40
0.0
  9
$WORLDVIEW
 70
     1
  9
$SHADEDGE
 70
     3
  9
$SHADEDIF
 70
    70
  9
$TILEMODE
 70
     1
  9
$MAXACTVP
 70
    48
  9
$PLIMCHECK
 70
     0
  9
$PEXTMIN
 10
1.0000000000000000E+020
 20
1.0000000000000000E+020
 30
1.0000000000000000E+020
  9
$PEXTMAX
 10
-1.0000000000000000E+020
 20
-1.0000000000000000E+020
 30
-1.0000000000000000E+020
  9
$PLIMMIN
 10
0.0
 20
0.0
  9
$PLIMMAX
 10
420.0
 20
297.0
  9
$UNITMODE
 70
     0
  9
$VISRETAIN
 70
     1
  9
$PLINEGEN
 70
     0
  9
$PSLTSCALE
 70
     1
  0
ENDSEC
  0
SECTION
  2
TABLES
  0
TABLE
  2
VPORT
 70
     3
  0
VPORT
  2
*ACTIVE
 70
     0
 10
0.0
 20
0.0
 11
1.0
 21
1.0
 12
117.9613028547455
 22
-2278.3035606658232
 13
0.0
 23
0.0
 14
10.0
 24
10.0
 15
10.0
 25
10.0
 16
0.0
 26
0.0
 36
1.0
 17
0.0
 27
0.0
 37
0.0
 40
357.65263536724359
 41
1.5937904269081491
 42
50.0
 43
0.0
 44
0.0
 50
0.0
 51
0.0
 71
     0
 72
   100
 73
     1
 74
     1
 75
     0
 76
     0
 77
     0
 78
     0
  0
ENDTAB
  0
TABLE
  2
LTYPE
 70
     4
  0
LTYPE
  2
CONTINUOUS
 70
     0
  3
Solid line
 72
    65
 73
     0
 40
0.0
  0
ENDTAB
  0
TABLE
  2
LAYER
 70
    10
  0
LAYER
  2
0
 70
     0
 62
     7
  6
CONTINUOUS
  0
LAYER
  2
2寸法線
 70
     0
 62
     2
  6
CONTINUOUS
  0
LAYER
  2
1外形線
 70
     0
 62
     3
  6
CONTINUOUS
  0
LAYER
  2
DEFPOINTS
 70
     0
 62
     7
  6
CONTINUOUS
  0
ENDTAB
  0
TABLE
  2
STYLE
 70
     3
  0
STYLE
  2
STANDARD
 70
     0
 40
0.0
 41
1.0
 50
0.0
 71
     0
 42
2.5
  3
txt
  4

  0
STYLE
  2
KANJI
 70
     0
 40
0.0
 41
1.0
 50
0.0
 71
     0
 42
2.5
  3
simplex.shx
  4
bigfont.shx
  0
ENDTAB
  0
TABLE
  2
VIEW
 70
     0
  0
ENDTAB
  0
TABLE
  2
UCS
 70
     0
  0
ENDTAB
  0
TABLE
  2
APPID
 70
     1
  0
APPID
  2
ACAD
 70
     0
  0
ENDTAB
  0
TABLE
  2
DIMSTYLE
 70
     5
  0
DIMSTYLE
  2
STANDARD
 70
     0
  3

  4

  5

  6

  7

 40
1.0
 41
0.18
 42
0.0625
 43
0.38
 44
0.18
 45
0.0
 46
0.0
 47
0.0
 48
0.0
140
0.18
141
0.09
142
0.0
143
25.399999999999999
144
1.0
145
0.0
146
1.0
147
0.09
 71
     0
 72
     0
 73
     0
 74
     0
 75
     0
 76
     0
 77
     0
 78
     0
170
     0
171
     2
172
     1
173
     0
174
     0
175
     0
176
     0
177
     0
178
     0
  0
DIMSTYLE
  2
M
 70
     0
  3

  4

  5

  6

  7

 40
0.0
 41
2.0
 42
1.0
 43
0.0
 44
1.0
 45
0.0
 46
0.0
 47
0.0
 48
0.0
140
2.5
141
0.0
142
0.0
143
25.399999999999999
144
1.0
145
0.0
146
1.0
147
0.5
 71
     0
 72
     0
 73
     0
 74
     0
 75
     0
 76
     0
 77
     1
 78
     8
170
     0
171
     2
172
     1
173
     1
174
     0
175
     0
176
     0
177
     0
178
     0
  0
ENDTAB
  0
ENDSEC
  0
SECTION
  2
BLOCKS
  0
BLOCK
  8
0
  2
$MODEL_SPACE
 70
     0
 10
0.0
 20
0.0
 30
0.0
  3
$MODEL_SPACE
  1

  0
ENDBLK
  5
7582
  8
0
  0
BLOCK
 67
     1
  8
0
  2
$PAPER_SPACE
 70
     0
 10
0.0
 20
0.0
 30
0.0
  3
$PAPER_SPACE
  1

  0
ENDBLK
  5
757E
 67
     1
  8
0
  0
BLOCK
  8
0
  2
2
 70
     0
 10
0.0
 20
0.0
 30
0.0
  3
2
  1

  0
INSERT
  5
131
  8
0
  6
CONTINUOUS
 62
     0
  2
*U3
 10
0.0
 20
0.0
 30
0.0
1001
ACAD
1002
{
1000
R14_HATCH_DATA
1000
131
1011
1.0
1021
0.0
1031
-1.1251076549451328E+307
1021
0.0
1031
0.0
1011
0.0
1021
0.0
1031
-1.1251076549451328E+307
1021
1.0
1031
0.0
1011
0.0
1021
0.0
1031
-1.1251076549451328E+307
1021
0.0
1031
1.0
1040
0.0
1010
0.0
1020
0.0
1030
1.0
1000
SOLID
1070
     1
1070
     0
1071
        1
1071
        1
1071
        3
1070
     1
1040
-0.9999999999983517
1040
0.2679491924306774
1040
0.0
1040
0.0
1070
     1
1040
0.0
1040
0.0
1040
-0.9999999999983517
1040
-0.2679491924306765
1070
     1
1040
-0.9999999999983524
1040
-0.267949192430676
1040
-0.9999999999983524
1040
0.2679491924306774
1071
        0
1070
     0
1070
     1
1071
        1
1040
2.9957451172313361
1040
-4.1249460962632014
1040
0.0
1002
}
  0
ENDBLK
  5
132
  8
0
  0
BLOCK
  8
0
  2
*U3
 70
     1
 10
0.0
 20
0.0
 30
0.0
  3
*U3
  1

  0
SOLID
  5
7336
  8
0
  6
CONTINUOUS
 62
     0
 10
0.666666666665568
 20
0.0000000000000004
 30
0.0
 11
0.9999999999983517
 21
0.2679491924306774
 31
0.0
 12
0.0
 22
0.0
 32
0.0
 13
0.0
 23
0.0
 33
0.0
210
0.0
220
0.0
230
-1.0
  0
SOLID
  5
7337
  8
0
  6
CONTINUOUS
 62
     0
 10
0.666666666665568
 20
0.0000000000000004
 30
0.0
 11
0.0
 21
0.0
 31
0.0
 12
0.9999999999983524
 22
-0.267949192430676
 32
0.0
 13
0.9999999999983524
 23
-0.267949192430676
 33
0.0
210
0.0
220
0.0
230
-1.0
  0
SOLID
  5
7338
  8
0
  6
CONTINUOUS
 62
     0
 10
0.666666666665568
 20
0.0000000000000004
 30
0.0
 11
0.9999999999983524
 21
-0.267949192430676
 31
0.0
 12
0.9999999999983517
 22
0.2679491924306774
 32
0.0
 13
0.9999999999983517
 23
0.2679491924306774
 33
0.0
210
0.0
220
0.0
230
-1.0
  0
ENDBLK
  5
733A
  8
0
  0
ENDSEC
  0
SECTION
  2
ENTITIES
  0
LINE
  5
7A36
  8
1外形線
 62
     2
 10
-66.190302023437241
 20
-2153.2672675394092
 30
0.0
 11
-14.543969394047529
 21
-2277.9525442201129
 31
0.0
  0
LINE
  5
7A4C
  8
1外形線
 10
7.140494933639757
 20
-2162.5156295078818
 30
0.0
 11
-41.648826947711292
 21
-2162.5156295078818
 31
0.0
  0
LINE
  5
7A4D
  8
1外形線
 10
7.140494933639757
 20
-2256.5156295078818
 30
0.0
 11
-19.281294579561632
 21
-2256.5156295078818
 31
0.0
  0
LINE
  5
7A4E
  8
1外形線
 10
7.140494933639757
 20
-2256.5156295078818
 30
0.0
 11
7.140494933639757
 21
-2162.5156295078818
 31
0.0
  0
LINE
  5
7A4F
  8
1外形線
 10
2.140494933639757
 20
-2256.5156295078818
 30
0.0
 11
2.140494933639757
 21
-2162.5156295078818
 31
0.0
  0
LINE
  5
7A50
  8
1外形線
 10
-41.499855021357227
 20
-2274.592054325949
 30
0.0
 11
-107.9678924528925
 21
-2208.1240168944141
 31
0.0
  0
LINE
  5
7A51
  8
1外形線
 10
-45.035388927289887
 20
-2278.1275882318819
 30
0.0
 11
-111.50342635882519
 21
-2211.6595508003461
 31
0.0
  0
LINE
  5
7A52
  8
1外形線
 10
-111.50342635882519
 20
-2211.6595508003461
 30
0.0
 11
-77.004166007038663
 21
-2177.1602904485599
 31
0.0
  0
LINE
  5
7A53
  8
1外形線
 10
-45.035388927289887
 20
-2278.1275882318819
 30
0.0
 11
-26.352362391426141
 21
-2259.4445616960179
 31
0.0
  0
ARC
  5
7A54
  8
1外形線
 10
-41.648826947711612
 20
-2212.5156295078809
 30
0.0
 40
50.0
 50
89.999999999999616
 51
135.00000000000489
  0
ARC
  5
7A55
  8
1外形線
 10
-19.28129457956182
 20
-2266.5156295078809
 30
0.0
 40
10.0
 50
89.999999999998948
 51
135.000000000006
  0
LINE
  5
7A58
  8
1外形線
 62
     2
 10
60.996963415459049
 20
-2209.5156295078809
 30
0.0
 11
165.6972358764688
 21
-2209.5156295078809
 31
0.0
  0
LINE
  5
7A59
  8
1外形線
 10
150.286234322979
 20
-2186.5156295078809
 30
0.0
 11
150.286234322979
 21
-2254.1275882318819
 31
0.0
  0
LINE
  5
7A5A
  8
1外形線
 10
77.286234322978999
 20
-2188.5156295078818
 30
0.0
 11
77.286234322978999
 21
-2252.1275882318819
 31
0.0
  0
LINE
  5
7A5B
  8
1外形線
 10
103.286234322979
 20
-2162.5156295078818
 30
0.0
 11
126.286234322979
 21
-2162.5156295078818
 31
0.0
  0
ARC
  5
7A5C
  8
1外形線
 10
126.286234322979
 20
-2186.5156295078809
 30
0.0
 40
24.0
 50
0.0
 51
90.000000000000185
  0
ARC
  5
7A5D
  8
1外形線
 10
103.2862343229793
 20
-2188.5156295078809
 30
0.0
 40
26.0
 50
90.000000000000668
 51
180.00000000000091
  0
ARC
  5
7A5E
  8
1外形線
 10
126.286234322979
 20
-2232.5156295078818
 30
0.0
 40
24.0
 50
269.99999999999972
 51
0.0
  0
LINE
  5
7A5F
  8
1外形線
 10
103.286234322979
 20
-2256.5156295078818
 30
0.0
 11
126.286234322979
 21
-2256.5156295078818
 31
0.0
  0
ARC
  5
7A60
  8
1外形線
 10
103.2862343229793
 20
-2230.5156295078818
 30
0.0
 40
26.0
 50
179.99999999999901
 51
269.99999999999932
  0
ARC
  5
7A63
  8
1外形線
 10
126.286234322979
 20
-2254.1275882318819
 30
0.0
 40
24.0
 50
269.99999999999972
 51
0.0
  0
LINE
  5
7A64
  8
1外形線
 10
103.286234322979
 20
-2278.1275882318819
 30
0.0
 11
126.286234322979
 21
-2278.1275882318819
 31
0.0
  0
ARC
  5
7A65
  8
1外形線
 10
103.2862343229793
 20
-2252.1275882318819
 30
0.0
 40
26.0
 50
179.99999999999901
 51
269.99999999999932
  0
LINE
  5
7A66
  8
1外形線
 10
223.73251710365591
 20
-2256.5156295078818
 30
0.0
 11
250.1543066168573
 21
-2256.5156295078818
 31
0.0
  0
LINE
  5
7A67
  8
1外形線
 10
223.73251710365591
 20
-2162.5156295078818
 30
0.0
 11
272.52183898500692
 21
-2162.5156295078818
 31
0.0
  0
LINE
  5
7A68
  8
1外形線
 10
342.37643839612082
 20
-2211.6595508003461
 30
0.0
 11
307.87717804433419
 21
-2177.1602904485599
 31
0.0
  0
LINE
  5
7A69
  8
1外形線
 10
275.9084009645855
 20
-2278.1275882318819
 30
0.0
 11
342.37643839612082
 21
-2211.6595508003461
 31
0.0
  0
LINE
  5
7A6B
  8
1外形線
 62
     2
 10
297.06331406073292
 20
-2153.2672675394092
 30
0.0
 11
245.41698143134309
 21
-2277.9525442201129
 31
0.0
  0
LINE
  5
7A6C
  8
1外形線
 10
275.9084009645855
 20
-2278.1275882318819
 30
0.0
 11
257.22537442872169
 21
-2259.4445616960179
 31
0.0
  0
ARC
  5
7A6D
  8
1外形線
 10
250.15430661685741
 20
-2266.5156295078809
 30
0.0
 40
10.0
 50
44.999999999993918
 51
90.000000000001037
  0
ARC
  5
7A6E
  8
1外形線
 10
272.52183898500721
 20
-2212.5156295078809
 30
0.0
 40
50.0
 50
44.999999999995048
 51
90.000000000000355
  0
LINE
  5
7A6F
  8
1外形線
 10
228.73251710365591
 20
-2256.5156295078818
 30
0.0
 11
228.73251710365591
 21
-2232.5156295078818
 31
0.0
  0
LINE
  5
7A70
  8
1外形線
 10
223.73251710365591
 20
-2256.5156295078818
 30
0.0
 11
223.73251710365591
 21
-2162.5156295078818
 31
0.0
  0
LINE
  5
7A73
  8
1外形線
 10
228.73251710365591
 20
-2186.5156295078809
 30
0.0
 11
228.73251710365591
 21
-2162.5156295078818
 31
0.0
  0
LINE
  5
7A74
  8
1外形線
 10
272.37286705865262
 20
-2274.592054325949
 30
0.0
 11
289.34342980712972
 21
-2257.6214915774722
 31
0.0
  0
LINE
  5
7A75
  8
1外形線
 10
321.87034174171112
 20
-2225.0945796428909
 30
0.0
 11
338.84090449018822
 21
-2208.1240168944141
 31
0.0
  0
LINE
  5
7A76
  8
1外形線
 10
7.1404949336397578
 20
-2345.6725540909888
 30
0.0
 11
7.1404949336397578
 21
-2418.6725540909888
 31
0.0
  0
LINE
  5
7A77
  8
1外形線
 10
7.1404949336397578
 20
-2345.6725540909888
 30
0.0
 11
-85.503426358825664
 21
-2345.6725540909888
 31
0.0
  0
LINE
  5
7A78
  8
1外形線
 10
7.1404949336397578
 20
-2418.6725540909888
 30
0.0
 11
-87.503426358825209
 21
-2418.6725540909888
 31
0.0
  0
LINE
  5
7A79
  8
1外形線
 10
2.1404949336397578
 20
-2345.6725540909888
 30
0.0
 11
2.1404949336397578
 21
-2418.6725540909888
 31
0.0
  0
ARC
  5
7A88
  8
1外形線
 10
-87.503426358825209
 20
-2394.6725540909888
 30
0.0
 40
24.0
 50
179.9999999999998
 51
270.0
  0
LINE
  5
7A89
  8
1外形線
 10
-111.50342635882519
 20
-2371.6725540909888
 30
0.0
 11
-111.50342635882519
 21
-2394.6725540909888
 31
0.0
  0
ARC
  5
7A8A
  8
1外形線
 10
-85.503426358825664
 20
-2371.6725540909902
 30
0.0
 40
26.0
 50
89.999999999998977
 51
179.99999999999929
  0
ARC
  5
7A8C
  8
1外形線
 10
-71.035388927289432
 20
-2371.6725540909902
 30
0.0
 40
26.0
 50
0.0000000000006616
 51
90.000000000000966
  0
ARC
  5
7A8D
  8
1外形線
 10
-69.035388927289901
 20
-2394.6725540909888
 30
0.0
 40
24.0
 50
270.0
 51
0.0000000000001908
  0
LINE
  5
7A8E
  8
1外形線
 10
-45.035388927289887
 20
-2371.6725540909888
 30
0.0
 11
-45.035388927289887
 21
-2394.6725540909888
 31
0.0
  0
ENDSEC
  0
EOF
