  0
SECTION
  2
HEADER
  9
$ACADVER
  1
AC1015
  9
$ACADMAINTVER
 70
    20
  9
$DWGCODEPAGE
  3
ANSI_932
  9
$INSBASE
 10
0.0
 20
0.0
 30
0.0
  9
$EXTMIN
 10
91.96415150097754
 20
-1941.124232631881
 30
0.0
  9
$EXTMAX
 10
1341.027284059571
 20
-1179.456084071758
 30
0.0
  9
$LIMMIN
 10
0.0
 20
0.0
  9
$LIMMAX
 10
420.0
 20
297.0
  9
$ORTHOMODE
 70
     0
  9
$REGENMODE
 70
     1
  9
$FILLMODE
 70
     1
  9
$QTEXTMODE
 70
     0
  9
$MIRRTEXT
 70
     1
  9
$LTSCALE
 40
1.0
  9
$ATTMODE
 70
     1
  9
$TEXTSIZE
 40
2.5
  9
$TRACEWID
 40
1.0
  9
$TEXTSTYLE
  7
KANJI
  9
$CLAYER
  8
2寸法線
  9
$CELTYPE
  6
ByLayer
  9
$CECOLOR
 62
   256
  9
$CELTSCALE
 40
1.0
  9
$DISPSILH
 70
     0
  9
$DIMSCALE
 40
0.0
  9
$DIMASZ
 40
1.8
  9
$DIMEXO
 40
1.0
  9
$DIMDLI
 40
0.0
  9
$DIMRND
 40
0.0
  9
$DIMDLE
 40
0.0
  9
$DIMEXE
 40
1.0
  9
$DIMTP
 40
0.0
  9
$DIMTM
 40
0.0
  9
$DIMTXT
 40
2.5
  9
$DIMCEN
 40
0.0
  9
$DIMTSZ
 40
0.0
  9
$DIMTOL
 70
     0
  9
$DIMLIM
 70
     0
  9
$DIMTIH
 70
     0
  9
$DIMTOH
 70
     0
  9
$DIMSE1
 70
     0
  9
$DIMSE2
 70
     0
  9
$DIMTAD
 70
     1
  9
$DIMZIN
 70
     8
  9
$DIMBLK
  1

  9
$DIMASO
 70
     1
  9
$DIMSHO
 70
     1
  9
$DIMPOST
  1

  9
$DIMAPOST
  1

  9
$DIMALT
 70
     0
  9
$DIMALTD
 70
     2
  9
$DIMALTF
 40
25.4
  9
$DIMLFAC
 40
1.0
  9
$DIMTOFL
 70
     1
  9
$DIMTVP
 40
0.0
  9
$DIMTIX
 70
     0
  9
$DIMSOXD
 70
     0
  9
$DIMSAH
 70
     1
  9
$DIMBLK1
  1
2
  9
$DIMBLK2
  1
2
  9
$DIMSTYLE
  2
M
  9
$DIMCLRD
 70
     0
  9
$DIMCLRE
 70
     0
  9
$DIMCLRT
 70
     0
  9
$DIMTFAC
 40
1.0
  9
$DIMGAP
 40
0.5
  9
$DIMJUST
 70
     0
  9
$DIMSD1
 70
     0
  9
$DIMSD2
 70
     0
  9
$DIMTOLJ
 70
     1
  9
$DIMTZIN
 70
     0
  9
$DIMALTZ
 70
     0
  9
$DIMALTTZ
 70
     0
  9
$DIMUPT
 70
     0
  9
$DIMDEC
 70
     4
  9
$DIMTDEC
 70
     4
  9
$DIMALTU
 70
     2
  9
$DIMALTTD
 70
     2
  9
$DIMTXSTY
  7
STANDARD
  9
$DIMAUNIT
 70
     0
  9
$DIMADEC
 70
     0
  9
$DIMALTRND
 40
0.0
  9
$DIMAZIN
 70
     0
  9
$DIMDSEP
 70
    46
  9
$DIMATFIT
 70
     3
  9
$DIMFRAC
 70
     0
  9
$DIMLDRBLK
  1
2
  9
$DIMLUNIT
 70
     2
  9
$DIMLWD
 70
    -2
  9
$DIMLWE
 70
    -2
  9
$DIMTMOVE
 70
     0
  9
$LUNITS
 70
     2
  9
$LUPREC
 70
     3
  9
$SKETCHINC
 40
1.0
  9
$FILLETRAD
 40
0.0
  9
$AUNITS
 70
     0
  9
$AUPREC
 70
     1
  9
$MENU
  1
.
  9
$ELEVATION
 40
0.0
  9
$PELEVATION
 40
0.0
  9
$THICKNESS
 40
0.0
  9
$LIMCHECK
 70
     0
  9
$CHAMFERA
 40
10.0
  9
$CHAMFERB
 40
10.0
  9
$CHAMFERC
 40
0.0
  9
$CHAMFERD
 40
0.0
  9
$SKPOLY
 70
     0
  9
$TDCREATE
 40
2454393.806994896
  9
$TDUCREATE
 40
2454393.431994896
  9
$TDUPDATE
 40
2458547.669262998
  9
$TDUUPDATE
 40
2458547.294262998
  9
$TDINDWG
 40
0.0642172338
  9
$TDUSRTIMER
 40
0.0642165046
  9
$USRTIMER
 70
     1
  9
$ANGBASE
 50
0.0
  9
$ANGDIR
 70
     0
  9
$PDMODE
 70
     0
  9
$PDSIZE
 40
0.0
  9
$PLINEWID
 40
0.0
  9
$SPLFRAME
 70
     0
  9
$SPLINETYPE
 70
     6
  9
$SPLINESEGS
 70
     8
  9
$HANDSEED
  5
723F
  9
$SURFTAB1
 70
     6
  9
$SURFTAB2
 70
     6
  9
$SURFTYPE
 70
     6
  9
$SURFU
 70
     6
  9
$SURFV
 70
     6
  9
$UCSBASE
  2

  9
$UCSNAME
  2

  9
$UCSORG
 10
0.0
 20
0.0
 30
0.0
  9
$UCSXDIR
 10
1.0
 20
0.0
 30
0.0
  9
$UCSYDIR
 10
0.0
 20
1.0
 30
0.0
  9
$UCSORTHOREF
  2

  9
$UCSORTHOVIEW
 70
     0
  9
$UCSORGTOP
 10
0.0
 20
0.0
 30
0.0
  9
$UCSORGBOTTOM
 10
0.0
 20
0.0
 30
0.0
  9
$UCSORGLEFT
 10
0.0
 20
0.0
 30
0.0
  9
$UCSORGRIGHT
 10
0.0
 20
0.0
 30
0.0
  9
$UCSORGFRONT
 10
0.0
 20
0.0
 30
0.0
  9
$UCSORGBACK
 10
0.0
 20
0.0
 30
0.0
  9
$PUCSBASE
  2

  9
$PUCSNAME
  2

  9
$PUCSORG
 10
0.0
 20
0.0
 30
0.0
  9
$PUCSXDIR
 10
1.0
 20
0.0
 30
0.0
  9
$PUCSYDIR
 10
0.0
 20
1.0
 30
0.0
  9
$PUCSORTHOREF
  2

  9
$PUCSORTHOVIEW
 70
     0
  9
$PUCSORGTOP
 10
0.0
 20
0.0
 30
0.0
  9
$PUCSORGBOTTOM
 10
0.0
 20
0.0
 30
0.0
  9
$PUCSORGLEFT
 10
0.0
 20
0.0
 30
0.0
  9
$PUCSORGRIGHT
 10
0.0
 20
0.0
 30
0.0
  9
$PUCSORGFRONT
 10
0.0
 20
0.0
 30
0.0
  9
$PUCSORGBACK
 10
0.0
 20
0.0
 30
0.0
  9
$USERI1
 70
     0
  9
$USERI2
 70
     0
  9
$USERI3
 70
     0
  9
$USERI4
 70
     0
  9
$USERI5
 70
     0
  9
$USERR1
 40
0.0
  9
$USERR2
 40
0.0
  9
$USERR3
 40
0.0
  9
$USERR4
 40
0.0
  9
$USERR5
 40
0.0
  9
$WORLDVIEW
 70
     1
  9
$SHADEDGE
 70
     3
  9
$SHADEDIF
 70
    70
  9
$TILEMODE
 70
     1
  9
$MAXACTVP
 70
    48
  9
$PINSBASE
 10
0.0
 20
0.0
 30
0.0
  9
$PLIMCHECK
 70
     0
  9
$PEXTMIN
 10
1.000000000000000E+20
 20
1.000000000000000E+20
 30
1.000000000000000E+20
  9
$PEXTMAX
 10
-1.000000000000000E+20
 20
-1.000000000000000E+20
 30
-1.000000000000000E+20
  9
$PLIMMIN
 10
0.0
 20
0.0
  9
$PLIMMAX
 10
420.0
 20
297.0
  9
$UNITMODE
 70
     0
  9
$VISRETAIN
 70
     1
  9
$PLINEGEN
 70
     0
  9
$PSLTSCALE
 70
     1
  9
$TREEDEPTH
 70
  3020
  9
$CMLSTYLE
  2
Standard
  9
$CMLJUST
 70
     0
  9
$CMLSCALE
 40
1.0
  9
$PROXYGRAPHICS
 70
     1
  9
$MEASUREMENT
 70
     0
  9
$CELWEIGHT
370
    -1
  9
$ENDCAPS
280
     0
  9
$JOINSTYLE
280
     0
  9
$LWDISPLAY
290
     0
  9
$INSUNITS
 70
     0
  9
$HYPERLINKBASE
  1

  9
$STYLESHEET
  1

  9
$XEDIT
290
     1
  9
$CEPSNTYPE
380
     0
  9
$PSTYLEMODE
290
     1
  9
$FINGERPRINTGUID
  2
{A346B4BE-0C60-42F3-B66B-6174072AF7C0}
  9
$VERSIONGUID
  2
{9F6BD2A2-3B11-4262-AAFE-E8B38BBE6FC5}
  9
$EXTNAMES
290
     1
  9
$PSVPSCALE
 40
0.0
  9
$OLESTARTUP
290
     0
  0
ENDSEC
  0
SECTION
  2
CLASSES
  0
CLASS
  1
ACDBDICTIONARYWDFLT
  2
AcDbDictionaryWithDefault
  3
ObjectDBX Classes
 90
        0
280
     0
281
     0
  0
CLASS
  1
MATERIAL
  2
AcDbMaterial
  3
ObjectDBX Classes
 90
     1153
280
     0
281
     0
  0
CLASS
  1
VISUALSTYLE
  2
AcDbVisualStyle
  3
ObjectDBX Classes
 90
     4095
280
     0
281
     0
  0
CLASS
  1
SCALE
  2
AcDbScale
  3
ObjectDBX Classes
 90
     1153
280
     0
281
     0
  0
CLASS
  1
TABLESTYLE
  2
AcDbTableStyle
  3
ObjectDBX Classes
 90
     4095
280
     0
281
     0
  0
CLASS
  1
MLEADERSTYLE
  2
AcDbMLeaderStyle
  3
ACDB_MLEADERSTYLE_CLASS
 90
     4095
280
     0
281
     0
  0
CLASS
  1
DICTIONARYVAR
  2
AcDbDictionaryVar
  3
ObjectDBX Classes
 90
        0
280
     0
281
     0
  0
CLASS
  1
CELLSTYLEMAP
  2
AcDbCellStyleMap
  3
ObjectDBX Classes
 90
     1152
280
     0
281
     0
  0
CLASS
  1
SORTENTSTABLE
  2
AcDbSortentsTable
  3
ObjectDBX Classes
 90
        0
280
     0
281
     0
  0
CLASS
  1
ACDBPLACEHOLDER
  2
AcDbPlaceHolder
  3
ObjectDBX Classes
 90
        0
280
     0
281
     0
  0
CLASS
  1
LAYOUT
  2
AcDbLayout
  3
ObjectDBX Classes
 90
        0
280
     0
281
     0
  0
ENDSEC
  0
SECTION
  2
TABLES
  0
TABLE
  2
VPORT
  5
660A
330
0
100
AcDbSymbolTable
 70
     1
  0
VPORT
  5
667E
330
660A
100
AcDbSymbolTableRecord
100
AcDbViewportTableRecord
  2
*ACTIVE
 70
     0
 10
0.0
 20
0.0
 11
1.0
 21
1.0
 12
694.4592268808066
 22
-1733.085648248818
 13
0.0
 23
0.0
 14
10.0
 24
10.0
 15
10.0
 25
10.0
 16
0.0
 26
0.0
 36
1.0
 17
0.0
 27
0.0
 37
0.0
 40
401.1759637067491
 41
2.115606936416185
 42
50.0
 43
0.0
 44
0.0
 50
0.0
 51
0.0
 71
     0
 72
   100
 73
     1
 74
     1
 75
     0
 76
     0
 77
     0
 78
     0
281
     0
 65
     1
110
0.0
120
0.0
130
0.0
111
1.0
121
0.0
131
0.0
112
0.0
122
1.0
132
0.0
 79
     0
146
0.0
  0
ENDTAB
  0
TABLE
  2
LTYPE
  5
6607
330
0
100
AcDbSymbolTable
 70
     4
  0
LTYPE
  5
6667
330
6607
100
AcDbSymbolTableRecord
100
AcDbLinetypeTableRecord
  2
ByBlock
 70
     0
  3

 72
    65
 73
     0
 40
0.0
  0
LTYPE
  5
6668
330
6607
100
AcDbSymbolTableRecord
100
AcDbLinetypeTableRecord
  2
ByLayer
 70
     0
  3

 72
    65
 73
     0
 40
0.0
  0
LTYPE
  5
6669
330
6607
100
AcDbSymbolTableRecord
100
AcDbLinetypeTableRecord
  2
CONTINUOUS
 70
     0
  3
Solid line
 72
    65
 73
     0
 40
0.0
  0
LTYPE
  5
680E
330
6607
100
AcDbSymbolTableRecord
100
AcDbLinetypeTableRecord
  2
CENTER
 70
     0
  3
____ _ ____ _ ____ _ ____ _ ____ _ ____ _ ____
 72
    65
 73
     4
 40
2.0
 49
1.25
 74
     0
 49
-0.25
 74
     0
 49
0.25
 74
     0
 49
-0.25
 74
     0
  0
LTYPE
  5
680F
330
6607
100
AcDbSymbolTableRecord
100
AcDbLinetypeTableRecord
  2
PHANTOM
 70
     0
  3
Phantom ______  __  __  ______  __  __  ______
 72
    65
 73
     6
 40
63.5
 49
31.75
 74
     0
 49
-6.349999999999999
 74
     0
 49
6.349999999999999
 74
     0
 49
-6.349999999999999
 74
     0
 49
6.349999999999999
 74
     0
 49
-6.349999999999999
 74
     0
  0
ENDTAB
  0
TABLE
  2
LAYER
  5
6604
102
{ACAD_XDICTIONARY
360
681E
102
}
330
0
100
AcDbSymbolTable
 70
     6
  0
LAYER
  5
6661
102
{ACAD_XDICTIONARY
360
671D
102
}
330
6604
100
AcDbSymbolTableRecord
100
AcDbLayerTableRecord
  2
0
 70
     0
 62
     7
  6
CONTINUOUS
370
    -3
390
6611
  0
LAYER
  5
667C
102
{ACAD_XDICTIONARY
360
671F
102
}
330
6604
100
AcDbSymbolTableRecord
100
AcDbLayerTableRecord
  2
2寸法線
 70
     0
 62
     2
  6
CONTINUOUS
370
    -3
390
6611
  0
LAYER
  5
667F
102
{ACAD_XDICTIONARY
360
6721
102
}
330
6604
100
AcDbSymbolTableRecord
100
AcDbLayerTableRecord
  2
1外形線
 70
     0
 62
     3
  6
CONTINUOUS
370
    -3
390
6611
  0
LAYER
  5
6680
330
6604
100
AcDbSymbolTableRecord
100
AcDbLayerTableRecord
  2
DEFPOINTS
 70
     0
 62
     7
  6
CONTINUOUS
290
     0
370
    -3
390
6611
  0
LAYER
  5
6810
102
{ACAD_XDICTIONARY
360
6811
102
}
330
6604
100
AcDbSymbolTableRecord
100
AcDbLayerTableRecord
  2
本体
 70
     0
 62
     3
  6
CONTINUOUS
370
    -3
390
6611
  0
LAYER
  5
6812
102
{ACAD_XDICTIONARY
360
6813
102
}
330
6604
100
AcDbSymbolTableRecord
100
AcDbLayerTableRecord
  2
6図枠
 70
     0
 62
     7
  6
CONTINUOUS
370
    -3
390
6611
  0
ENDTAB
  0
TABLE
  2
STYLE
  5
6605
330
0
100
AcDbSymbolTable
 70
     4
  0
STYLE
  5
6662
330
6605
100
AcDbSymbolTableRecord
100
AcDbTextStyleTableRecord
  2
STANDARD
 70
     0
 40
0.0
 41
1.0
 50
0.0
 71
     0
 42
2.5
  3
txt
  4

  0
STYLE
  5
6666
330
6605
100
AcDbSymbolTableRecord
100
AcDbTextStyleTableRecord
  2
Annotative
 70
     0
 40
0.0
 41
1.0
 50
0.0
 71
     0
 42
0.2
  3
txt
  4

1001
AcadAnnotative
1000
AnnotativeData
1002
{
1070
     1
1070
     1
1002
}
  0
STYLE
  5
667D
330
6605
100
AcDbSymbolTableRecord
100
AcDbTextStyleTableRecord
  2
KANJI
 70
     0
 40
0.0
 41
1.0
 50
0.0
 71
     0
 42
2.5
  3
simplex.shx
  4
bigfont.shx
  0
STYLE
  5
6814
330
6605
100
AcDbSymbolTableRecord
100
AcDbTextStyleTableRecord
  2
ｺﾞｼｯｸ
 70
     0
 40
0.0
 41
1.0
 50
0.0
 71
     0
 42
2.5
  3

  4

1001
ACAD
1000
MS PGothic
1071
    32818
  0
ENDTAB
  0
TABLE
  2
VIEW
  5
6608
330
0
100
AcDbSymbolTable
 70
     0
  0
ENDTAB
  0
TABLE
  2
UCS
  5
6609
330
0
100
AcDbSymbolTable
 70
     0
  0
ENDTAB
  0
TABLE
  2
APPID
  5
660B
330
0
100
AcDbSymbolTable
 70
     9
  0
APPID
  5
6663
330
660B
100
AcDbSymbolTableRecord
100
AcDbRegAppTableRecord
  2
ACAD
 70
     0
  0
APPID
  5
666A
330
660B
100
AcDbSymbolTableRecord
100
AcDbRegAppTableRecord
  2
AcadAnnotative
 70
     0
  0
APPID
  5
6818
330
660B
100
AcDbSymbolTableRecord
100
AcDbRegAppTableRecord
  2
ACAD_PSEXT
 70
     0
  0
APPID
  5
6819
330
660B
100
AcDbSymbolTableRecord
100
AcDbRegAppTableRecord
  2
ACAD_NAV_VCDISPLAY
 70
     0
  0
APPID
  5
681A
330
660B
100
AcDbSymbolTableRecord
100
AcDbRegAppTableRecord
  2
ACAD_DSTYLE_DIMJAG
 70
     0
  0
APPID
  5
681B
330
660B
100
AcDbSymbolTableRecord
100
AcDbRegAppTableRecord
  2
ACAD_DSTYLE_DIMTALN
 70
     0
  0
APPID
  5
681C
330
660B
100
AcDbSymbolTableRecord
100
AcDbRegAppTableRecord
  2
ACAD_DSTYLE_DIMBREAK
 70
     0
  0
APPID
  5
714D
330
660B
100
AcDbSymbolTableRecord
100
AcDbRegAppTableRecord
  2
ACAD_EXEMPT_FROM_CAD_STANDARDS
 70
     0
  0
APPID
  5
7238
330
660B
100
AcDbSymbolTableRecord
100
AcDbRegAppTableRecord
  2
ACAD_MLEADERVER
 70
     0
  0
ENDTAB
  0
TABLE
  2
DIMSTYLE
  5
660C
330
0
100
AcDbSymbolTable
 70
     7
100
AcDbDimStyleTable
 71
     1
340
6681
  0
DIMSTYLE
105
6664
330
660C
100
AcDbSymbolTableRecord
100
AcDbDimStyleTableRecord
  2
STANDARD
 70
     0
 73
     0
 74
     0
172
     1
271
     3
272
     3
279
     2
284
     8
285
     8
286
     8
340
667D
  0
DIMSTYLE
105
6665
330
660C
100
AcDbSymbolTableRecord
100
AcDbDimStyleTableRecord
  2
Annotative
 70
     0
340
6662
1001
AcadAnnotative
1000
AnnotativeData
1002
{
1070
     1
1070
     1
1002
}
  0
DIMSTYLE
105
6681
330
660C
100
AcDbSymbolTableRecord
100
AcDbDimStyleTableRecord
  2
M
 70
     0
 40
0.0
 41
2.0
 42
1.0
 43
0.0
 44
1.0
 73
     0
 74
     0
 77
     1
 78
     8
140
2.5
141
0.0
147
0.5
172
     1
173
     1
271
     3
272
     3
279
     2
284
     8
285
     8
286
     8
340
667D
  0
DIMSTYLE
105
6815
102
{ACAD_REACTORS
330
69CB
330
69CC
330
6AA7
330
6AA8
330
6B03
330
6B04
330
6B05
330
6BD5
102
}
330
660C
100
AcDbSymbolTableRecord
100
AcDbDimStyleTableRecord
  2
因幡
 70
     0
 41
2.0
 42
0.4
 43
8.0
 44
1.0
 73
     0
 74
     0
 77
     1
 78
     8
140
3.5
141
2.0
143
0.03937007874016
147
0.8
171
     3
172
     1
176
     2
177
     2
178
     1
271
     2
272
     2
274
     3
283
     0
284
     8
340
6814
341
6689
342
6689
1001
ACAD_DSTYLE_DIMJAG
1070
   388
1040
1.5
1001
ACAD_DSTYLE_DIMTALN
1070
   392
1070
     0
  0
DIMSTYLE
105
6816
330
660C
100
AcDbSymbolTableRecord
100
AcDbDimStyleTableRecord
  2
M図面用
 70
     0
 40
0.0
 41
2.0
 42
1.0
 43
0.0
 44
1.0
 73
     0
 75
     1
 76
     1
 77
     1
 78
     8
140
3.5
141
0.0
147
0.5
173
     1
176
     2
178
     1
284
     8
340
6814
341
6689
343
6689
344
6689
1001
ACAD_DSTYLE_DIMBREAK
1070
   391
1040
3.75
1001
ACAD_DSTYLE_DIMJAG
1070
   388
1040
1.5
1001
ACAD_DSTYLE_DIMTALN
1070
   392
1070
     0
  0
DIMSTYLE
105
6817
330
660C
100
AcDbSymbolTableRecord
100
AcDbDimStyleTableRecord
  2
AM_ISO$7
 70
     0
  4
"
 41
3.0
 42
1.0
 43
10.0
 44
1.0
 47
0.1
 48
0.1
 73
     0
 74
     0
 77
     1
 78
     8
 79
     2
140
5.0
141
0.0
143
0.0393701
146
0.71
147
1.5
172
     1
176
     2
177
     2
178
     2
271
     2
272
     2
283
     0
284
     8
340
667D
341
6689
342
6689
371
    -1
372
    -1
  0
ENDTAB
  0
TABLE
  2
BLOCK_RECORD
  5
6603
330
0
100
AcDbSymbolTable
 70
    24
  0
BLOCK_RECORD
  5
6678
102
{ACAD_XDICTIONARY
360
7171
102
}
330
6603
100
AcDbSymbolTableRecord
100
AcDbBlockTableRecord
  2
*Model_Space
340
667B
  0
BLOCK_RECORD
  5
6674
330
6603
100
AcDbSymbolTableRecord
100
AcDbBlockTableRecord
  2
*Paper_Space
340
6677
  0
BLOCK_RECORD
  5
6685
330
6603
100
AcDbSymbolTableRecord
100
AcDbBlockTableRecord
  2
$MODEL_SPACE
340
0
  0
BLOCK_RECORD
  5
6687
330
6603
100
AcDbSymbolTableRecord
100
AcDbBlockTableRecord
  2
$PAPER_SPACE
340
0
  0
BLOCK_RECORD
  5
6689
330
6603
100
AcDbSymbolTableRecord
100
AcDbBlockTableRecord
  2
2
340
0
102
{BLKREFS
331
67AD
331
67AE
331
67B9
331
67BA
331
67C5
331
67C6
331
67D1
331
67D2
331
67DF
331
67E0
331
67ED
331
67EE
331
67FB
331
67FC
331
6805
331
6806
331
7006
331
7007
331
700F
331
7010
331
701A
331
701B
331
7025
331
7026
331
7030
331
7031
331
7039
331
703A
331
7042
331
7043
331
7049
331
704A
102
}
  0
BLOCK_RECORD
  5
668B
330
6603
100
AcDbSymbolTableRecord
100
AcDbBlockTableRecord
  2
*U3
340
0
102
{BLKREFS
331
131
102
}
  0
BLOCK_RECORD
  5
673A
330
6603
100
AcDbSymbolTableRecord
100
AcDbBlockTableRecord
  2
*U4
340
0
102
{BLKREFS
331
131
102
}
  0
BLOCK_RECORD
  5
67A8
330
6603
100
AcDbSymbolTableRecord
100
AcDbBlockTableRecord
  2
*D6
340
0
  0
BLOCK_RECORD
  5
67B4
330
6603
100
AcDbSymbolTableRecord
100
AcDbBlockTableRecord
  2
*D7
340
0
  0
BLOCK_RECORD
  5
67C0
330
6603
100
AcDbSymbolTableRecord
100
AcDbBlockTableRecord
  2
*D8
340
0
  0
BLOCK_RECORD
  5
67CC
330
6603
100
AcDbSymbolTableRecord
100
AcDbBlockTableRecord
  2
*D9
340
0
  0
BLOCK_RECORD
  5
67D8
330
6603
100
AcDbSymbolTableRecord
100
AcDbBlockTableRecord
  2
*D10
340
0
  0
BLOCK_RECORD
  5
67E6
330
6603
100
AcDbSymbolTableRecord
100
AcDbBlockTableRecord
  2
*D11
340
0
  0
BLOCK_RECORD
  5
67F4
330
6603
100
AcDbSymbolTableRecord
100
AcDbBlockTableRecord
  2
*D12
340
0
  0
BLOCK_RECORD
  5
6802
330
6603
100
AcDbSymbolTableRecord
100
AcDbBlockTableRecord
  2
*D13
340
0
  0
BLOCK_RECORD
  5
6F9D
330
6603
100
AcDbSymbolTableRecord
100
AcDbBlockTableRecord
  2
*D15
340
0
  0
BLOCK_RECORD
  5
6FA9
330
6603
100
AcDbSymbolTableRecord
100
AcDbBlockTableRecord
  2
*D16
340
0
  0
BLOCK_RECORD
  5
6FB5
330
6603
100
AcDbSymbolTableRecord
100
AcDbBlockTableRecord
  2
*D17
340
0
  0
BLOCK_RECORD
  5
6FC3
330
6603
100
AcDbSymbolTableRecord
100
AcDbBlockTableRecord
  2
*D18
340
0
  0
BLOCK_RECORD
  5
6FD1
330
6603
100
AcDbSymbolTableRecord
100
AcDbBlockTableRecord
  2
*D19
340
0
  0
BLOCK_RECORD
  5
6FDF
330
6603
100
AcDbSymbolTableRecord
100
AcDbBlockTableRecord
  2
*D20
340
0
  0
BLOCK_RECORD
  5
6FEB
330
6603
100
AcDbSymbolTableRecord
100
AcDbBlockTableRecord
  2
*D21
340
0
  0
BLOCK_RECORD
  5
6FF7
330
6603
100
AcDbSymbolTableRecord
100
AcDbBlockTableRecord
  2
*D22
340
0
  0
ENDTAB
  0
ENDSEC
  0
SECTION
  2
BLOCKS
  0
BLOCK
  5
6679
330
6678
100
AcDbEntity
  8
0
100
AcDbBlockBegin
  2
*Model_Space
 70
     0
 10
0.0
 20
0.0
 30
0.0
  3
*Model_Space
  1

  0
ENDBLK
  5
667A
330
6678
100
AcDbEntity
  8
0
100
AcDbBlockEnd
  0
BLOCK
  5
6675
330
6674
100
AcDbEntity
 67
     1
  8
0
100
AcDbBlockBegin
  2
*Paper_Space
 70
     0
 10
0.0
 20
0.0
 30
0.0
  3
*Paper_Space
  1

  0
ENDBLK
  5
6676
330
6674
100
AcDbEntity
 67
     1
  8
0
100
AcDbBlockEnd
  0
BLOCK
  5
6686
330
6685
100
AcDbEntity
  8
0
100
AcDbBlockBegin
  2
$MODEL_SPACE
 70
     0
 10
0.0
 20
0.0
 30
0.0
  3
$MODEL_SPACE
  1

  0
ENDBLK
  5
65DB
330
6685
100
AcDbEntity
  8
0
100
AcDbBlockEnd
  0
BLOCK
  5
6688
330
6687
100
AcDbEntity
  8
0
100
AcDbBlockBegin
  2
$PAPER_SPACE
 70
     0
 10
0.0
 20
0.0
 30
0.0
  3
$PAPER_SPACE
  1

  0
ENDBLK
  5
65D7
330
6687
100
AcDbEntity
  8
0
100
AcDbBlockEnd
  0
BLOCK
  5
668A
330
6689
100
AcDbEntity
  8
0
100
AcDbBlockBegin
  2
2
 70
     0
 10
0.0
 20
0.0
 30
0.0
  3
2
  1

  0
INSERT
  5
131
330
6689
100
AcDbEntity
  8
0
  6
Continuous
 62
     0
100
AcDbBlockReference
  2
*U3
 10
0.0
 20
0.0
 30
0.0
1001
ACAD
1002
{
1000
R14_HATCH_DATA
1000
131
1011
1.0
1021
0.0
1031
0.0
1011
0.0
1021
1.0
1031
0.0
1011
0.0
1021
0.0
1031
1.0
1040
0.0
1010
0.0
1020
0.0
1030
1.0
1000
SOLID
1070
     1
1070
     0
1071
        1
1071
        1
1071
        3
1070
     1
1040
-0.9999999999983517
1040
0.2679491924306774
1040
0.0
1040
0.0
1070
     1
1040
0.0
1040
0.0
1040
-0.9999999999983517
1040
-0.2679491924306765
1070
     1
1040
-0.9999999999983524
1040
-0.267949192430676
1040
-0.9999999999983524
1040
0.2679491924306774
1071
        0
1070
     0
1070
     1
1071
        1
1040
2.995745117231336
1040
-4.124946096263201
1040
0.0
1002
}
  0
ENDBLK
  5
132
330
6689
100
AcDbEntity
  8
0
100
AcDbBlockEnd
  0
BLOCK
  5
668C
330
668B
100
AcDbEntity
  8
0
100
AcDbBlockBegin
  2
*U3
 70
     1
 10
0.0
 20
0.0
 30
0.0
  3
*U3
  1

  0
SOLID
  5
6012
330
668B
100
AcDbEntity
  8
0
  6
Continuous
 62
     0
100
AcDbTrace
 10
0.666666666665568
 20
0.0000000000000004
 30
0.0
 11
0.9999999999983517
 21
0.2679491924306774
 31
0.0
 12
0.0
 22
0.0
 32
0.0
 13
0.0
 23
0.0
 33
0.0
210
0.0
220
0.0
230
-1.0
  0
SOLID
  5
6013
330
668B
100
AcDbEntity
  8
0
  6
Continuous
 62
     0
100
AcDbTrace
 10
0.666666666665568
 20
0.0000000000000004
 30
0.0
 11
0.0
 21
0.0
 31
0.0
 12
0.9999999999983524
 22
-0.267949192430676
 32
0.0
 13
0.9999999999983524
 23
-0.267949192430676
 33
0.0
210
0.0
220
0.0
230
-1.0
  0
SOLID
  5
6014
330
668B
100
AcDbEntity
  8
0
  6
Continuous
 62
     0
100
AcDbTrace
 10
0.666666666665568
 20
0.0000000000000004
 30
0.0
 11
0.9999999999983524
 21
-0.267949192430676
 31
0.0
 12
0.9999999999983517
 22
0.2679491924306774
 32
0.0
 13
0.9999999999983517
 23
0.2679491924306774
 33
0.0
210
0.0
220
0.0
230
-1.0
  0
ENDBLK
  5
6016
330
668B
100
AcDbEntity
  8
0
100
AcDbBlockEnd
  0
BLOCK
  5
673B
330
673A
100
AcDbEntity
  8
0
100
AcDbBlockBegin
  2
*U4
 70
     1
 10
0.0
 20
0.0
 30
0.0
  3
*U4
  1

  0
SOLID
  5
673C
330
673A
100
AcDbEntity
  8
0
  6
Continuous
 62
     0
100
AcDbTrace
 10
0.666666666665568
 20
0.0000000000000004
 30
0.0
 11
0.9999999999983517
 21
0.2679491924306774
 31
0.0
 12
0.0
 22
0.0
 32
0.0
 13
0.0
 23
0.0
 33
0.0
210
0.0
220
0.0
230
-1.0
  0
SOLID
  5
673D
330
673A
100
AcDbEntity
  8
0
  6
Continuous
 62
     0
100
AcDbTrace
 10
0.666666666665568
 20
0.0000000000000004
 30
0.0
 11
0.0
 21
0.0
 31
0.0
 12
0.9999999999983524
 22
-0.267949192430676
 32
0.0
 13
0.9999999999983524
 23
-0.267949192430676
 33
0.0
210
0.0
220
0.0
230
-1.0
  0
SOLID
  5
673E
330
673A
100
AcDbEntity
  8
0
  6
Continuous
 62
     0
100
AcDbTrace
 10
0.666666666665568
 20
0.0000000000000004
 30
0.0
 11
0.9999999999983524
 21
-0.267949192430676
 31
0.0
 12
0.9999999999983517
 22
0.2679491924306774
 32
0.0
 13
0.9999999999983517
 23
0.2679491924306774
 33
0.0
210
0.0
220
0.0
230
-1.0
  0
ENDBLK
  5
673F
330
673A
100
AcDbEntity
  8
0
100
AcDbBlockEnd
  0
BLOCK
  5
67A9
330
67A8
100
AcDbEntity
  8
0
100
AcDbBlockBegin
  2
*D6
 70
     1
 10
0.0
 20
0.0
 30
0.0
  3
*D6
  1

  0
LINE
  5
67AA
330
67A8
100
AcDbEntity
  8
本体
 62
     2
370
    -2
100
AcDbLine
 10
75159.60831582584
 20
-43266.85462999119
 30
0.0
 11
75163.16841082714
 21
-43266.85462999119
 31
0.0
  0
LINE
  5
67AB
330
67A8
100
AcDbEntity
  8
本体
 62
     2
370
    -2
100
AcDbLine
 10
75157.26492434929
 20
-43198.85462999119
 30
0.0
 11
75163.16841082714
 21
-43198.85462999119
 31
0.0
  0
LINE
  5
67AC
330
67A8
100
AcDbEntity
  8
本体
 62
     2
370
    -2
100
AcDbLine
 10
75162.16841082714
 20
-43264.85462999118
 30
0.0
 11
75162.16841082714
 21
-43200.85462999119
 31
0.0
  0
INSERT
  5
67AD
330
67A8
100
AcDbEntity
  8
本体
 62
     2
370
    -2
100
AcDbBlockReference
  2
2
 10
75162.16841082714
 20
-43266.85462999119
 30
0.0
 41
2.0
 42
2.0
 43
2.0
 50
270.0
  0
INSERT
  5
67AE
330
67A8
100
AcDbEntity
  8
本体
 62
     2
370
    -2
100
AcDbBlockReference
  2
2
 10
75162.16841082714
 20
-43198.85462999119
 30
0.0
 41
2.0
 42
2.0
 43
2.0
 50
90.0
  0
MTEXT
  5
67AF
330
67A8
100
AcDbEntity
  8
本体
 62
     1
100
AcDbMText
 10
75159.61841082716
 20
-43232.85462999118
 30
0.0
 40
3.5
 41
0.0
 71
     5
 72
     1
  1
68
  7
ｺﾞｼｯｸ
 11
0.0000000000000001
 21
1.0
 31
0.0
 73
     1
 44
1.0
1001
ACAD
1000
MTEXTBEGIN
1070
    73
1070
     1
1070
    44
1040
1.0
1070
    74
1070
     0
1000
MTEXTEND
  0
POINT
  5
67B0
330
67A8
100
AcDbEntity
  8
DEFPOINTS
 62
     0
100
AcDbPoint
 10
75159.20831582585
 20
-43266.85462999119
 30
0.0
  0
POINT
  5
67B1
330
67A8
100
AcDbEntity
  8
DEFPOINTS
 62
     0
100
AcDbPoint
 10
75156.86492434929
 20
-43198.85462999119
 30
0.0
  0
POINT
  5
67B2
330
67A8
100
AcDbEntity
  8
DEFPOINTS
 62
     0
100
AcDbPoint
 10
75162.16841082714
 20
-43198.85462999119
 30
0.0
  0
ENDBLK
  5
67B3
330
67A8
100
AcDbEntity
  8
0
100
AcDbBlockEnd
  0
BLOCK
  5
67B5
330
67B4
100
AcDbEntity
  8
0
100
AcDbBlockBegin
  2
*D7
 70
     1
 10
0.0
 20
0.0
 30
0.0
  3
*D7
  1

  0
LINE
  5
67B6
330
67B4
100
AcDbEntity
  8
本体
 62
     2
370
    -2
100
AcDbLine
 10
75129.97681868239
 20
-43224.15463010299
 30
0.0
 11
75131.36222298858
 21
-43218.98423084327
 31
0.0
  0
LINE
  5
67B7
330
67B4
100
AcDbEntity
  8
本体
 62
     2
370
    -2
100
AcDbLine
 10
75217.97681820558
 20
-43224.15463010299
 30
0.0
 11
75219.36222251177
 21
-43218.98423084327
 31
0.0
  0
LINE
  5
67B8
330
67B4
100
AcDbEntity
  8
本体
 62
     2
370
    -2
100
AcDbLine
 10
75133.09427379616
 20
-43219.98423084328
 30
0.0
 11
75217.09427331935
 21
-43219.98423084328
 31
0.0
  0
INSERT
  5
67B9
330
67B4
100
AcDbEntity
  8
本体
 62
     2
370
    -2
100
AcDbBlockReference
  2
2
 10
75131.09427379616
 20
-43219.98423084328
 30
0.0
 41
2.0
 42
2.0
 43
2.0
 50
180.0
  0
INSERT
  5
67BA
330
67B4
100
AcDbEntity
  8
本体
 62
     2
370
    -2
100
AcDbBlockReference
  2
2
 10
75219.09427331935
 20
-43219.98423084328
 30
0.0
 41
2.0
 42
2.0
 43
2.0
  0
MTEXT
  5
67BB
330
67B4
100
AcDbEntity
  8
本体
 62
     1
100
AcDbMText
 10
75173.86963876702
 20
-43217.43423084328
 30
0.0
 40
3.5
 41
0.0
 71
     5
 72
     1
  1
88
  7
ｺﾞｼｯｸ
 73
     1
 44
1.0
1001
ACAD
1000
MTEXTBEGIN
1070
    73
1070
     1
1070
    44
1040
1.0
1070
    74
1070
     0
1000
MTEXTEND
  0
POINT
  5
67BC
330
67B4
100
AcDbEntity
  8
DEFPOINTS
 62
     0
100
AcDbPoint
 10
75129.86963900543
 20
-43224.554630103
 30
0.0
  0
POINT
  5
67BD
330
67B4
100
AcDbEntity
  8
DEFPOINTS
 62
     0
100
AcDbPoint
 10
75217.86963852862
 20
-43224.554630103
 30
0.0
  0
POINT
  5
67BE
330
67B4
100
AcDbEntity
  8
DEFPOINTS
 62
     0
100
AcDbPoint
 10
75219.09427331935
 20
-43219.98423084328
 30
0.0
  0
ENDBLK
  5
67BF
330
67B4
100
AcDbEntity
  8
0
100
AcDbBlockEnd
  0
BLOCK
  5
67C1
330
67C0
100
AcDbEntity
  8
0
100
AcDbBlockBegin
  2
*D8
 70
     1
 10
0.0
 20
0.0
 30
0.0
  3
*D8
  1

  0
LINE
  5
67C2
330
67C0
100
AcDbEntity
  8
本体
 62
     2
370
    -2
100
AcDbLine
 10
75029.27447533549
 20
-43031.73490602706
 30
0.0
 11
75019.23817852478
 21
-43034.42412365248
 31
0.0
  0
LINE
  5
67C3
330
67C0
100
AcDbEntity
  8
本体
 62
     2
370
    -2
100
AcDbLine
 10
75029.27447533549
 20
-43119.73490182485
 30
0.0
 11
75019.23817852478
 21
-43122.42411945028
 31
0.0
  0
LINE
  5
67C4
330
67C0
100
AcDbEntity
  8
本体
 62
     2
370
    -2
100
AcDbLine
 10
75020.23817852478
 20
-43036.15617446005
 30
0.0
 11
75020.23817852478
 21
-43120.15617025784
 31
0.0
  0
INSERT
  5
67C5
330
67C0
100
AcDbEntity
  8
本体
 62
     2
370
    -2
100
AcDbBlockReference
  2
2
 10
75020.23817852478
 20
-43034.15617446004
 30
0.0
 41
2.0
 42
2.0
 43
2.0
 50
90.0
  0
INSERT
  5
67C6
330
67C0
100
AcDbEntity
  8
本体
 62
     2
370
    -2
100
AcDbBlockReference
  2
2
 10
75020.23817852478
 20
-43122.15617025785
 30
0.0
 41
2.0
 42
2.0
 43
2.0
 50
270.0
  0
MTEXT
  5
67C7
330
67C0
100
AcDbEntity
  8
本体
 62
     1
100
AcDbMText
 10
75017.6881785248
 20
-43078.17412239592
 30
0.0
 40
3.5
 41
0.0
 71
     5
 72
     1
  1
88
  7
ｺﾞｼｯｸ
 11
0.0000000000000001
 21
1.0
 31
0.0
 73
     1
 44
1.0
1001
ACAD
1000
MTEXTBEGIN
1070
    73
1070
     1
1070
    44
1040
1.0
1070
    74
1070
     0
1000
MTEXTEND
  0
POINT
  5
67C8
330
67C0
100
AcDbEntity
  8
DEFPOINTS
 62
     0
100
AcDbPoint
 10
75029.67447533548
 20
-43031.62772635008
 30
0.0
  0
POINT
  5
67C9
330
67C0
100
AcDbEntity
  8
DEFPOINTS
 62
     0
100
AcDbPoint
 10
75029.67447533548
 20
-43119.62772214788
 30
0.0
  0
POINT
  5
67CA
330
67C0
100
AcDbEntity
  8
DEFPOINTS
 62
     0
100
AcDbPoint
 10
75020.23817852478
 20
-43122.15617025785
 30
0.0
  0
ENDBLK
  5
67CB
330
67C0
100
AcDbEntity
  8
0
100
AcDbBlockEnd
  0
BLOCK
  5
67CD
330
67CC
100
AcDbEntity
  8
0
100
AcDbBlockBegin
  2
*D9
 70
     1
 10
0.0
 20
0.0
 30
0.0
  3
*D9
  1

  0
LINE
  5
67CE
330
67CC
100
AcDbEntity
  8
本体
 62
     2
370
    -2
100
AcDbLine
 10
74987.37447361738
 20
-43076.02772238633
 30
0.0
 11
74987.37447361738
 21
-43087.72712058527
 31
0.0
  0
LINE
  5
67CF
330
67CC
100
AcDbEntity
  8
本体
 62
     2
370
    -2
100
AcDbLine
 10
75055.37447545028
 20
-43076.02772238633
 30
0.0
 11
75055.37447545028
 21
-43087.72712058527
 31
0.0
  0
LINE
  5
67D0
330
67CC
100
AcDbEntity
  8
本体
 62
     2
370
    -2
100
AcDbLine
 10
74989.37447361738
 20
-43086.72712058527
 30
0.0
 11
75053.37447545028
 21
-43086.72712058527
 31
0.0
  0
INSERT
  5
67D1
330
67CC
100
AcDbEntity
  8
本体
 62
     2
370
    -2
100
AcDbBlockReference
  2
2
 10
74987.37447361738
 20
-43086.72712058527
 30
0.0
 41
2.0
 42
2.0
 43
2.0
 50
180.0
  0
INSERT
  5
67D2
330
67CC
100
AcDbEntity
  8
本体
 62
     2
370
    -2
100
AcDbBlockReference
  2
2
 10
75055.37447545028
 20
-43086.72712058527
 30
0.0
 41
2.0
 42
2.0
 43
2.0
  0
MTEXT
  5
67D3
330
67CC
100
AcDbEntity
  8
本体
 62
     1
100
AcDbMText
 10
75010.43172324314
 20
-43084.17712058527
 30
0.0
 40
3.5
 41
0.0
 71
     5
 72
     1
  1
68
  7
ｺﾞｼｯｸ
 73
     1
 44
1.0
1001
ACAD
1000
MTEXTBEGIN
1070
    73
1070
     1
1070
    44
1040
1.0
1070
    74
1070
     0
1000
MTEXTEND
  0
POINT
  5
67D4
330
67CC
100
AcDbEntity
  8
DEFPOINTS
 62
     0
100
AcDbPoint
 10
74987.37447361738
 20
-43075.62772238632
 30
0.0
  0
POINT
  5
67D5
330
67CC
100
AcDbEntity
  8
DEFPOINTS
 62
     0
100
AcDbPoint
 10
75055.37447545028
 20
-43075.62772238632
 30
0.0
  0
POINT
  5
67D6
330
67CC
100
AcDbEntity
  8
DEFPOINTS
 62
     0
100
AcDbPoint
 10
75055.37447545028
 20
-43086.72712058527
 30
0.0
  0
ENDBLK
  5
67D7
330
67CC
100
AcDbEntity
  8
0
100
AcDbBlockEnd
  0
BLOCK
  5
67D9
330
67D8
100
AcDbEntity
  8
0
100
AcDbBlockBegin
  2
*D10
 70
     1
 10
0.0
 20
0.0
 30
0.0
  3
*D10
  1

  0
LINE
  5
67DA
330
67D8
100
AcDbEntity
  8
本体
 62
     2
370
    -2
100
AcDbLine
 10
75048.85346483672
 20
-43199.68427735477
 30
0.0
 11
75054.29522400515
 21
-43205.1260365232
 31
0.0
  0
LINE
  5
67DB
330
67D8
100
AcDbEntity
  8
本体
 62
     2
370
    -2
100
AcDbLine
 10
75049.06559651073
 20
-43199.47214568077
 30
0.0
 11
75054.50735567916
 21
-43204.9139048492
 31
0.0
  0
LINE
  5
67DC
330
67D8
100
AcDbEntity
  8
本体
 62
     2
370
    -2
100
AcDbLine
 10
75052.17390366159
 20
-43205.83314330439
 30
0.0
 11
75050.75969009922
 21
-43207.24735686677
 31
0.0
  0
LINE
  5
67DD
330
67D8
100
AcDbEntity
  8
本体
 62
     2
370
    -2
100
AcDbLine
 10
75055.21446246034
 20
-43202.79258450565
 30
0.0
 11
75061.78171669062
 21
-43196.22533027537
 31
0.0
  0
LINE
  5
67DE
330
67D8
100
AcDbEntity
  8
本体
 62
     2
370
    -2
100
AcDbLine
 10
75053.58811722396
 20
-43204.41892974202
 30
0.0
 11
75053.80024889797
 21
-43204.20679806801
 31
0.0
  0
INSERT
  5
67DF
330
67D8
100
AcDbEntity
  8
本体
 62
     2
370
    -2
100
AcDbBlockReference
  2
2
 10
75053.58811722396
 20
-43204.41892974202
 30
0.0
 41
2.0
 42
2.0
 43
2.0
 50
45.0
  0
INSERT
  5
67E0
330
67D8
100
AcDbEntity
  8
本体
 62
     2
370
    -2
100
AcDbBlockReference
  2
2
 10
75053.80024889797
 20
-43204.20679806801
 30
0.0
 41
2.0
 42
2.0
 43
2.0
 50
225.0
  0
MTEXT
  5
67E1
330
67D8
100
AcDbEntity
  8
本体
 62
     1
100
AcDbMText
 10
75057.40207406463
 20
-43196.99872831731
 30
0.0
 40
3.5
 41
0.0
 71
     5
 72
     1
  1
0.3
  7
ｺﾞｼｯｸ
 11
0.7071067811865476
 21
0.7071067811865475
 31
0.0
 73
     1
 44
1.0
1001
ACAD
1000
MTEXTBEGIN
1070
    73
1070
     1
1070
    44
1040
1.0
1070
    74
1070
     0
1000
MTEXTEND
  0
POINT
  5
67E2
330
67D8
100
AcDbEntity
  8
DEFPOINTS
 62
     0
100
AcDbPoint
 10
75048.57062212424
 20
-43199.4014346423
 30
0.0
  0
POINT
  5
67E3
330
67D8
100
AcDbEntity
  8
DEFPOINTS
 62
     0
100
AcDbPoint
 10
75048.78275379825
 20
-43199.1893029683
 30
0.0
  0
POINT
  5
67E4
330
67D8
100
AcDbEntity
  8
DEFPOINTS
 62
     0
100
AcDbPoint
 10
75053.80024889797
 20
-43204.20679806801
 30
0.0
  0
ENDBLK
  5
67E5
330
67D8
100
AcDbEntity
  8
0
100
AcDbBlockEnd
  0
BLOCK
  5
67E7
330
67E6
100
AcDbEntity
  8
0
100
AcDbBlockBegin
  2
*D11
 70
     1
 10
0.0
 20
0.0
 30
0.0
  3
*D11
  1

  0
LINE
  5
67E8
330
67E6
100
AcDbEntity
  8
本体
 62
     2
370
    -2
100
AcDbLine
 10
75043.90371551298
 20
-43195.01737026323
 30
0.0
 11
75039.48707075065
 21
-43190.60072550303
 31
0.0
  0
LINE
  5
67E9
330
67E6
100
AcDbEntity
  8
本体
 62
     2
370
    -2
100
AcDbLine
 10
75043.69158252197
 20
-43195.22950325433
 30
0.0
 11
75039.27493775966
 21
-43190.81285849413
 31
0.0
  0
LINE
  5
67EA
330
67E6
100
AcDbEntity
  8
本体
 62
     2
370
    -2
100
AcDbLine
 10
75041.60839109403
 20
-43189.89361872134
 30
0.0
 11
75043.02260465607
 21
-43188.47940515863
 31
0.0
  0
LINE
  5
67EB
330
67E6
100
AcDbEntity
  8
本体
 62
     2
370
    -2
100
AcDbLine
 10
75038.56783097898
 20
-43192.93417883787
 30
0.0
 11
75032.00057675028
 21
-43199.50143306972
 31
0.0
  0
LINE
  5
67EC
330
67E6
100
AcDbEntity
  8
本体
 62
     2
370
    -2
100
AcDbLine
 10
75040.19417753202
 20
-43191.30783228405
 30
0.0
 11
75039.98204454101
 21
-43191.51996527515
 31
0.0
  0
INSERT
  5
67ED
330
67E6
100
AcDbEntity
  8
本体
 62
     2
370
    -2
100
AcDbBlockReference
  2
2
 10
75040.19417753202
 20
-43191.30783228405
 30
0.0
 41
2.0
 42
2.0
 43
2.0
 50
225.0000000137563
  0
INSERT
  5
67EE
330
67E6
100
AcDbEntity
  8
本体
 62
     2
370
    -2
100
AcDbBlockReference
  2
2
 10
75039.98204454101
 20
-43191.51996527515
 30
0.0
 41
2.0
 42
2.0
 43
2.0
 50
45.00000001375633
  0
MTEXT
  5
67EF
330
67E6
100
AcDbEntity
  8
本体
 62
     1
100
AcDbMText
 10
75032.77397479116
 20
-43195.12179044354
 30
0.0
 40
3.5
 41
0.0
 71
     5
 72
     1
  1
0.3
  7
ｺﾞｼｯｸ
 11
0.707106781016776
 21
0.7071067813563192
 31
0.0
 73
     1
 44
1.0
1001
ACAD
1000
MTEXTBEGIN
1070
    73
1070
     1
1070
    44
1040
1.0
1070
    74
1070
     0
1000
MTEXTEND
  0
POINT
  5
67F0
330
67E6
100
AcDbEntity
  8
DEFPOINTS
 62
     0
100
AcDbPoint
 10
75044.18655822551
 20
-43195.30021297564
 30
0.0
  0
POINT
  5
67F1
330
67E6
100
AcDbEntity
  8
DEFPOINTS
 62
     0
100
AcDbPoint
 10
75043.97442523451
 20
-43195.51234596674
 30
0.0
  0
POINT
  5
67F2
330
67E6
100
AcDbEntity
  8
DEFPOINTS
 62
     0
100
AcDbPoint
 10
75039.98204454101
 20
-43191.51996527515
 30
0.0
  0
ENDBLK
  5
67F3
330
67E6
100
AcDbEntity
  8
0
100
AcDbBlockEnd
  0
BLOCK
  5
67F5
330
67F4
100
AcDbEntity
  8
0
100
AcDbBlockBegin
  2
*D12
 70
     1
 10
0.0
 20
0.0
 30
0.0
  3
*D12
  1

  0
LINE
  5
67F6
330
67F4
100
AcDbEntity
  8
本体
 62
     2
370
    -2
100
AcDbLine
 10
74996.1740058867
 20
-43242.74707989023
 30
0.0
 11
74991.71943914825
 21
-43238.29251315225
 31
0.0
  0
LINE
  5
67F7
330
67F4
100
AcDbEntity
  8
本体
 62
     2
370
    -2
100
AcDbLine
 10
74996.24471776178
 20
-43242.67636801514
 30
0.0
 11
74991.79015102333
 21
-43238.22180127715
 31
0.0
  0
LINE
  5
67F8
330
67F4
100
AcDbEntity
  8
本体
 62
     2
370
    -2
100
AcDbLine
 10
74993.91147136686
 20
-43237.51469449585
 30
0.0
 11
74995.32568492915
 21
-43236.1004809334
 31
0.0
  0
LINE
  5
67F9
330
67F4
100
AcDbEntity
  8
本体
 62
     2
370
    -2
100
AcDbLine
 10
74991.01233236717
 20
-43240.41383349584
 30
0.0
 11
74984.93724052752
 21
-43246.48892533611
 31
0.0
  0
LINE
  5
67FA
330
67F4
100
AcDbEntity
  8
本体
 62
     2
370
    -2
100
AcDbLine
 10
74992.49725780456
 20
-43238.92890805829
 30
0.0
 11
74992.42654592947
 21
-43238.9996199334
 31
0.0
  0
INSERT
  5
67FB
330
67F4
100
AcDbEntity
  8
本体
 62
     2
370
    -2
100
AcDbBlockReference
  2
2
 10
74992.49725780456
 20
-43238.92890805829
 30
0.0
 41
2.0
 42
2.0
 43
2.0
 50
225.0000000029477
  0
INSERT
  5
67FC
330
67F4
100
AcDbEntity
  8
本体
 62
     2
370
    -2
100
AcDbBlockReference
  2
2
 10
74992.42654592947
 20
-43238.9996199334
 30
0.0
 41
2.0
 42
2.0
 43
2.0
 50
45.00000000294772
  0
MTEXT
  5
67FD
330
67F4
100
AcDbEntity
  8
本体
 62
     1
100
AcDbMText
 10
74985.46455737407
 20
-43242.35536390525
 30
0.0
 40
3.5
 41
0.0
 71
     5
 72
     1
  1
0.1
  7
ｺﾞｼｯｸ
 11
0.7071067811501683
 21
0.7071067812229268
 31
0.0
 73
     1
 44
1.0
1001
ACAD
1000
MTEXTBEGIN
1070
    73
1070
     1
1070
    44
1040
1.0
1070
    74
1070
     0
1000
MTEXTEND
  0
POINT
  5
67FE
330
67F4
100
AcDbEntity
  8
DEFPOINTS
 62
     0
100
AcDbPoint
 10
74996.45684859918
 20
-43243.02992260269
 30
0.0
  0
POINT
  5
67FF
330
67F4
100
AcDbEntity
  8
DEFPOINTS
 62
     0
100
AcDbPoint
 10
74996.52756047426
 20
-43242.95921072759
 30
0.0
  0
POINT
  5
6800
330
67F4
100
AcDbEntity
  8
DEFPOINTS
 62
     0
100
AcDbPoint
 10
74992.49725780456
 20
-43238.92890805829
 30
0.0
  0
ENDBLK
  5
6801
330
67F4
100
AcDbEntity
  8
0
100
AcDbBlockEnd
  0
BLOCK
  5
6803
330
6802
100
AcDbEntity
  8
0
100
AcDbBlockBegin
  2
*D13
 70
     1
 10
0.0
 20
0.0
 30
0.0
  3
*D13
  1

  0
ARC
  5
6804
330
6802
100
AcDbEntity
  8
本体
 62
     2
370
    -2
100
AcDbCircle
 10
75219.3140999954
 20
-43067.4976252943
 30
0.0
 40
9.840105792791758
100
AcDbArc
 50
146.6654969877845
 51
258.3345030121915
  0
INSERT
  5
6805
330
6802
100
AcDbEntity
  8
本体
 62
     2
370
    -2
100
AcDbBlockReference
  2
2
 10
75212.35609446173
 20
-43060.53961976063
 30
0.0
 41
2.0
 42
2.0
 43
2.0
 50
50.83274849388612
  0
INSERT
  5
6806
330
6802
100
AcDbEntity
  8
本体
 62
     2
370
    -2
100
AcDbBlockReference
  2
2
 10
75219.3140999954
 20
-43077.3377310871
 30
0.0
 41
2.0
 42
2.0
 43
2.0
 50
354.1672515060899
  0
MTEXT
  5
6807
330
6802
100
AcDbEntity
  8
本体
 62
     1
100
AcDbMText
 10
75212.78077785629
 20
-43070.73202543907
 30
0.0
 40
3.5
 41
0.0
 71
     5
 72
     1
  1
135\U+00B0
  7
ｺﾞｼｯｸ
 11
0.4436698501668989
 21
-0.8961903057123979
 31
0.0
 73
     1
 44
1.0
1001
ACAD
1000
MTEXTBEGIN
1070
    73
1070
     1
1070
    44
1040
1.0
1070
    74
1070
     0
1000
MTEXTEND
  0
POINT
  5
6808
330
6802
100
AcDbEntity
  8
DEFPOINTS
 62
     0
100
AcDbPoint
 10
75209.47399420262
 20
-43067.4976252943
 30
0.0
  0
POINT
  5
6809
330
6802
100
AcDbEntity
  8
DEFPOINTS
 62
     0
100
AcDbPoint
 10
75219.3140999954
 20
-43070.60422665966
 30
0.0
  0
POINT
  5
680A
330
6802
100
AcDbEntity
  8
DEFPOINTS
 62
     0
100
AcDbPoint
 10
75215.52641107568
 20
-43063.70993637457
 30
0.0
  0
POINT
  5
680B
330
6802
100
AcDbEntity
  8
DEFPOINTS
 62
     0
100
AcDbPoint
 10
75203.50559547151
 20
-43051.6891207704
 30
0.0
  0
POINT
  5
680C
330
6802
100
AcDbEntity
  8
DEFPOINTS
 62
     0
100
AcDbPoint
 10
75219.3140999954
 20
-43089.85422608964
 30
0.0
  0
ENDBLK
  5
680D
330
6802
100
AcDbEntity
  8
0
100
AcDbBlockEnd
  0
BLOCK
  5
6F9E
330
6F9D
100
AcDbEntity
  8
0
100
AcDbBlockBegin
  2
*D15
 70
     1
 10
0.0
 20
0.0
 30
0.0
  3
*D15
  1

  0
LINE
  5
7003
330
6F9D
100
AcDbEntity
  8
本体
 62
     2
370
    -2
100
AcDbLine
 10
1014.953245959103
 20
-1783.014759499907
 30
0.0
 11
1004.916949148416
 21
-1785.70397712533
 31
0.0
  0
LINE
  5
7004
330
6F9D
100
AcDbEntity
  8
本体
 62
     2
370
    -2
100
AcDbLine
 10
1014.953245959103
 20
-1871.014755297707
 30
0.0
 11
1004.916949148416
 21
-1873.70397292313
 31
0.0
  0
LINE
  5
7005
330
6F9D
100
AcDbEntity
  8
本体
 62
     2
370
    -2
100
AcDbLine
 10
1005.916949148416
 20
-1787.436027932899
 30
0.0
 11
1005.916949148416
 21
-1871.436023730699
 31
0.0
  0
INSERT
  5
7006
330
6F9D
100
AcDbEntity
  8
本体
 62
     2
370
    -2
100
AcDbBlockReference
  2
2
 10
1005.916949148416
 20
-1785.436027932899
 30
0.0
 41
2.0
 42
2.0
 43
2.0
 50
90.0
  0
INSERT
  5
7007
330
6F9D
100
AcDbEntity
  8
本体
 62
     2
370
    -2
100
AcDbBlockReference
  2
2
 10
1005.916949148416
 20
-1873.436023730699
 30
0.0
 41
2.0
 42
2.0
 43
2.0
 50
270.0
  0
MTEXT
  5
7008
330
6F9D
100
AcDbEntity
  8
本体
 62
     1
100
AcDbMText
 10
1003.366949148416
 20
-1829.453975868778
 30
0.0
 40
3.5
 41
0.0
 71
     5
 72
     1
  1
88
  7
ｺﾞｼｯｸ
 11
0.0000000000000001
 21
1.0
 31
0.0
 73
     1
 44
1.0
1001
ACAD
1000
MTEXTBEGIN
1070
    73
1070
     1
1070
    44
1040
1.0
1070
    74
1070
     0
1000
MTEXTEND
  0
POINT
  5
7009
330
6F9D
100
AcDbEntity
  8
DEFPOINTS
 62
     0
100
AcDbPoint
 10
1015.353245959103
 20
-1782.907579822935
 30
0.0
  0
POINT
  5
700A
330
6F9D
100
AcDbEntity
  8
DEFPOINTS
 62
     0
100
AcDbPoint
 10
1015.353245959103
 20
-1870.907575620735
 30
0.0
  0
POINT
  5
700B
330
6F9D
100
AcDbEntity
  8
DEFPOINTS
 62
     0
100
AcDbPoint
 10
1005.916949148416
 20
-1873.436023730699
 30
0.0
  0
ENDBLK
  5
6F9F
330
6F9D
100
AcDbEntity
  8
0
100
AcDbBlockEnd
  0
BLOCK
  5
6FAA
330
6FA9
100
AcDbEntity
  8
0
100
AcDbBlockBegin
  2
*D16
 70
     1
 10
0.0
 20
0.0
 30
0.0
  3
*D16
  1

  0
LINE
  5
700C
330
6FA9
100
AcDbEntity
  8
本体
 62
     2
370
    -2
100
AcDbLine
 10
973.0532442409995
 20
-1827.307575859182
 30
0.0
 11
973.0532442409995
 21
-1839.006974058127
 31
0.0
  0
LINE
  5
700D
330
6FA9
100
AcDbEntity
  8
本体
 62
     2
370
    -2
100
AcDbLine
 10
1041.0532460739
 20
-1827.307575859182
 30
0.0
 11
1041.0532460739
 21
-1839.006974058127
 31
0.0
  0
LINE
  5
700E
330
6FA9
100
AcDbEntity
  8
本体
 62
     2
370
    -2
100
AcDbLine
 10
975.0532442409994
 20
-1838.006974058127
 30
0.0
 11
1039.0532460739
 21
-1838.006974058127
 31
0.0
  0
INSERT
  5
700F
330
6FA9
100
AcDbEntity
  8
本体
 62
     2
370
    -2
100
AcDbBlockReference
  2
2
 10
973.0532442409995
 20
-1838.006974058127
 30
0.0
 41
2.0
 42
2.0
 43
2.0
 50
180.0
  0
INSERT
  5
7010
330
6FA9
100
AcDbEntity
  8
本体
 62
     2
370
    -2
100
AcDbBlockReference
  2
2
 10
1041.0532460739
 20
-1838.006974058127
 30
0.0
 41
2.0
 42
2.0
 43
2.0
  0
MTEXT
  5
7011
330
6FA9
100
AcDbEntity
  8
本体
 62
     1
100
AcDbMText
 10
996.1104938667658
 20
-1835.456974058127
 30
0.0
 40
3.5
 41
0.0
 71
     5
 72
     1
  1
68
  7
ｺﾞｼｯｸ
 73
     1
 44
1.0
1001
ACAD
1000
MTEXTBEGIN
1070
    73
1070
     1
1070
    44
1040
1.0
1070
    74
1070
     0
1000
MTEXTEND
  0
POINT
  5
7012
330
6FA9
100
AcDbEntity
  8
DEFPOINTS
 62
     0
100
AcDbPoint
 10
973.0532442409995
 20
-1826.907575859182
 30
0.0
  0
POINT
  5
7013
330
6FA9
100
AcDbEntity
  8
DEFPOINTS
 62
     0
100
AcDbPoint
 10
1041.0532460739
 20
-1826.907575859182
 30
0.0
  0
POINT
  5
7014
330
6FA9
100
AcDbEntity
  8
DEFPOINTS
 62
     0
100
AcDbPoint
 10
1041.0532460739
 20
-1838.006974058127
 30
0.0
  0
ENDBLK
  5
6FAB
330
6FA9
100
AcDbEntity
  8
0
100
AcDbBlockEnd
  0
BLOCK
  5
6FB6
330
6FB5
100
AcDbEntity
  8
0
100
AcDbBlockBegin
  2
*D17
 70
     1
 10
0.0
 20
0.0
 30
0.0
  3
*D17
  1

  0
LINE
  5
7015
330
6FB5
100
AcDbEntity
  8
本体
 62
     2
370
    -2
100
AcDbLine
 10
1034.532235460334
 20
-1950.964130827634
 30
0.0
 11
1039.973994628764
 21
-1956.405889996063
 31
0.0
  0
LINE
  5
7016
330
6FB5
100
AcDbEntity
  8
本体
 62
     2
370
    -2
100
AcDbLine
 10
1034.744367134343
 20
-1950.751999153625
 30
0.0
 11
1040.186126302772
 21
-1956.193758322054
 31
0.0
  0
LINE
  5
7017
330
6FB5
100
AcDbEntity
  8
本体
 62
     2
370
    -2
100
AcDbLine
 10
1037.852674285204
 20
-1957.11299677725
 30
0.0
 11
1036.43846072283
 21
-1958.527210339623
 31
0.0
  0
LINE
  5
7018
330
6FB5
100
AcDbEntity
  8
本体
 62
     2
370
    -2
100
AcDbLine
 10
1040.893233083958
 20
-1954.072437978495
 30
0.0
 11
1047.460487314229
 21
-1947.505183748225
 31
0.0
  0
LINE
  5
7019
330
6FB5
100
AcDbEntity
  8
本体
 62
     2
370
    -2
100
AcDbLine
 10
1039.266887847577
 20
-1955.698783214877
 30
0.0
 11
1039.479019521585
 21
-1955.486651540868
 31
0.0
  0
INSERT
  5
701A
330
6FB5
100
AcDbEntity
  8
本体
 62
     2
370
    -2
100
AcDbBlockReference
  2
2
 10
1039.266887847577
 20
-1955.698783214877
 30
0.0
 41
2.0
 42
2.0
 43
2.0
 50
45.0
  0
INSERT
  5
701B
330
6FB5
100
AcDbEntity
  8
本体
 62
     2
370
    -2
100
AcDbBlockReference
  2
2
 10
1039.479019521585
 20
-1955.486651540868
 30
0.0
 41
2.0
 42
2.0
 43
2.0
 50
225.0
  0
MTEXT
  5
701C
330
6FB5
100
AcDbEntity
  8
本体
 62
     1
100
AcDbMText
 10
1043.080844688254
 20
-1948.278581790148
 30
0.0
 40
3.5
 41
0.0
 71
     5
 72
     1
  1
0.3
  7
ｺﾞｼｯｸ
 11
0.7071067811865476
 21
0.7071067811865475
 31
0.0
 73
     1
 44
1.0
1001
ACAD
1000
MTEXTBEGIN
1070
    73
1070
     1
1070
    44
1040
1.0
1070
    74
1070
     0
1000
MTEXTEND
  0
POINT
  5
701D
330
6FB5
100
AcDbEntity
  8
DEFPOINTS
 62
     0
100
AcDbPoint
 10
1034.24939274786
 20
-1950.681288115159
 30
0.0
  0
POINT
  5
701E
330
6FB5
100
AcDbEntity
  8
DEFPOINTS
 62
     0
100
AcDbPoint
 10
1034.461524421868
 20
-1950.469156441151
 30
0.0
  0
POINT
  5
701F
330
6FB5
100
AcDbEntity
  8
DEFPOINTS
 62
     0
100
AcDbPoint
 10
1039.479019521585
 20
-1955.486651540868
 30
0.0
  0
ENDBLK
  5
6FB7
330
6FB5
100
AcDbEntity
  8
0
100
AcDbBlockEnd
  0
BLOCK
  5
6FC4
330
6FC3
100
AcDbEntity
  8
0
100
AcDbBlockBegin
  2
*D18
 70
     1
 10
0.0
 20
0.0
 30
0.0
  3
*D18
  1

  0
LINE
  5
7020
330
6FC3
100
AcDbEntity
  8
本体
 62
     2
370
    -2
100
AcDbLine
 10
1029.582486136586
 20
-1946.297223736082
 30
0.0
 11
1025.165841374271
 21
-1941.880578975888
 31
0.0
  0
LINE
  5
7021
330
6FC3
100
AcDbEntity
  8
本体
 62
     2
370
    -2
100
AcDbLine
 10
1029.370353145585
 20
-1946.509356727184
 30
0.0
 11
1024.95370838327
 21
-1942.09271196699
 31
0.0
  0
LINE
  5
7022
330
6FC3
100
AcDbEntity
  8
本体
 62
     2
370
    -2
100
AcDbLine
 10
1027.287161717661
 20
-1941.173472194192
 30
0.0
 11
1028.701375279695
 21
-1939.759258631479
 31
0.0
  0
LINE
  5
7023
330
6FC3
100
AcDbEntity
  8
本体
 62
     2
370
    -2
100
AcDbLine
 10
1024.246601602594
 20
-1944.214032310719
 30
0.0
 11
1017.6793473739
 21
-1950.781286542566
 31
0.0
  0
LINE
  5
7024
330
6FC3
100
AcDbEntity
  8
本体
 62
     2
370
    -2
100
AcDbLine
 10
1025.872948155627
 20
-1942.587685756904
 30
0.0
 11
1025.660815164627
 21
-1942.799818748007
 31
0.0
  0
INSERT
  5
7025
330
6FC3
100
AcDbEntity
  8
本体
 62
     2
370
    -2
100
AcDbBlockReference
  2
2
 10
1025.872948155627
 20
-1942.587685756904
 30
0.0
 41
2.0
 42
2.0
 43
2.0
 50
225.0000000137563
  0
INSERT
  5
7026
330
6FC3
100
AcDbEntity
  8
本体
 62
     2
370
    -2
100
AcDbBlockReference
  2
2
 10
1025.660815164627
 20
-1942.799818748007
 30
0.0
 41
2.0
 42
2.0
 43
2.0
 50
45.00000001375633
  0
MTEXT
  5
7027
330
6FC3
100
AcDbEntity
  8
本体
 62
     1
100
AcDbMText
 10
1018.452745414771
 20
-1946.401643916406
 30
0.0
 40
3.5
 41
0.0
 71
     5
 72
     1
  1
0.3
  7
ｺﾞｼｯｸ
 11
0.707106781016776
 21
0.7071067813563192
 31
0.0
 73
     1
 44
1.0
1001
ACAD
1000
MTEXTBEGIN
1070
    73
1070
     1
1070
    44
1040
1.0
1070
    74
1070
     0
1000
MTEXTEND
  0
POINT
  5
7028
330
6FC3
100
AcDbEntity
  8
DEFPOINTS
 62
     0
100
AcDbPoint
 10
1029.865328849129
 20
-1946.580066448488
 30
0.0
  0
POINT
  5
7029
330
6FC3
100
AcDbEntity
  8
DEFPOINTS
 62
     0
100
AcDbPoint
 10
1029.653195858128
 20
-1946.792199439591
 30
0.0
  0
POINT
  5
702A
330
6FC3
100
AcDbEntity
  8
DEFPOINTS
 62
     0
100
AcDbPoint
 10
1025.660815164627
 20
-1942.799818748007
 30
0.0
  0
ENDBLK
  5
6FC5
330
6FC3
100
AcDbEntity
  8
0
100
AcDbBlockEnd
  0
BLOCK
  5
6FD2
330
6FD1
100
AcDbEntity
  8
0
100
AcDbBlockBegin
  2
*D19
 70
     1
 10
0.0
 20
0.0
 30
0.0
  3
*D19
  1

  0
LINE
  5
702B
330
6FD1
100
AcDbEntity
  8
本体
 62
     2
370
    -2
100
AcDbLine
 10
981.8527765103185
 20
-1994.026933363091
 30
0.0
 11
977.3982097718626
 21
-1989.572366625094
 31
0.0
  0
LINE
  5
702C
330
6FD1
100
AcDbEntity
  8
本体
 62
     2
370
    -2
100
AcDbLine
 10
981.9234883854058
 20
-1993.956221487997
 30
0.0
 11
977.4689216469498
 21
-1989.50165475
 31
0.0
  0
LINE
  5
702D
330
6FD1
100
AcDbEntity
  8
本体
 62
     2
370
    -2
100
AcDbLine
 10
979.5902419904733
 20
-1988.794547968704
 30
0.0
 11
981.0044555527737
 21
-1987.380334406258
 31
0.0
  0
LINE
  5
702E
330
6FD1
100
AcDbEntity
  8
本体
 62
     2
370
    -2
100
AcDbLine
 10
976.6911029907854
 20
-1991.69368696869
 30
0.0
 11
970.6160111511424
 21
-1997.768778808958
 31
0.0
  0
LINE
  5
702F
330
6FD1
100
AcDbEntity
  8
本体
 62
     2
370
    -2
100
AcDbLine
 10
978.1760284281729
 20
-1990.20876153115
 30
0.0
 11
978.1053165530856
 21
-1990.279473406244
 31
0.0
  0
INSERT
  5
7030
330
6FD1
100
AcDbEntity
  8
本体
 62
     2
370
    -2
100
AcDbBlockReference
  2
2
 10
978.1760284281729
 20
-1990.20876153115
 30
0.0
 41
2.0
 42
2.0
 43
2.0
 50
225.0000000029477
  0
INSERT
  5
7031
330
6FD1
100
AcDbEntity
  8
本体
 62
     2
370
    -2
100
AcDbBlockReference
  2
2
 10
978.1053165530856
 20
-1990.279473406244
 30
0.0
 41
2.0
 42
2.0
 43
2.0
 50
45.00000000294772
  0
MTEXT
  5
7032
330
6FD1
100
AcDbEntity
  8
本体
 62
     1
100
AcDbMText
 10
971.1433279976953
 20
-1993.635217378114
 30
0.0
 40
3.5
 41
0.0
 71
     5
 72
     1
  1
0.1
  7
ｺﾞｼｯｸ
 11
0.7071067811501683
 21
0.7071067812229268
 31
0.0
 73
     1
 44
1.0
1001
ACAD
1000
MTEXTBEGIN
1070
    73
1070
     1
1070
    44
1040
1.0
1070
    74
1070
     0
1000
MTEXTEND
  0
POINT
  5
7033
330
6FD1
100
AcDbEntity
  8
DEFPOINTS
 62
     0
100
AcDbPoint
 10
982.1356192228076
 20
-1994.309776075551
 30
0.0
  0
POINT
  5
7034
330
6FD1
100
AcDbEntity
  8
DEFPOINTS
 62
     0
100
AcDbPoint
 10
982.2063310978949
 20
-1994.239064200457
 30
0.0
  0
POINT
  5
7035
330
6FD1
100
AcDbEntity
  8
DEFPOINTS
 62
     0
100
AcDbPoint
 10
978.1760284281729
 20
-1990.20876153115
 30
0.0
  0
ENDBLK
  5
6FD3
330
6FD1
100
AcDbEntity
  8
0
100
AcDbBlockEnd
  0
BLOCK
  5
6FE0
330
6FDF
100
AcDbEntity
  8
0
100
AcDbBlockBegin
  2
*D20
 70
     1
 10
0.0
 20
0.0
 30
0.0
  3
*D20
  1

  0
LINE
  5
7036
330
6FDF
100
AcDbEntity
  8
本体
 62
     2
370
    -2
100
AcDbLine
 10
1145.287086449463
 20
-2018.134483464044
 30
0.0
 11
1148.847181450774
 21
-2018.134483464044
 31
0.0
  0
LINE
  5
7037
330
6FDF
100
AcDbEntity
  8
本体
 62
     2
370
    -2
100
AcDbLine
 10
1142.943694972915
 20
-1950.134483464044
 30
0.0
 11
1148.847181450774
 21
-1950.134483464044
 31
0.0
  0
LINE
  5
7038
330
6FDF
100
AcDbEntity
  8
本体
 62
     2
370
    -2
100
AcDbLine
 10
1147.847181450774
 20
-2016.134483464044
 30
0.0
 11
1147.847181450774
 21
-1952.134483464044
 31
0.0
  0
INSERT
  5
7039
330
6FDF
100
AcDbEntity
  8
本体
 62
     2
370
    -2
100
AcDbBlockReference
  2
2
 10
1147.847181450774
 20
-2018.134483464044
 30
0.0
 41
2.0
 42
2.0
 43
2.0
 50
270.0
  0
INSERT
  5
703A
330
6FDF
100
AcDbEntity
  8
本体
 62
     2
370
    -2
100
AcDbBlockReference
  2
2
 10
1147.847181450774
 20
-1950.134483464044
 30
0.0
 41
2.0
 42
2.0
 43
2.0
 50
90.0
  0
MTEXT
  5
703B
330
6FDF
100
AcDbEntity
  8
本体
 62
     1
100
AcDbMText
 10
1145.297181450775
 20
-1984.134483464037
 30
0.0
 40
3.5
 41
0.0
 71
     5
 72
     1
  1
68
  7
ｺﾞｼｯｸ
 11
0.0000000000000001
 21
1.0
 31
0.0
 73
     1
 44
1.0
1001
ACAD
1000
MTEXTBEGIN
1070
    73
1070
     1
1070
    44
1040
1.0
1070
    74
1070
     0
1000
MTEXTEND
  0
POINT
  5
703C
330
6FDF
100
AcDbEntity
  8
DEFPOINTS
 62
     0
100
AcDbPoint
 10
1144.887086449463
 20
-2018.134483464044
 30
0.0
  0
POINT
  5
703D
330
6FDF
100
AcDbEntity
  8
DEFPOINTS
 62
     0
100
AcDbPoint
 10
1142.543694972914
 20
-1950.134483464044
 30
0.0
  0
POINT
  5
703E
330
6FDF
100
AcDbEntity
  8
DEFPOINTS
 62
     0
100
AcDbPoint
 10
1147.847181450774
 20
-1950.134483464044
 30
0.0
  0
ENDBLK
  5
6FE1
330
6FDF
100
AcDbEntity
  8
0
100
AcDbBlockEnd
  0
BLOCK
  5
6FEC
330
6FEB
100
AcDbEntity
  8
0
100
AcDbBlockBegin
  2
*D21
 70
     1
 10
0.0
 20
0.0
 30
0.0
  3
*D21
  1

  0
LINE
  5
703F
330
6FEB
100
AcDbEntity
  8
本体
 62
     2
370
    -2
100
AcDbLine
 10
1115.655589306013
 20
-1975.43448357585
 30
0.0
 11
1117.040993612201
 21
-1970.264084316131
 31
0.0
  0
LINE
  5
7040
330
6FEB
100
AcDbEntity
  8
本体
 62
     2
370
    -2
100
AcDbLine
 10
1203.655588829205
 20
-1975.43448357585
 30
0.0
 11
1205.040993135394
 21
-1970.264084316131
 31
0.0
  0
LINE
  5
7041
330
6FEB
100
AcDbEntity
  8
本体
 62
     2
370
    -2
100
AcDbLine
 10
1118.77304441977
 20
-1971.264084316131
 30
0.0
 11
1202.773043942962
 21
-1971.264084316131
 31
0.0
  0
INSERT
  5
7042
330
6FEB
100
AcDbEntity
  8
本体
 62
     2
370
    -2
100
AcDbBlockReference
  2
2
 10
1116.77304441977
 20
-1971.264084316131
 30
0.0
 41
2.0
 42
2.0
 43
2.0
 50
180.0
  0
INSERT
  5
7043
330
6FEB
100
AcDbEntity
  8
本体
 62
     2
370
    -2
100
AcDbBlockReference
  2
2
 10
1204.773043942962
 20
-1971.264084316131
 30
0.0
 41
2.0
 42
2.0
 43
2.0
  0
MTEXT
  5
7044
330
6FEB
100
AcDbEntity
  8
本体
 62
     1
100
AcDbMText
 10
1159.548409390637
 20
-1968.714084316131
 30
0.0
 40
3.5
 41
0.0
 71
     5
 72
     1
  1
88
  7
ｺﾞｼｯｸ
 73
     1
 44
1.0
1001
ACAD
1000
MTEXTBEGIN
1070
    73
1070
     1
1070
    44
1040
1.0
1070
    74
1070
     0
1000
MTEXTEND
  0
POINT
  5
7045
330
6FEB
100
AcDbEntity
  8
DEFPOINTS
 62
     0
100
AcDbPoint
 10
1115.548409629041
 20
-1975.834483575851
 30
0.0
  0
POINT
  5
7046
330
6FEB
100
AcDbEntity
  8
DEFPOINTS
 62
     0
100
AcDbPoint
 10
1203.548409152233
 20
-1975.834483575851
 30
0.0
  0
POINT
  5
7047
330
6FEB
100
AcDbEntity
  8
DEFPOINTS
 62
     0
100
AcDbPoint
 10
1204.773043942962
 20
-1971.264084316131
 30
0.0
  0
ENDBLK
  5
6FED
330
6FEB
100
AcDbEntity
  8
0
100
AcDbBlockEnd
  0
BLOCK
  5
6FF8
330
6FF7
100
AcDbEntity
  8
0
100
AcDbBlockBegin
  2
*D22
 70
     1
 10
0.0
 20
0.0
 30
0.0
  3
*D22
  1

  0
ARC
  5
7048
330
6FF7
100
AcDbEntity
  8
本体
 62
     2
370
    -2
100
AcDbCircle
 10
1204.992870619021
 20
-1818.777478767148
 30
0.0
 40
9.840105792788632
100
AcDbArc
 50
146.6654969878009
 51
258.334503012199
  0
INSERT
  5
7049
330
6FF7
100
AcDbEntity
  8
本体
 62
     2
370
    -2
100
AcDbBlockReference
  2
2
 10
1198.034865085347
 20
-1811.819473233474
 30
0.0
 41
2.0
 42
2.0
 43
2.0
 50
50.83274849390059
  0
INSERT
  5
704A
330
6FF7
100
AcDbEntity
  8
本体
 62
     2
370
    -2
100
AcDbBlockReference
  2
2
 10
1204.992870619021
 20
-1828.617584559936
 30
0.0
 41
2.0
 42
2.0
 43
2.0
 50
354.1672515060993
  0
MTEXT
  5
704B
330
6FF7
100
AcDbEntity
  8
本体
 62
     1
100
AcDbMText
 10
1198.459548479906
 20
-1822.011878911935
 30
0.0
 40
3.5
 41
0.0
 71
     5
 72
     1
  1
135\U+00B0
  7
ｺﾞｼｯｸ
 11
0.4436698501668989
 21
-0.8961903057123979
 31
0.0
 73
     1
 44
1.0
1001
ACAD
1000
MTEXTBEGIN
1070
    73
1070
     1
1070
    44
1040
1.0
1070
    74
1070
     0
1000
MTEXTEND
  0
POINT
  5
704C
330
6FF7
100
AcDbEntity
  8
DEFPOINTS
 62
     0
100
AcDbPoint
 10
1195.152764826232
 20
-1818.777478767148
 30
0.0
  0
POINT
  5
704D
330
6FF7
100
AcDbEntity
  8
DEFPOINTS
 62
     0
100
AcDbPoint
 10
1204.992870619021
 20
-1821.884080132524
 30
0.0
  0
POINT
  5
704E
330
6FF7
100
AcDbEntity
  8
DEFPOINTS
 62
     0
100
AcDbPoint
 10
1201.205181699299
 20
-1814.989789847426
 30
0.0
  0
POINT
  5
704F
330
6FF7
100
AcDbEntity
  8
DEFPOINTS
 62
     0
100
AcDbPoint
 10
1189.184366095122
 20
-1802.968974243249
 30
0.0
  0
POINT
  5
7050
330
6FF7
100
AcDbEntity
  8
DEFPOINTS
 62
     0
100
AcDbPoint
 10
1204.992870619021
 20
-1841.13407956251
 30
0.0
  0
ENDBLK
  5
6FF9
330
6FF7
100
AcDbEntity
  8
0
100
AcDbBlockEnd
  0
ENDSEC
  0
SECTION
  2
ENTITIES
  0
LINE
  5
7051
330
6678
100
AcDbEntity
  8
1外形線
  6
Continuous
370
    15
100
AcDbLine
 10
585.4625212447299
 20
-1736.498146421871
 30
0.0
 11
591.8762399302231
 21
-1736.498146421871
 31
0.0
  0
LINE
  5
7052
330
6678
100
AcDbEntity
  8
1外形線
  6
Continuous
370
    15
100
AcDbLine
 10
536.9700970547292
 20
-1736.498146421871
 30
0.0
 11
585.4625212447299
 21
-1736.498146421871
 31
0.0
  0
LINE
  5
7053
330
6678
100
AcDbEntity
  8
1外形線
  6
Continuous
370
    15
100
AcDbLine
 10
530.5563783692214
 20
-1736.498146421871
 30
0.0
 11
536.9700970547292
 21
-1736.498146421871
 31
0.0
  0
LINE
  5
7054
330
6678
100
AcDbEntity
  8
1外形線
  6
Continuous
370
    15
100
AcDbLine
 10
591.5097421454284
 20
-1741.498146310054
 30
0.0
 11
585.4625212447299
 21
-1741.498146310054
 31
0.0
  0
LINE
  5
7055
330
6678
100
AcDbEntity
  8
1外形線
  6
Continuous
370
    15
100
AcDbLine
 10
585.4625212447299
 20
-1741.498146310054
 30
0.0
 11
536.9700970547292
 21
-1741.498146310054
 31
0.0
  0
LINE
  5
7056
330
6678
100
AcDbEntity
  8
1外形線
  6
Continuous
370
    15
100
AcDbLine
 10
536.9700970547292
 20
-1741.498146310054
 30
0.0
 11
530.9228761540161
 21
-1741.498146310054
 31
0.0
  0
LINE
  5
7057
330
6678
100
AcDbEntity
  8
1外形線
  6
Continuous
370
    15
100
AcDbLine
 10
515.4651361005253
 20
-1736.498146421871
 30
0.0
 11
530.5563783692214
 21
-1736.498146421871
 31
0.0
  0
LINE
  5
7058
330
6678
100
AcDbEntity
  8
1外形線
  6
Continuous
370
    15
100
AcDbLine
 10
591.8762399302231
 20
-1736.498146421871
 30
0.0
 11
606.9674821989192
 21
-1736.498146421871
 31
0.0
  0
LINE
  5
7059
330
6678
100
AcDbEntity
  8
1外形線
  6
Continuous
370
    15
100
AcDbLine
 10
530.9228761540161
 20
-1741.498146310054
 30
0.0
 11
516.2089126603259
 21
-1741.498146310054
 31
0.0
  0
LINE
  5
705A
330
6678
100
AcDbEntity
  8
1外形線
  6
Continuous
370
    15
100
AcDbLine
 10
606.2237056391186
 20
-1741.498146310054
 30
0.0
 11
591.5097421454284
 21
-1741.498146310054
 31
0.0
  0
LINE
  5
705B
330
6678
100
AcDbEntity
  8
1外形線
  6
Continuous
370
    15
100
AcDbLine
 10
561.2163091497222
 20
-1701.498147204153
 30
0.0
 11
606.0377614991175
 21
-1701.498147204153
 31
0.0
  0
LINE
  5
705C
330
6678
100
AcDbEntity
  8
1外形線
  6
Continuous
370
    15
100
AcDbLine
 10
514.4834066229249
 20
-1736.498146421871
 30
0.0
 11
515.4651361005253
 21
-1736.498146421871
 31
0.0
  0
LINE
  5
705D
330
6678
100
AcDbEntity
  8
1外形線
  6
Continuous
370
    15
100
AcDbLine
 10
606.9674821989192
 20
-1736.498146421871
 30
0.0
 11
607.9492116766214
 21
-1736.498146421871
 31
0.0
  0
LINE
  5
705E
330
6678
100
AcDbEntity
  8
1外形線
  6
Continuous
370
    15
100
AcDbLine
 10
516.2089126603259
 20
-1741.498146310054
 30
0.0
 11
515.2832823293302
 21
-1741.498146310054
 31
0.0
  0
LINE
  5
705F
330
6678
100
AcDbEntity
  8
1外形線
  6
Continuous
370
    15
100
AcDbLine
 10
607.1493359701289
 20
-1741.498146310054
 30
0.0
 11
606.2237056391186
 21
-1741.498146310054
 31
0.0
  0
LINE
  5
7060
330
6678
100
AcDbEntity
  8
1外形線
  6
Continuous
370
    15
100
AcDbLine
 10
515.4832521872176
 20
-1701.498147204153
 30
0.0
 11
561.2163091497368
 21
-1701.498147204153
 31
0.0
  0
LINE
  5
7061
330
6678
100
AcDbEntity
  8
1外形線
  6
Continuous
370
    15
100
AcDbLine
 10
606.0377614991175
 20
-1701.498147204153
 30
0.0
 11
606.9493661122269
 21
-1701.498147204153
 31
0.0
  0
LINE
  5
7062
330
6678
100
AcDbEntity
  8
1外形線
  6
Continuous
370
    15
100
AcDbLine
 10
607.9492116766214
 20
-1736.498146421871
 30
0.0
 11
608.1163095729298
 21
-1736.498146421871
 31
0.0
  0
ELLIPSE
  5
7063
330
6678
100
AcDbEntity
  8
1外形線
  6
Continuous
370
    15
100
AcDbEllipse
 10
608.1163091497237
 20
-1736.698146310066
 30
0.0
 11
0.2000304656087906
 21
-0.0000000000000001
 31
0.0
210
0.0
220
0.0
230
1.0
 40
0.9998476951999998
 41
0.0
 42
1.570796326794897
  0
LINE
  5
7064
330
6678
100
AcDbEntity
  8
1外形線
  6
Continuous
370
    15
100
AcDbLine
 10
608.3163390355203
 20
-1736.698146082154
 30
0.0
 11
608.3163390355203
 21
-1740.498146262658
 31
0.0
  0
LINE
  5
7065
330
6678
100
AcDbEntity
  8
1外形線
  6
Continuous
370
    15
100
AcDbLine
 10
514.3163087265293
 20
-1736.498146421871
 30
0.0
 11
514.4834066229249
 21
-1736.498146421871
 31
0.0
  0
ELLIPSE
  5
7066
330
6678
100
AcDbEntity
  8
1外形線
  6
Continuous
370
    15
100
AcDbEllipse
 10
514.3163091497281
 20
-1736.698146310066
 30
0.0
 11
0.2000304656087621
 21
-0.0000000000000001
 31
0.0
210
0.0
220
0.0
230
1.0
 40
0.9998476951999998
 41
1.570796326794897
 42
3.141592653589774
  0
LINE
  5
7067
330
6678
100
AcDbEntity
  8
1外形線
  6
Continuous
370
    15
100
AcDbLine
 10
514.1162792639242
 20
-1736.698146082154
 30
0.0
 11
514.1162792639242
 21
-1740.498146262658
 31
0.0
  0
ELLIPSE
  5
7068
330
6678
100
AcDbEntity
  8
1外形線
  6
Continuous
370
    15
100
AcDbEllipse
 10
607.3161872873334
 20
-1740.498146310054
 30
0.0
 11
1.000152328043895
 21
-0.0000000000000003
 31
0.0
210
0.0
220
0.0
230
1.0
 40
0.9998476951999998
 41
4.712388980384703
 42
6.283185307179585
  0
LINE
  5
7069
330
6678
100
AcDbEntity
  8
1外形線
  6
Continuous
370
    15
100
AcDbLine
 10
607.3161879973213
 20
-1741.498146310054
 30
0.0
 11
607.1493359701289
 21
-1741.498146310054
 31
0.0
  0
ELLIPSE
  5
706A
330
6678
100
AcDbEntity
  8
1外形線
  6
Continuous
370
    15
100
AcDbEllipse
 10
515.1164310121258
 20
-1740.498146310054
 30
0.0
 11
1.000152328043895
 21
-0.0000000000000003
 31
0.0
210
0.0
220
0.0
230
1.0
 40
0.9998476951999998
 41
3.14159265358979
 42
4.712388980384703
  0
LINE
  5
706B
330
6678
100
AcDbEntity
  8
1外形線
  6
Continuous
370
    15
100
AcDbLine
 10
515.2832823293302
 20
-1741.498146310054
 30
0.0
 11
515.1164303021232
 21
-1741.498146310054
 31
0.0
  0
ELLIPSE
  5
706C
330
6678
100
AcDbEntity
  8
1外形線
  6
Continuous
370
    15
100
AcDbEllipse
 10
515.3164614778233
 20
-1702.49814631004
 30
0.0
 11
1.000152328043895
 21
-0.0000000000000003
 31
0.0
210
0.0
220
0.0
230
1.0
 40
0.9998476951999998
 41
1.570796326794897
 42
3.141592653589792
  0
LINE
  5
706D
330
6678
100
AcDbEntity
  8
1外形線
  6
Continuous
370
    15
100
AcDbLine
 10
515.3164597647283
 20
-1701.498147204153
 30
0.0
 11
515.4832521872176
 21
-1701.498147204153
 31
0.0
  0
ELLIPSE
  5
706E
330
6678
100
AcDbEntity
  8
1外形線
  6
Continuous
370
    15
100
AcDbEllipse
 10
607.1161568217376
 20
-1702.498146310054
 30
0.0
 11
1.000152328043895
 21
-0.0000000000000003
 31
0.0
210
0.0
220
0.0
230
1.0
 40
0.9998476951999998
 41
0.0
 42
1.570796326794897
  0
LINE
  5
706F
330
6678
100
AcDbEntity
  8
1外形線
  6
Continuous
370
    15
100
AcDbLine
 10
606.9493661122269
 20
-1701.498147204153
 30
0.0
 11
607.1161585347162
 21
-1701.498147204153
 31
0.0
  0
LINE
  5
7070
330
6678
100
AcDbEntity
  8
1外形線
  6
Continuous
370
    15
100
AcDbLine
 10
514.3163087265293
 20
-1702.498145505464
 30
0.0
 11
514.3163087265293
 21
-1736.498146421871
 31
0.0
  0
LINE
  5
7071
330
6678
100
AcDbEntity
  8
1外形線
  6
Continuous
370
    15
100
AcDbLine
 10
608.1163095729298
 20
-1702.498145505464
 30
0.0
 11
608.1163095729298
 21
-1736.498146421871
 31
0.0
  0
ELLIPSE
  5
708C
330
6678
100
AcDbEntity
  8
1外形線
  6
Continuous
370
    15
100
AcDbEllipse
 10
517.016232985743
 20
-1700.998146310069
 30
0.0
 11
-0.500076164021948
 21
0.0000000000000001
 31
0.0
210
0.0
220
0.0
230
1.0
 40
0.9998476951999998
 41
1.570796326794897
 42
3.141592653589792
  0
ELLIPSE
  5
708D
330
6678
100
AcDbEntity
  8
1外形線
  6
Continuous
370
    15
100
AcDbEllipse
 10
605.4163853137525
 20
-1700.998146310054
 30
0.0
 11
-0.500076164021948
 21
0.0000000000000001
 31
0.0
210
0.0
220
0.0
230
1.0
 40
0.9998476951999998
 41
0.0
 42
1.570796326794897
  0
ARC
  5
708E
330
6678
100
AcDbEntity
  8
1外形線
  6
Continuous
370
    15
100
AcDbCircle
 10
623.116309149731
 20
-1697.998146310054
 30
0.0
 40
105.6
100
AcDbArc
 50
136.3565616460653
 51
180.0
  0
ARC
  5
708F
330
6678
100
AcDbEntity
  8
1外形線
  6
Continuous
370
    15
100
AcDbCircle
 10
623.116309149731
 20
-1697.998146310054
 30
0.0
 40
18.19999999999999
100
AcDbArc
 50
142.8952745082472
 51
180.0
  0
LINE
  5
7090
330
6678
100
AcDbEntity
  8
1外形線
  6
Continuous
370
    15
100
AcDbLine
 10
604.9163075583219
 20
-1700.998146190845
 30
0.0
 11
604.9163075583219
 21
-1697.998147561752
 31
0.0
  0
LINE
  5
7091
330
6678
100
AcDbEntity
  8
1外形線
  6
Continuous
370
    15
100
AcDbLine
 10
517.5163107412244
 20
-1700.99814619086
 30
0.0
 11
517.5163107412244
 21
-1697.998147561766
 31
0.0
  0
LINE
  5
7098
330
6678
100
AcDbEntity
  8
1外形線
  6
Continuous
370
    15
100
AcDbLine
 10
662.3948724452584
 20
-1611.216288613096
 30
0.0
 11
662.394872445273
 21
-1604.802569927588
 31
0.0
  0
LINE
  5
7099
330
6678
100
AcDbEntity
  8
1外形線
  6
Continuous
370
    15
100
AcDbLine
 10
662.394872445273
 20
-1659.708712803082
 30
0.0
 11
662.3948724452584
 21
-1611.216288613096
 31
0.0
  0
LINE
  5
709A
330
6678
100
AcDbEntity
  8
1外形線
  6
Continuous
370
    15
100
AcDbLine
 10
662.3948724452584
 20
-1666.12243148859
 30
0.0
 11
662.394872445273
 21
-1659.708712803082
 31
0.0
  0
LINE
  5
709B
330
6678
100
AcDbEntity
  8
1外形線
  6
Continuous
370
    15
100
AcDbLine
 10
667.3948723335724
 20
-1611.216288613067
 30
0.0
 11
667.3948723335724
 21
-1659.708712803082
 31
0.0
  0
LINE
  5
709C
330
6678
100
AcDbEntity
  8
1外形線
  6
Continuous
370
    15
100
AcDbLine
 10
667.3948723335724
 20
-1605.169067712383
 30
0.0
 11
667.3948723335724
 21
-1611.216288613067
 31
0.0
  0
LINE
  5
709D
330
6678
100
AcDbEntity
  8
1外形線
  6
Continuous
370
    15
100
AcDbLine
 10
667.3948723335724
 20
-1659.708712803082
 30
0.0
 11
667.3948723335579
 21
-1665.755933703795
 31
0.0
  0
LINE
  5
709E
330
6678
100
AcDbEntity
  8
1外形線
  6
Continuous
370
    15
100
AcDbLine
 10
609.343640084955
 20
-1687.761016743198
 30
0.0
 11
545.9565404314726
 21
-1624.373913364367
 31
0.0
  0
LINE
  5
709F
330
6678
100
AcDbEntity
  8
1外形線
  6
Continuous
370
    15
100
AcDbLine
 10
662.3948724452584
 20
-1681.2136737573
 30
0.0
 11
662.3948724452584
 21
-1666.12243148859
 31
0.0
  0
LINE
  5
70A0
330
6678
100
AcDbEntity
  8
1外形線
  6
Continuous
370
    15
100
AcDbLine
 10
662.394872445273
 20
-1604.802569927588
 30
0.0
 11
662.3948724452584
 21
-1589.711327658877
 31
0.0
  0
LINE
  5
70A1
330
6678
100
AcDbEntity
  8
1外形線
  6
Continuous
370
    15
100
AcDbLine
 10
667.3948723335724
 20
-1590.455104218678
 30
0.0
 11
667.3948723335724
 21
-1605.169067712383
 31
0.0
  0
LINE
  5
70A2
330
6678
100
AcDbEntity
  8
1外形線
  6
Continuous
370
    15
100
AcDbLine
 10
667.3948723335579
 20
-1665.755933703795
 30
0.0
 11
667.3948723335724
 21
-1680.469897197471
 31
0.0
  0
LINE
  5
70A3
330
6678
100
AcDbEntity
  8
1外形線
  6
Continuous
370
    15
100
AcDbLine
 10
662.394872445273
 20
-1682.195403234973
 30
0.0
 11
662.3948724452584
 21
-1681.2136737573
 31
0.0
  0
LINE
  5
70A4
330
6678
100
AcDbEntity
  8
1外形線
  6
Continuous
370
    15
100
AcDbLine
 10
662.3948724452584
 20
-1589.711327658877
 30
0.0
 11
662.394872445273
 21
-1588.729598181292
 31
0.0
  0
LINE
  5
70A5
330
6678
100
AcDbEntity
  8
1外形線
  6
Continuous
370
    15
100
AcDbLine
 10
667.3948723335724
 20
-1680.469897197471
 30
0.0
 11
667.3948723335579
 21
-1681.395527528481
 31
0.0
  0
LINE
  5
70A6
330
6678
100
AcDbEntity
  8
1外形線
  6
Continuous
370
    15
100
AcDbLine
 10
667.3948723335724
 20
-1589.529473887668
 30
0.0
 11
667.3948723335724
 21
-1590.455104218678
 31
0.0
  0
LWPOLYLINE
  5
70A7
330
6678
100
AcDbEntity
  8
1外形線
  6
Continuous
370
    15
100
AcDbPolyline
 90
       11
 70
   128
 43
0.0
 10
545.9565404314726
 20
-1624.373913364367
 10
545.8130273480583
 20
-1624.230404006287
 10
545.6870827336624
 20
-1624.104458460496
 10
545.5789524574592
 20
-1623.996329115557
 10
545.4888600368668
 20
-1623.906235763656
 10
545.4169842858773
 20
-1623.834360943989
 10
545.363474215972
 20
-1623.780849011555
 10
545.3284341354538
 20
-1623.745808930979
 10
545.1938380663141
 20
-1623.611190064867
 42
-0.4141889148648911
 10
545.1938983136733
 20
-1622.197036009862
 10
546.9616535563637
 20
-1620.429282629774
  0
LINE
  5
70A8
330
6678
100
AcDbEntity
  8
1外形線
  6
Continuous
370
    15
100
AcDbLine
 10
609.9882419664736
 20
-1688.405618624673
 30
0.0
 11
609.343640084955
 21
-1687.761016743198
 31
0.0
  0
LINE
  5
70A9
330
6678
100
AcDbEntity
  8
1外形線
  6
Continuous
370
    15
100
AcDbLine
 10
662.394872445273
 20
-1588.729598181292
 30
0.0
 11
662.394872445273
 21
-1588.562500284896
 31
0.0
  0
ELLIPSE
  5
70AA
330
6678
100
AcDbEntity
  8
1外形線
  6
Continuous
370
    15
100
AcDbEllipse
 10
662.5948723335696
 20
-1588.562500708095
 30
0.0
 11
0.000000000000012
 21
0.2000304656087906
 31
0.0
210
0.0
220
0.0
230
1.0
 40
0.9998476951999998
 41
0.0
 42
1.570796326794897
  0
LINE
  5
70AB
330
6678
100
AcDbEntity
  8
1外形線
  6
Continuous
370
    15
100
AcDbLine
 10
662.5948721055701
 20
-1588.362470822378
 30
0.0
 11
666.3948722860604
 21
-1588.362470822378
 31
0.0
  0
LINE
  5
70AC
330
6678
100
AcDbEntity
  8
1外形線
  6
Continuous
370
    15
100
AcDbLine
 10
662.5948721055556
 20
-1682.562530593887
 30
0.0
 11
666.3948722860604
 21
-1682.562530593887
 31
0.0
  0
LINE
  5
70AD
330
6678
100
AcDbEntity
  8
1外形線
  6
Continuous
370
    15
100
AcDbLine
 10
662.3948724452584
 20
-1682.362501131282
 30
0.0
 11
662.394872445273
 21
-1682.195403234973
 31
0.0
  0
ELLIPSE
  5
70AE
330
6678
100
AcDbEntity
  8
1外形線
  6
Continuous
370
    15
100
AcDbEllipse
 10
662.594872333555
 20
-1682.362500708083
 30
0.0
 11
0.000000000000012
 21
0.2000304656087906
 31
0.0
210
0.0
220
0.0
230
1.0
 40
0.9998476951999998
 41
1.570796326794897
 42
3.141592653589774
  0
ELLIPSE
  5
70AF
330
6678
100
AcDbEntity
  8
1外形線
  6
Continuous
370
    15
100
AcDbEllipse
 10
666.3948723335725
 20
-1589.362622570594
 30
0.0
 11
0.00000000000006
 21
1.000152328043895
 31
0.0
210
0.0
220
0.0
230
1.0
 40
0.9998476951999998
 41
4.712388980384703
 42
6.283185307179585
  0
LINE
  5
70B0
330
6678
100
AcDbEntity
  8
1外形線
  6
Continuous
370
    15
100
AcDbLine
 10
667.3948723335724
 20
-1589.36262186049
 30
0.0
 11
667.3948723335724
 21
-1589.529473887668
 31
0.0
  0
ELLIPSE
  5
70B1
330
6678
100
AcDbEntity
  8
1外形線
  6
Continuous
370
    15
100
AcDbEllipse
 10
666.3948723335725
 20
-1681.562378845671
 30
0.0
 11
0.00000000000006
 21
1.000152328043895
 31
0.0
210
0.0
220
0.0
230
1.0
 40
0.9998476951999998
 41
3.14159265358979
 42
4.712388980384703
  0
LINE
  5
70B2
330
6678
100
AcDbEntity
  8
1外形線
  6
Continuous
370
    15
100
AcDbLine
 10
667.3948723335579
 20
-1681.395527528481
 30
0.0
 11
667.3948723335724
 21
-1681.562379555688
 31
0.0
  0
ARC
  5
70B3
330
6678
100
AcDbEntity
  8
1外形線
  6
Continuous
370
    15
100
AcDbCircle
 10
623.8948723335579
 20
-1697.362500708083
 30
0.0
 40
108.8
100
AcDbArc
 50
90.0
 51
134.999999999696
  0
ELLIPSE
  5
70B4
330
6678
100
AcDbEntity
  8
1外形線
  6
Continuous
370
    15
100
AcDbEllipse
 10
610.8132891693621
 20
-1687.816451449877
 30
0.0
 11
0.7072144933793113
 21
-0.7072144933794532
 31
0.0
210
0.0
220
0.0
230
1.0
 40
0.9998476951999998
 41
4.712388980384784
 42
6.283185307179585
  0
LINE
  5
70B5
330
6678
100
AcDbEntity
  8
1外形線
  6
Continuous
370
    15
100
AcDbLine
 10
610.1061809320618
 20
-1688.52355759029
 30
0.0
 11
609.9882419664736
 21
-1688.405618624673
 31
0.0
  0
LINE
  5
70B6
330
6678
100
AcDbEntity
  8
1外形線
  6
Continuous
370
    15
100
AcDbLine
 10
611.5205022950631
 20
-1688.52366562368
 30
0.0
 11
613.2882717509728
 21
-1686.75589989306
 31
0.0
  0
ARC
  5
70B7
330
6678
100
AcDbEntity
  8
1外形線
  6
Continuous
370
    15
100
AcDbCircle
 10
623.8948723335579
 20
-1697.362500708083
 30
0.0
 40
15.0
100
AcDbArc
 50
90.0
 51
134.999999999696
  0
LINE
  5
70B8
330
6678
100
AcDbEntity
  8
1外形線
  6
Continuous
370
    15
100
AcDbLine
 10
623.89487358527
 20
-1588.562500284896
 30
0.0
 11
662.394872445273
 21
-1588.562500284896
 31
0.0
  0
LINE
  5
70B9
330
6678
100
AcDbEntity
  8
1外形線
  6
Continuous
370
    15
100
AcDbLine
 10
623.89487358527
 20
-1682.362501131282
 30
0.0
 11
662.3948724452584
 21
-1682.362501131282
 31
0.0
  0
LINE
  5
70D6
330
6678
100
AcDbEntity
  8
1外形線
  6
Continuous
370
    15
100
AcDbLine
 10
575.7486715202312
 20
-1890.875533861101
 30
0.0
 11
580.2838554953841
 21
-1895.410717836225
 31
0.0
  0
LINE
  5
70D7
330
6678
100
AcDbEntity
  8
1外形線
  6
Continuous
370
    15
100
AcDbLine
 10
541.4593495393265
 20
-1856.586211880167
 30
0.0
 11
575.7486715202312
 21
-1890.875533861101
 31
0.0
  0
LINE
  5
70D8
330
6678
100
AcDbEntity
  8
1外形線
  6
Continuous
370
    15
100
AcDbLine
 10
536.9241655641736
 20
-1852.051027905014
 30
0.0
 11
541.4593495393265
 21
-1856.586211880167
 31
0.0
  0
LINE
  5
70D9
330
6678
100
AcDbEntity
  8
1外形線
  6
Continuous
370
    15
100
AcDbLine
 10
576.4891685995889
 20
-1898.687098594201
 30
0.0
 11
572.2131376933748
 21
-1894.411067687957
 31
0.0
  0
LINE
  5
70DA
330
6678
100
AcDbEntity
  8
1外形線
  6
Continuous
370
    15
100
AcDbLine
 10
572.2131376933748
 20
-1894.411067687957
 30
0.0
 11
537.92381571247
 21
-1860.121745707053
 31
0.0
  0
LINE
  5
70DB
330
6678
100
AcDbEntity
  8
1外形線
  6
Continuous
370
    15
100
AcDbLine
 10
537.92381571247
 20
-1860.121745707053
 30
0.0
 11
533.6477848062267
 21
-1855.845714800809
 31
0.0
  0
LINE
  5
70DC
330
6678
100
AcDbEntity
  8
1外形線
  6
Continuous
370
    15
100
AcDbLine
 10
526.2530458194587
 20
-1841.379908160299
 30
0.0
 11
536.9241655641736
 21
-1852.051027905014
 31
0.0
  0
LINE
  5
70DD
330
6678
100
AcDbEntity
  8
1外形線
  6
Continuous
370
    15
100
AcDbLine
 10
580.2838554953841
 20
-1895.410717836225
 30
0.0
 11
590.9549752400989
 21
-1906.08183758094
 31
0.0
  0
LINE
  5
70DE
330
6678
100
AcDbEntity
  8
1外形線
  6
Continuous
370
    15
100
AcDbLine
 10
533.6477848062267
 20
-1855.845714800809
 30
0.0
 11
523.2434414417284
 21
-1845.441371436282
 31
0.0
  0
LINE
  5
70DF
330
6678
100
AcDbEntity
  8
1外形線
  6
Continuous
370
    15
100
AcDbLine
 10
586.8935119641164
 20
-1909.091441958728
 30
0.0
 11
576.4891685995889
 21
-1898.687098594201
 31
0.0
  0
LINE
  5
70E0
330
6678
100
AcDbEntity
  8
1外形線
  6
Continuous
370
    15
100
AcDbLine
 10
551.6591974914108
 20
-1817.28858439286
 30
0.0
 11
615.0463002170354
 21
-1880.675688981188
 31
0.0
  0
LINE
  5
70E1
330
6678
100
AcDbEntity
  8
1外形線
  6
Continuous
370
    15
100
AcDbLine
 10
525.5588582485716
 20
-1840.685720589383
 30
0.0
 11
526.2530458194587
 21
-1841.379908160299
 31
0.0
  0
LINE
  5
70E2
330
6678
100
AcDbEntity
  8
1外形線
  6
Continuous
370
    15
100
AcDbLine
 10
590.9549752400989
 20
-1906.08183758094
 30
0.0
 11
591.6491628110734
 21
-1906.776025151943
 31
0.0
  0
LINE
  5
70E3
330
6678
100
AcDbEntity
  8
1外形線
  6
Continuous
370
    15
100
AcDbLine
 10
523.2434414417284
 20
-1845.441371436282
 30
0.0
 11
522.5889219577866
 21
-1844.786851952369
 31
0.0
  0
LINE
  5
70E4
330
6678
100
AcDbEntity
  8
1外形線
  6
Continuous
370
    15
100
AcDbLine
 10
587.5480314480292
 20
-1909.745961442641
 30
0.0
 11
586.8935119641164
 21
-1909.091441958728
 31
0.0
  0
LINE
  5
70E5
330
6678
100
AcDbEntity
  8
1外形線
  6
Continuous
370
    15
100
AcDbLine
 10
615.0463002170354
 20
-1880.675688981188
 30
0.0
 11
615.6909020207449
 21
-1881.320290784868
 31
0.0
  0
LINE
  5
70E6
330
6678
100
AcDbEntity
  8
1外形線
  6
Continuous
370
    15
100
AcDbLine
 10
591.6491628110734
 20
-1906.776025151943
 30
0.0
 11
591.7673188666731
 21
-1906.894181207543
 31
0.0
  0
ELLIPSE
  5
70E7
330
6678
100
AcDbEntity
  8
1外形線
  6
Continuous
370
    15
100
AcDbEllipse
 10
591.6258972902351
 20
-1907.035602185461
 30
0.0
 11
0.1414428986758357
 21
-0.1414428986759209
 31
0.0
210
0.0
220
0.0
230
1.0
 40
0.9998476951999998
 41
0.0
 42
1.570796326794897
  0
LINE
  5
70E8
330
6678
100
AcDbEntity
  8
1外形線
  6
Continuous
370
    15
100
AcDbLine
 10
591.7673399400873
 20
-1907.177044512988
 30
0.0
 11
589.080334043937
 21
-1909.864050409138
 31
0.0
  0
LINE
  5
70E9
330
6678
100
AcDbEntity
  8
1外形線
  6
Continuous
370
    15
100
AcDbLine
 10
525.4407021929137
 20
-1840.567564533725
 30
0.0
 11
525.5588582485716
 21
-1840.685720589383
 31
0.0
  0
ELLIPSE
  5
70EA
330
6678
100
AcDbEntity
  8
1外形線
  6
Continuous
370
    15
100
AcDbEllipse
 10
525.2992812149669
 20
-1840.708986110163
 30
0.0
 11
0.1414428986758155
 21
-0.1414428986759008
 31
0.0
210
0.0
220
0.0
230
1.0
 40
0.9998476951999998
 41
1.570796326794897
 42
3.141592653589774
  0
LINE
  5
70EB
330
6678
100
AcDbEntity
  8
1外形線
  6
Continuous
370
    15
100
AcDbLine
 10
525.1578388874395
 20
-1840.567543460282
 30
0.0
 11
522.4708329912892
 21
-1843.254549356461
 31
0.0
  0
ELLIPSE
  5
70EC
330
6678
100
AcDbEntity
  8
1外形線
  6
Continuous
370
    15
100
AcDbEllipse
 10
588.3731199270614
 20
-1909.156836359289
 30
0.0
 11
0.7072144933791381
 21
-0.7072144933795645
 31
0.0
210
0.0
220
0.0
230
1.0
 40
0.9998476951999998
 41
4.712388980384703
 42
6.283185307179585
  0
LINE
  5
70ED
330
6678
100
AcDbEntity
  8
1外形線
  6
Continuous
370
    15
100
AcDbLine
 10
587.6660136479103
 20
-1909.863943642522
 30
0.0
 11
587.5480314480292
 21
-1909.745961442641
 31
0.0
  0
ELLIPSE
  5
70EE
330
6678
100
AcDbEntity
  8
1外形線
  6
Continuous
370
    15
100
AcDbEllipse
 10
523.1780470411385
 20
-1843.961763473337
 30
0.0
 11
0.7072144933791381
 21
-0.7072144933795645
 31
0.0
210
0.0
220
0.0
230
1.0
 40
0.9998476951999998
 41
3.14159265358979
 42
4.712388980384703
  0
LINE
  5
70EF
330
6678
100
AcDbEntity
  8
1外形線
  6
Continuous
370
    15
100
AcDbLine
 10
522.5889219577866
 20
-1844.786851952369
 30
0.0
 11
522.4709397579053
 21
-1844.668869752488
 31
0.0
  0
ELLIPSE
  5
70F0
330
6678
100
AcDbEntity
  8
1外形線
  6
Continuous
370
    15
100
AcDbEllipse
 10
550.1895476249837
 20
-1817.233148686988
 30
0.0
 11
0.7072144933791381
 21
-0.7072144933795645
 31
0.0
210
0.0
220
0.0
230
1.0
 40
0.9998476951999998
 41
1.570796326794897
 42
3.141592653589792
  0
LINE
  5
70F1
330
6678
100
AcDbEntity
  8
1外形線
  6
Continuous
370
    15
100
AcDbLine
 10
550.8966525625937
 20
-1816.526041326688
 30
0.0
 11
551.0145926155883
 21
-1816.643981379683
 31
0.0
  0
ELLIPSE
  5
70F2
330
6678
100
AcDbEntity
  8
1外形線
  6
Continuous
370
    15
100
AcDbEllipse
 10
615.1017347134975
 20
-1882.14533577556
 30
0.0
 11
0.7072144933791381
 21
-0.7072144933795645
 31
0.0
210
0.0
220
0.0
230
1.0
 40
0.9998476951999998
 41
0.0
 42
1.570796326794897
  0
LINE
  5
70F3
330
6678
100
AcDbEntity
  8
1外形線
  6
Continuous
370
    15
100
AcDbLine
 10
615.6909020207449
 20
-1881.320290784868
 30
0.0
 11
615.8088420737104
 21
-1881.438230837863
 31
0.0
  0
LINE
  5
70F4
330
6678
100
AcDbEntity
  8
1外形線
  6
Continuous
370
    15
100
AcDbLine
 10
549.4823334012389
 20
-1816.5259333254
 30
0.0
 11
525.4407021929137
 21
-1840.567564533725
 31
0.0
  0
LINE
  5
70F5
330
6678
100
AcDbEntity
  8
1外形線
  6
Continuous
370
    15
100
AcDbLine
 10
615.8089500750275
 20
-1882.852549999189
 30
0.0
 11
591.7673188666731
 21
-1906.894181207543
 31
0.0
  0
LINE
  5
7110
330
6678
100
AcDbEntity
  8
1外形線
  6
Continuous
370
    15
100
AcDbLine
 10
668.0975295051966
 20
-1804.130959641589
 30
0.0
 11
668.0975295052258
 21
-1797.717240956081
 31
0.0
  0
LINE
  5
7111
330
6678
100
AcDbEntity
  8
1外形線
  6
Continuous
370
    15
100
AcDbLine
 10
668.0975295052258
 20
-1852.623383831575
 30
0.0
 11
668.0975295051966
 21
-1804.130959641589
 31
0.0
  0
LINE
  5
7112
330
6678
100
AcDbEntity
  8
1外形線
  6
Continuous
370
    15
100
AcDbLine
 10
668.0975295051966
 20
-1859.037102517083
 30
0.0
 11
668.0975295052258
 21
-1852.623383831575
 31
0.0
  0
LINE
  5
7113
330
6678
100
AcDbEntity
  8
1外形線
  6
Continuous
370
    15
100
AcDbLine
 10
673.0975293935252
 20
-1804.130959641531
 30
0.0
 11
673.0975293935252
 21
-1852.623383831575
 31
0.0
  0
LINE
  5
7114
330
6678
100
AcDbEntity
  8
1外形線
  6
Continuous
370
    15
100
AcDbLine
 10
673.0975293935252
 20
-1798.083738740876
 30
0.0
 11
673.0975293935252
 21
-1804.130959641531
 31
0.0
  0
LINE
  5
7115
330
6678
100
AcDbEntity
  8
1外形線
  6
Continuous
370
    15
100
AcDbLine
 10
673.0975293935252
 20
-1852.623383831575
 30
0.0
 11
673.0975293934961
 21
-1858.670604732288
 31
0.0
  0
LINE
  5
7117
330
6678
100
AcDbEntity
  8
1外形線
  6
Continuous
370
    15
100
AcDbLine
 10
668.0975295051966
 20
-1874.128344785764
 30
0.0
 11
668.0975295051966
 21
-1859.037102517083
 31
0.0
  0
LINE
  5
7118
330
6678
100
AcDbEntity
  8
1外形線
  6
Continuous
370
    15
100
AcDbLine
 10
668.0975295052258
 20
-1797.717240956081
 30
0.0
 11
668.0975295051966
 21
-1782.625998687341
 31
0.0
  0
LINE
  5
7119
330
6678
100
AcDbEntity
  8
1外形線
  6
Continuous
370
    15
100
AcDbLine
 10
673.0975293935252
 20
-1783.369775247171
 30
0.0
 11
673.0975293935252
 21
-1798.083738740876
 31
0.0
  0
LINE
  5
711A
330
6678
100
AcDbEntity
  8
1外形線
  6
Continuous
370
    15
100
AcDbLine
 10
673.0975293934961
 20
-1858.670604732288
 30
0.0
 11
673.0975293935252
 21
-1873.384568225934
 31
0.0
  0
LINE
  5
711B
330
6678
100
AcDbEntity
  8
1外形線
  6
Continuous
370
    15
100
AcDbLine
 10
668.0975295052258
 20
-1875.110074263466
 30
0.0
 11
668.0975295051966
 21
-1874.128344785764
 31
0.0
  0
LINE
  5
711C
330
6678
100
AcDbEntity
  8
1外形線
  6
Continuous
370
    15
100
AcDbLine
 10
668.0975295051966
 20
-1782.625998687341
 30
0.0
 11
668.0975295052258
 21
-1781.644269209756
 31
0.0
  0
LINE
  5
711D
330
6678
100
AcDbEntity
  8
1外形線
  6
Continuous
370
    15
100
AcDbLine
 10
673.0975293935252
 20
-1873.384568225934
 30
0.0
 11
673.0975293934961
 21
-1874.310198556974
 31
0.0
  0
LINE
  5
711E
330
6678
100
AcDbEntity
  8
1外形線
  6
Continuous
370
    15
100
AcDbLine
 10
673.0975293935252
 20
-1782.444144916131
 30
0.0
 11
673.0975293935252
 21
-1783.369775247171
 31
0.0
  0
LWPOLYLINE
  5
711F
330
6678
100
AcDbEntity
  8
1外形線
  6
Continuous
370
    15
100
AcDbPolyline
 90
       11
 70
   128
 43
0.0
 10
551.6591974914108
 20
-1817.28858439286
 10
551.515684408011
 20
-1817.145075034751
 10
551.3897397936006
 20
-1817.019129488959
 10
551.2816095173975
 20
-1816.91100014402
 10
551.1915170968195
 20
-1816.82090679212
 10
551.1196413458301
 20
-1816.749031972482
 10
551.0661312759248
 20
-1816.695520040048
 10
551.0310911954065
 20
-1816.660479959443
 10
550.8964951262669
 20
-1816.52586109336
 42
-0.4141889148648911
 10
550.8965553736116
 20
-1815.111707038355
 10
552.6643106163164
 20
-1813.343953658237
  0
LINE
  5
7120
330
6678
100
AcDbEntity
  8
1外形線
  6
Continuous
370
    15
100
AcDbLine
 10
615.6908990264264
 20
-1881.320289653137
 30
0.0
 11
615.0462971448932
 21
-1880.675687771691
 31
0.0
  0
LINE
  5
7121
330
6678
100
AcDbEntity
  8
1外形線
  6
Continuous
370
    15
100
AcDbLine
 10
668.0975295052258
 20
-1781.644269209756
 30
0.0
 11
668.0975295052258
 21
-1781.47717131336
 31
0.0
  0
ELLIPSE
  5
7122
330
6678
100
AcDbEntity
  8
1外形線
  6
Continuous
370
    15
100
AcDbEllipse
 10
668.2975293935078
 20
-1781.477171736588
 30
0.0
 11
0.000000000000012
 21
0.2000304656087906
 31
0.0
210
0.0
220
0.0
230
1.0
 40
0.9998476951999998
 41
0.0
 42
1.570796326794897
  0
LINE
  5
7123
330
6678
100
AcDbEntity
  8
1外形線
  6
Continuous
370
    15
100
AcDbLine
 10
668.2975291655083
 20
-1781.277141850842
 30
0.0
 11
672.0975293459987
 21
-1781.277141850842
 31
0.0
  0
LINE
  5
7124
330
6678
100
AcDbEntity
  8
1外形線
  6
Continuous
370
    15
100
AcDbLine
 10
668.2975291655083
 20
-1875.47720162238
 30
0.0
 11
672.0975293459987
 21
-1875.47720162238
 31
0.0
  0
LINE
  5
7125
330
6678
100
AcDbEntity
  8
1外形線
  6
Continuous
370
    15
100
AcDbLine
 10
668.0975295051966
 20
-1875.277172159746
 30
0.0
 11
668.0975295052258
 21
-1875.110074263466
 31
0.0
  0
ELLIPSE
  5
7126
330
6678
100
AcDbEntity
  8
1外形線
  6
Continuous
370
    15
100
AcDbEllipse
 10
668.2975293935078
 20
-1875.277171736576
 30
0.0
 11
0.000000000000012
 21
0.2000304656087906
 31
0.0
210
0.0
220
0.0
230
1.0
 40
0.9998476951999998
 41
1.570796326794897
 42
3.141592653589774
  0
ELLIPSE
  5
7127
330
6678
100
AcDbEntity
  8
1外形線
  6
Continuous
370
    15
100
AcDbEllipse
 10
672.0975293935253
 20
-1782.277293599087
 30
0.0
 11
0.00000000000006
 21
1.000152328043895
 31
0.0
210
0.0
220
0.0
230
1.0
 40
0.9998476951999998
 41
4.712388980384703
 42
6.283185307179585
  0
LINE
  5
7128
330
6678
100
AcDbEntity
  8
1外形線
  6
Continuous
370
    15
100
AcDbLine
 10
673.0975293935252
 20
-1782.277292888954
 30
0.0
 11
673.0975293935252
 21
-1782.444144916131
 31
0.0
  0
ELLIPSE
  5
7129
330
6678
100
AcDbEntity
  8
1外形線
  6
Continuous
370
    15
100
AcDbEllipse
 10
672.0975293935253
 20
-1874.477049874135
 30
0.0
 11
0.00000000000006
 21
1.000152328043895
 31
0.0
210
0.0
220
0.0
230
1.0
 40
0.9998476951999998
 41
3.14159265358979
 42
4.712388980384703
  0
LINE
  5
712A
330
6678
100
AcDbEntity
  8
1外形線
  6
Continuous
370
    15
100
AcDbLine
 10
673.0975293934961
 20
-1874.310198556974
 30
0.0
 11
673.0975293935252
 21
-1874.477050584152
 31
0.0
  0
ARC
  5
712B
330
6678
100
AcDbEntity
  8
1外形線
  6
Continuous
370
    15
100
AcDbCircle
 10
629.5975293934962
 20
-1890.277171736576
 30
0.0
 40
108.8
100
AcDbArc
 50
90.0
 51
134.999999999696
  0
ELLIPSE
  5
712C
330
6678
100
AcDbEntity
  8
1外形線
  6
Continuous
370
    15
100
AcDbEllipse
 10
616.5159462293004
 20
-1880.73112247837
 30
0.0
 11
0.7072144933793113
 21
-0.7072144933794532
 31
0.0
210
0.0
220
0.0
230
1.0
 40
0.9998476951999998
 41
4.712388980384784
 42
6.283185307179585
  0
LINE
  5
712D
330
6678
100
AcDbEntity
  8
1外形線
  6
Continuous
370
    15
100
AcDbLine
 10
615.8088379920145
 20
-1881.438228618754
 30
0.0
 11
615.6908990264264
 21
-1881.320289653137
 31
0.0
  0
LINE
  5
712E
330
6678
100
AcDbEntity
  8
1外形線
  6
Continuous
370
    15
100
AcDbLine
 10
617.2231593550159
 20
-1881.438336652173
 30
0.0
 11
618.9909288109256
 21
-1879.670570921553
 31
0.0
  0
ARC
  5
712F
330
6678
100
AcDbEntity
  8
1外形線
  6
Continuous
370
    15
100
AcDbCircle
 10
629.5975293934962
 20
-1890.277171736576
 30
0.0
 40
15.0
100
AcDbArc
 50
90.0
 51
134.999999999696
  0
LINE
  5
7130
330
6678
100
AcDbEntity
  8
1外形線
  6
Continuous
370
    15
100
AcDbLine
 10
629.5975306452228
 20
-1781.47717131336
 30
0.0
 11
668.0975295052258
 21
-1781.47717131336
 31
0.0
  0
LINE
  5
7131
330
6678
100
AcDbEntity
  8
1外形線
  6
Continuous
370
    15
100
AcDbLine
 10
629.5975306452228
 20
-1875.277172159746
 30
0.0
 11
668.0975295051966
 21
-1875.277172159746
 31
0.0
  0
LINE
  5
7154
330
6678
100
AcDbEntity
  8
1外形線
100
AcDbLine
 10
785.0141552703781
 20
-1612.262507455276
 30
0.0
 11
785.0141552703781
 21
-1665.413086212155
 31
0.0
  0
LINE
  5
7156
330
6678
100
AcDbEntity
  8
1外形線
100
AcDbLine
 10
738.014155270378
 20
-1588.262507455277
 30
0.0
 11
761.0141552703778
 21
-1588.262507455277
 31
0.0
  0
ARC
  5
7157
330
6678
100
AcDbEntity
  8
1外形線
100
AcDbCircle
 10
761.0141552703778
 20
-1612.262507455276
 30
0.0
 40
24.0
100
AcDbArc
 50
0.0
 51
90.0
  0
LINE
  5
7158
330
6678
100
AcDbEntity
  8
1外形線
100
AcDbLine
 10
712.014155270378
 20
-1614.262507455276
 30
0.0
 11
712.014155270378
 21
-1663.413086212155
 31
0.0
  0
ARC
  5
7159
330
6678
100
AcDbEntity
  8
1外形線
100
AcDbCircle
 10
738.014155270378
 20
-1614.262507455276
 30
0.0
 40
26.0
100
AcDbArc
 50
90.0
 51
180.0
  0
ARC
  5
715A
330
6678
100
AcDbEntity
  8
1外形線
100
AcDbCircle
 10
761.0141552703778
 20
-1658.262507455277
 30
0.0
 40
24.0
100
AcDbArc
 50
270.0
 51
0.0
  0
ARC
  5
715B
330
6678
100
AcDbEntity
  8
1外形線
100
AcDbCircle
 10
738.014155270378
 20
-1656.262507455277
 30
0.0
 40
26.0
100
AcDbArc
 50
180.0
 51
270.0
  0
LINE
  5
715C
330
6678
100
AcDbEntity
  8
1外形線
100
AcDbLine
 10
738.014155270378
 20
-1682.262507455277
 30
0.0
 11
761.0141552703778
 21
-1682.262507455277
 31
0.0
  0
LINE
  5
715D
330
6678
100
AcDbEntity
  8
1外形線
100
AcDbLine
 10
712.014155270378
 20
-1741.498146310054
 30
0.0
 11
785.0141552703781
 21
-1741.498146310054
 31
0.0
  0
LINE
  5
715E
330
6678
100
AcDbEntity
  8
1外形線
100
AcDbLine
 10
712.014155270378
 20
-1736.498146310055
 30
0.0
 11
785.0141552703781
 21
-1736.498146310054
 31
0.0
  0
LINE
  5
7162
330
6678
100
AcDbEntity
  8
1外形線
  6
Continuous
370
    15
100
AcDbLine
 10
782.9141569750782
 20
-1675.230923312765
 30
0.0
 11
782.9141569750782
 21
-1697.998143836447
 31
0.0
  0
ARC
  5
7163
330
6678
100
AcDbEntity
  8
1外形線
  6
Continuous
370
    15
100
AcDbCircle
 10
784.0141568379758
 20
-1702.498142817245
 30
0.0
 40
1.0
100
AcDbArc
 50
0.0
 51
90.0
  0
ARC
  5
7164
330
6678
100
AcDbEntity
  8
1外形線
  6
Continuous
370
    15
100
AcDbCircle
 10
783.4141568379773
 20
-1700.998142817245
 30
0.0
 40
0.5000000000000569
100
AcDbArc
 50
180.0
 51
270.0
  0
LINE
  5
7165
330
6678
100
AcDbEntity
  8
1外形線
  6
Continuous
370
    15
100
AcDbLine
 10
782.9141569750782
 20
-1697.998143836447
 30
0.0
 11
782.9141569750782
 21
-1700.998146190845
 31
0.0
  0
LINE
  5
7166
330
6678
100
AcDbEntity
  8
1外形線
  6
Continuous
370
    15
100
AcDbLine
 10
715.814157338681
 20
-1676.946751341478
 30
0.0
 11
715.814157338681
 21
-1697.998143836447
 31
0.0
  0
ARC
  5
7167
330
6678
100
AcDbEntity
  8
1外形線
  6
Continuous
370
    15
100
AcDbCircle
 10
715.3141568379787
 20
-1700.998142817245
 30
0.0
 40
0.5
100
AcDbArc
 50
270.0
 51
0.0
  0
LINE
  5
7168
330
6678
100
AcDbEntity
  8
1外形線
  6
Continuous
370
    15
100
AcDbLine
 10
715.814157338681
 20
-1700.998146190845
 30
0.0
 11
715.814157338681
 21
-1697.998143836447
 31
0.0
  0
ARC
  5
7169
330
6678
100
AcDbEntity
  8
1外形線
  6
Continuous
370
    15
100
AcDbCircle
 10
714.0141568379759
 20
-1702.498142817245
 30
0.0
 40
1.0
100
AcDbArc
 50
90.0
 51
180.0
  0
LINE
  5
716A
330
6678
100
AcDbEntity
  8
1外形線
  6
Continuous
370
    15
100
AcDbLine
 10
714.0141566710799
 20
-1701.498139753543
 30
0.0
 11
784.0141568826652
 21
-1701.498142817245
 31
0.0
  0
LINE
  5
716B
330
6678
100
AcDbEntity
  8
1外形線
  6
Continuous
370
    15
100
AcDbLine
 10
713.0141583697759
 20
-1702.498141780145
 30
0.0
 11
713.0141583697759
 21
-1736.498143627845
 31
0.0
  0
LINE
  5
7170
330
6678
100
AcDbEntity
  8
1外形線
100
AcDbLine
 10
712.014155270378
 20
-1736.498146310055
 30
0.0
 11
712.014155270378
 21
-1741.498146310054
 31
0.0
  0
LINE
  5
7173
330
6678
100
AcDbEntity
  8
1外形線
100
AcDbLine
 10
785.0141552703781
 20
-1702.496372169588
 30
0.0
 11
785.0141552703781
 21
-1741.498146310054
 31
0.0
  0
ARC
  5
717B
330
6678
100
AcDbEntity
  8
1外形線
100
AcDbCircle
 10
761.0141552703778
 20
-1665.413086212155
 30
0.0
 40
24.0
100
AcDbArc
 50
270.0
 51
0.0
  0
ARC
  5
717C
330
6678
100
AcDbEntity
  8
1外形線
100
AcDbCircle
 10
738.014155270378
 20
-1663.413086212155
 30
0.0
 40
26.0
100
AcDbArc
 50
180.0
 51
270.0
  0
LINE
  5
717D
330
6678
100
AcDbEntity
  8
1外形線
100
AcDbLine
 10
738.014155270378
 20
-1689.413086212155
 30
0.0
 11
761.0141552703778
 21
-1689.413086212155
 31
0.0
  0
LINE
  5
717E
330
6678
100
AcDbEntity
  8
1外形線
  6
Continuous
370
    15
100
AcDbLine
 10
913.565789296026
 20
-1736.498146421871
 30
0.0
 11
907.1520706105328
 21
-1736.498146421871
 31
0.0
  0
LINE
  5
717F
330
6678
100
AcDbEntity
  8
1外形線
  6
Continuous
370
    15
100
AcDbLine
 10
962.0582134860267
 20
-1736.498146421871
 30
0.0
 11
960.8120013910264
 21
-1736.498146421871
 31
0.0
  0
LINE
  5
7180
330
6678
100
AcDbEntity
  8
1外形線
  6
Continuous
370
    15
100
AcDbLine
 10
968.4719321715345
 20
-1736.498146421871
 30
0.0
 11
962.0582134860267
 21
-1736.498146421871
 31
0.0
  0
LINE
  5
7181
330
6678
100
AcDbEntity
  8
1外形線
  6
Continuous
370
    15
100
AcDbLine
 10
907.5185683953275
 20
-1741.498146310054
 30
0.0
 11
913.565789296026
 21
-1741.498146310054
 31
0.0
  0
LINE
  5
7182
330
6678
100
AcDbEntity
  8
1外形線
  6
Continuous
370
    15
100
AcDbLine
 10
913.565789296026
 20
-1741.498146310054
 30
0.0
 11
962.0582134860267
 21
-1741.498146310054
 31
0.0
  0
LINE
  5
7183
330
6678
100
AcDbEntity
  8
1外形線
  6
Continuous
370
    15
100
AcDbLine
 10
962.0582134860267
 20
-1741.498146310054
 30
0.0
 11
968.1054343867398
 21
-1741.498146310054
 31
0.0
  0
LINE
  5
7184
330
6678
100
AcDbEntity
  8
1外形線
  6
Continuous
370
    15
100
AcDbLine
 10
983.5631744402306
 20
-1736.498146421871
 30
0.0
 11
968.4719321715345
 21
-1736.498146421871
 31
0.0
  0
LINE
  5
7185
330
6678
100
AcDbEntity
  8
1外形線
  6
Continuous
370
    15
100
AcDbLine
 10
907.1520706105328
 20
-1736.498146421871
 30
0.0
 11
892.0608283418367
 21
-1736.498146421871
 31
0.0
  0
LINE
  5
7186
330
6678
100
AcDbEntity
  8
1外形線
  6
Continuous
370
    15
100
AcDbLine
 10
968.1054343867398
 20
-1741.498146310054
 30
0.0
 11
982.81939788043
 21
-1741.498146310054
 31
0.0
  0
LINE
  5
7187
330
6678
100
AcDbEntity
  8
1外形線
  6
Continuous
370
    15
100
AcDbLine
 10
892.8046049016373
 20
-1741.498146310054
 30
0.0
 11
907.5185683953275
 21
-1741.498146310054
 31
0.0
  0
LINE
  5
7188
330
6678
100
AcDbEntity
  8
1外形線
  6
Continuous
370
    15
100
AcDbLine
 10
937.8120013910336
 20
-1701.498147204153
 30
0.0
 11
892.9905490416384
 21
-1701.498147204153
 31
0.0
  0
LINE
  5
7189
330
6678
100
AcDbEntity
  8
1外形線
  6
Continuous
370
    15
100
AcDbLine
 10
984.5449039178308
 20
-1736.498146421871
 30
0.0
 11
983.5631744402306
 21
-1736.498146421871
 31
0.0
  0
LINE
  5
718A
330
6678
100
AcDbEntity
  8
1外形線
  6
Continuous
370
    15
100
AcDbLine
 10
892.0608283418367
 20
-1736.498146421871
 30
0.0
 11
891.0790988641345
 21
-1736.498146421871
 31
0.0
  0
LINE
  5
718B
330
6678
100
AcDbEntity
  8
1外形線
  6
Continuous
370
    15
100
AcDbLine
 10
982.81939788043
 20
-1741.498146310054
 30
0.0
 11
983.7450282114257
 21
-1741.498146310054
 31
0.0
  0
LINE
  5
718C
330
6678
100
AcDbEntity
  8
1外形線
  6
Continuous
370
    15
100
AcDbLine
 10
891.878974570627
 20
-1741.498146310054
 30
0.0
 11
892.8046049016373
 21
-1741.498146310054
 31
0.0
  0
LINE
  5
718D
330
6678
100
AcDbEntity
  8
1外形線
  6
Continuous
370
    15
100
AcDbLine
 10
983.5450583535383
 20
-1701.498147204153
 30
0.0
 11
937.8120013910191
 21
-1701.498147204153
 31
0.0
  0
LINE
  5
718E
330
6678
100
AcDbEntity
  8
1外形線
  6
Continuous
370
    15
100
AcDbLine
 10
892.9905490416384
 20
-1701.498147204153
 30
0.0
 11
892.078944428529
 21
-1701.498147204153
 31
0.0
  0
LINE
  5
718F
330
6678
100
AcDbEntity
  8
1外形線
  6
Continuous
370
    15
100
AcDbLine
 10
891.0790988641345
 20
-1736.498146421871
 30
0.0
 11
890.9120009678261
 21
-1736.498146421871
 31
0.0
  0
ELLIPSE
  5
7190
330
6678
100
AcDbEntity
  8
1外形線
  6
Continuous
370
    15
100
AcDbEllipse
 10
890.9120013910321
 20
-1736.698146310066
 30
0.0
 11
-0.2000304656087906
 21
-0.0000000000000001
 31
0.0
210
0.0
220
0.0
230
-1.0
 40
0.9998476951999998
 41
0.0
 42
1.570796326794897
  0
LINE
  5
7191
330
6678
100
AcDbEntity
  8
1外形線
  6
Continuous
370
    15
100
AcDbLine
 10
890.7119715052356
 20
-1736.698146082154
 30
0.0
 11
890.7119715052356
 21
-1740.498146262658
 31
0.0
  0
LINE
  5
7192
330
6678
100
AcDbEntity
  8
1外形線
  6
Continuous
370
    15
100
AcDbLine
 10
984.7120018142266
 20
-1736.498146421871
 30
0.0
 11
984.5449039178308
 21
-1736.498146421871
 31
0.0
  0
ELLIPSE
  5
7193
330
6678
100
AcDbEntity
  8
1外形線
  6
Continuous
370
    15
100
AcDbEllipse
 10
984.7120013910277
 20
-1736.698146310066
 30
0.0
 11
-0.2000304656087621
 21
-0.0000000000000001
 31
0.0
210
0.0
220
0.0
230
-1.0
 40
0.9998476951999998
 41
1.570796326794897
 42
3.141592653589774
  0
LINE
  5
7194
330
6678
100
AcDbEntity
  8
1外形線
  6
Continuous
370
    15
100
AcDbLine
 10
984.9120312768317
 20
-1736.698146082154
 30
0.0
 11
984.9120312768317
 21
-1740.498146262658
 31
0.0
  0
ELLIPSE
  5
7195
330
6678
100
AcDbEntity
  8
1外形線
  6
Continuous
370
    15
100
AcDbEllipse
 10
891.7121232534226
 20
-1740.498146310054
 30
0.0
 11
-1.000152328043895
 21
-0.0000000000000003
 31
0.0
210
0.0
220
0.0
230
-1.0
 40
0.9998476951999998
 41
4.712388980384703
 42
6.283185307179585
  0
LINE
  5
7196
330
6678
100
AcDbEntity
  8
1外形線
  6
Continuous
370
    15
100
AcDbLine
 10
891.7121225434346
 20
-1741.498146310054
 30
0.0
 11
891.878974570627
 21
-1741.498146310054
 31
0.0
  0
ELLIPSE
  5
7197
330
6678
100
AcDbEntity
  8
1外形線
  6
Continuous
370
    15
100
AcDbEllipse
 10
983.9118795286301
 20
-1740.498146310054
 30
0.0
 11
-1.000152328043895
 21
-0.0000000000000003
 31
0.0
210
0.0
220
0.0
230
-1.0
 40
0.9998476951999998
 41
3.14159265358979
 42
4.712388980384703
  0
LINE
  5
7198
330
6678
100
AcDbEntity
  8
1外形線
  6
Continuous
370
    15
100
AcDbLine
 10
983.7450282114257
 20
-1741.498146310054
 30
0.0
 11
983.9118802386327
 21
-1741.498146310054
 31
0.0
  0
ELLIPSE
  5
7199
330
6678
100
AcDbEntity
  8
1外形線
  6
Continuous
370
    15
100
AcDbEllipse
 10
983.7118490629325
 20
-1702.49814631004
 30
0.0
 11
-1.000152328043895
 21
-0.0000000000000003
 31
0.0
210
0.0
220
0.0
230
-1.0
 40
0.9998476951999998
 41
1.570796326794897
 42
3.141592653589792
  0
LINE
  5
719A
330
6678
100
AcDbEntity
  8
1外形線
  6
Continuous
370
    15
100
AcDbLine
 10
983.7118507760276
 20
-1701.498147204153
 30
0.0
 11
983.5450583535383
 21
-1701.498147204153
 31
0.0
  0
ELLIPSE
  5
719B
330
6678
100
AcDbEntity
  8
1外形線
  6
Continuous
370
    15
100
AcDbEllipse
 10
891.9121537190182
 20
-1702.498146310054
 30
0.0
 11
-1.000152328043895
 21
-0.0000000000000003
 31
0.0
210
0.0
220
0.0
230
-1.0
 40
0.9998476951999998
 41
0.0
 42
1.570796326794897
  0
LINE
  5
719C
330
6678
100
AcDbEntity
  8
1外形線
  6
Continuous
370
    15
100
AcDbLine
 10
892.078944428529
 20
-1701.498147204153
 30
0.0
 11
891.9121520060397
 21
-1701.498147204153
 31
0.0
  0
LINE
  5
719D
330
6678
100
AcDbEntity
  8
1外形線
  6
Continuous
370
    15
100
AcDbLine
 10
984.7120018142266
 20
-1702.498145505464
 30
0.0
 11
984.7120018142266
 21
-1736.498146421871
 31
0.0
  0
LINE
  5
719E
330
6678
100
AcDbEntity
  8
1外形線
  6
Continuous
370
    15
100
AcDbLine
 10
890.9120009678261
 20
-1702.498145505464
 30
0.0
 11
890.9120009678261
 21
-1736.498146421871
 31
0.0
  0
ELLIPSE
  5
719F
330
6678
100
AcDbEntity
  8
1外形線
  6
Continuous
370
    15
100
AcDbEllipse
 10
982.0120775550128
 20
-1700.998146310069
 30
0.0
 11
0.500076164021948
 21
0.0000000000000001
 31
0.0
210
0.0
220
0.0
230
-1.0
 40
0.9998476951999998
 41
1.570796326794897
 42
3.141592653589792
  0
ELLIPSE
  5
71A0
330
6678
100
AcDbEntity
  8
1外形線
  6
Continuous
370
    15
100
AcDbEllipse
 10
893.6119252270033
 20
-1700.998146310054
 30
0.0
 11
0.500076164021948
 21
0.0000000000000001
 31
0.0
210
0.0
220
0.0
230
-1.0
 40
0.9998476951999998
 41
0.0
 42
1.570796326794897
  0
ARC
  5
71A1
330
6678
100
AcDbEntity
  8
1外形線
  6
Continuous
370
    15
100
AcDbCircle
 10
875.9120013910248
 20
-1697.998146310054
 30
0.0
 40
105.6
100
AcDbArc
 50
0.0
 51
43.64343835393464
  0
ARC
  5
71A2
330
6678
100
AcDbEntity
  8
1外形線
  6
Continuous
370
    15
100
AcDbCircle
 10
875.9120013910248
 20
-1697.998146310054
 30
0.0
 40
18.19999999999999
100
AcDbArc
 50
0.0
 51
37.10472549175182
  0
LINE
  5
71A3
330
6678
100
AcDbEntity
  8
1外形線
  6
Continuous
370
    15
100
AcDbLine
 10
894.112002982434
 20
-1700.998146190845
 30
0.0
 11
894.112002982434
 21
-1697.998147561752
 31
0.0
  0
LINE
  5
71A4
330
6678
100
AcDbEntity
  8
1外形線
  6
Continuous
370
    15
100
AcDbLine
 10
981.5119997995314
 20
-1700.99814619086
 30
0.0
 11
981.5119997995314
 21
-1697.998147561766
 31
0.0
  0
LINE
  5
71A5
330
6678
100
AcDbEntity
  8
1外形線
  6
Continuous
370
    15
100
AcDbLine
 10
836.6334380954974
 20
-1611.216288613096
 30
0.0
 11
836.6334380954828
 21
-1604.802569927588
 31
0.0
  0
LINE
  5
71A6
330
6678
100
AcDbEntity
  8
1外形線
  6
Continuous
370
    15
100
AcDbLine
 10
836.6334380954828
 20
-1659.708712803082
 30
0.0
 11
836.6334380954974
 21
-1611.216288613096
 31
0.0
  0
LINE
  5
71A7
330
6678
100
AcDbEntity
  8
1外形線
  6
Continuous
370
    15
100
AcDbLine
 10
836.6334380954974
 20
-1666.12243148859
 30
0.0
 11
836.6334380954828
 21
-1659.708712803082
 31
0.0
  0
LINE
  5
71A8
330
6678
100
AcDbEntity
  8
1外形線
  6
Continuous
370
    15
100
AcDbLine
 10
831.6334382071834
 20
-1611.216288613067
 30
0.0
 11
831.6334382071834
 21
-1659.708712803082
 31
0.0
  0
LINE
  5
71A9
330
6678
100
AcDbEntity
  8
1外形線
  6
Continuous
370
    15
100
AcDbLine
 10
831.6334382071834
 20
-1605.169067712383
 30
0.0
 11
831.6334382071834
 21
-1611.216288613067
 31
0.0
  0
LINE
  5
71AA
330
6678
100
AcDbEntity
  8
1外形線
  6
Continuous
370
    15
100
AcDbLine
 10
831.6334382071834
 20
-1659.708712803082
 30
0.0
 11
831.633438207198
 21
-1665.755933703795
 31
0.0
  0
LINE
  5
71AB
330
6678
100
AcDbEntity
  8
1外形線
  6
Continuous
370
    15
100
AcDbLine
 10
889.6846704558008
 20
-1687.761016743198
 30
0.0
 11
953.0717701092832
 21
-1624.373913364367
 31
0.0
  0
LINE
  5
71AC
330
6678
100
AcDbEntity
  8
1外形線
  6
Continuous
370
    15
100
AcDbLine
 10
836.6334380954974
 20
-1681.2136737573
 30
0.0
 11
836.6334380954974
 21
-1666.12243148859
 31
0.0
  0
LINE
  5
71AD
330
6678
100
AcDbEntity
  8
1外形線
  6
Continuous
370
    15
100
AcDbLine
 10
836.6334380954828
 20
-1604.802569927588
 30
0.0
 11
836.6334380954974
 21
-1589.711327658877
 31
0.0
  0
LINE
  5
71AE
330
6678
100
AcDbEntity
  8
1外形線
  6
Continuous
370
    15
100
AcDbLine
 10
831.6334382071834
 20
-1590.455104218678
 30
0.0
 11
831.6334382071834
 21
-1605.169067712383
 31
0.0
  0
LINE
  5
71AF
330
6678
100
AcDbEntity
  8
1外形線
  6
Continuous
370
    15
100
AcDbLine
 10
831.633438207198
 20
-1665.755933703795
 30
0.0
 11
831.6334382071834
 21
-1680.469897197471
 31
0.0
  0
LINE
  5
71B0
330
6678
100
AcDbEntity
  8
1外形線
  6
Continuous
370
    15
100
AcDbLine
 10
836.6334380954828
 20
-1682.195403234973
 30
0.0
 11
836.6334380954974
 21
-1681.2136737573
 31
0.0
  0
LINE
  5
71B1
330
6678
100
AcDbEntity
  8
1外形線
  6
Continuous
370
    15
100
AcDbLine
 10
836.6334380954974
 20
-1589.711327658877
 30
0.0
 11
836.6334380954828
 21
-1588.729598181292
 31
0.0
  0
LINE
  5
71B2
330
6678
100
AcDbEntity
  8
1外形線
  6
Continuous
370
    15
100
AcDbLine
 10
831.6334382071834
 20
-1680.469897197471
 30
0.0
 11
831.633438207198
 21
-1681.395527528481
 31
0.0
  0
LINE
  5
71B3
330
6678
100
AcDbEntity
  8
1外形線
  6
Continuous
370
    15
100
AcDbLine
 10
831.6334382071834
 20
-1589.529473887668
 30
0.0
 11
831.6334382071834
 21
-1590.455104218678
 31
0.0
  0
LWPOLYLINE
  5
71B4
330
6678
100
AcDbEntity
  8
1外形線
  6
Continuous
370
    15
100
AcDbPolyline
 90
       11
 70
   128
 43
0.0
 10
953.0717701092832
 20
-1624.373913364367
 10
953.2152831926977
 20
-1624.230404006287
 10
953.3412278070935
 20
-1624.104458460496
 10
953.4493580832966
 20
-1623.996329115557
 10
953.5394505038892
 20
-1623.906235763656
 10
953.6113262548786
 20
-1623.834360943989
 10
953.6648363247838
 20
-1623.780849011555
 10
953.6998764053022
 20
-1623.745808930979
 10
953.8344724744417
 20
-1623.611190064867
 42
0.4141889148648911
 10
953.8344122270826
 20
-1622.197036009862
 10
952.0666569843923
 20
-1620.429282629774
  0
LINE
  5
71B5
330
6678
100
AcDbEntity
  8
1外形線
  6
Continuous
370
    15
100
AcDbLine
 10
889.0400685742822
 20
-1688.405618624673
 30
0.0
 11
889.6846704558008
 21
-1687.761016743198
 31
0.0
  0
LINE
  5
71B6
330
6678
100
AcDbEntity
  8
1外形線
  6
Continuous
370
    15
100
AcDbLine
 10
836.6334380954828
 20
-1588.729598181292
 30
0.0
 11
836.6334380954828
 21
-1588.562500284896
 31
0.0
  0
ELLIPSE
  5
71B7
330
6678
100
AcDbEntity
  8
1外形線
  6
Continuous
370
    15
100
AcDbEllipse
 10
836.4334382071863
 20
-1588.562500708095
 30
0.0
 11
-0.000000000000012
 21
0.2000304656087906
 31
0.0
210
0.0
220
0.0
230
-1.0
 40
0.9998476951999998
 41
0.0
 42
1.570796326794897
  0
LINE
  5
71B8
330
6678
100
AcDbEntity
  8
1外形線
  6
Continuous
370
    15
100
AcDbLine
 10
836.4334384351858
 20
-1588.362470822378
 30
0.0
 11
832.6334382546955
 21
-1588.362470822378
 31
0.0
  0
LINE
  5
71B9
330
6678
100
AcDbEntity
  8
1外形線
  6
Continuous
370
    15
100
AcDbLine
 10
836.4334384352002
 20
-1682.562530593887
 30
0.0
 11
832.6334382546955
 21
-1682.562530593887
 31
0.0
  0
LINE
  5
71BA
330
6678
100
AcDbEntity
  8
1外形線
  6
Continuous
370
    15
100
AcDbLine
 10
836.6334380954974
 20
-1682.362501131282
 30
0.0
 11
836.6334380954828
 21
-1682.195403234973
 31
0.0
  0
ELLIPSE
  5
71BB
330
6678
100
AcDbEntity
  8
1外形線
  6
Continuous
370
    15
100
AcDbEllipse
 10
836.4334382072009
 20
-1682.362500708083
 30
0.0
 11
-0.000000000000012
 21
0.2000304656087906
 31
0.0
210
0.0
220
0.0
230
-1.0
 40
0.9998476951999998
 41
1.570796326794897
 42
3.141592653589774
  0
ELLIPSE
  5
71BC
330
6678
100
AcDbEntity
  8
1外形線
  6
Continuous
370
    15
100
AcDbEllipse
 10
832.6334382071834
 20
-1589.362622570594
 30
0.0
 11
-0.00000000000006
 21
1.000152328043895
 31
0.0
210
0.0
220
0.0
230
-1.0
 40
0.9998476951999998
 41
4.712388980384703
 42
6.283185307179585
  0
LINE
  5
71BD
330
6678
100
AcDbEntity
  8
1外形線
  6
Continuous
370
    15
100
AcDbLine
 10
831.6334382071834
 20
-1589.36262186049
 30
0.0
 11
831.6334382071834
 21
-1589.529473887668
 31
0.0
  0
ELLIPSE
  5
71BE
330
6678
100
AcDbEntity
  8
1外形線
  6
Continuous
370
    15
100
AcDbEllipse
 10
832.6334382071834
 20
-1681.562378845671
 30
0.0
 11
-0.00000000000006
 21
1.000152328043895
 31
0.0
210
0.0
220
0.0
230
-1.0
 40
0.9998476951999998
 41
3.14159265358979
 42
4.712388980384703
  0
LINE
  5
71BF
330
6678
100
AcDbEntity
  8
1外形線
  6
Continuous
370
    15
100
AcDbLine
 10
831.633438207198
 20
-1681.395527528481
 30
0.0
 11
831.6334382071834
 21
-1681.562379555688
 31
0.0
  0
ARC
  5
71C0
330
6678
100
AcDbEntity
  8
1外形線
  6
Continuous
370
    15
100
AcDbCircle
 10
875.1334382071979
 20
-1697.362500708083
 30
0.0
 40
108.8
100
AcDbArc
 50
45.00000000030397
 51
90.0
  0
ELLIPSE
  5
71C1
330
6678
100
AcDbEntity
  8
1外形線
  6
Continuous
370
    15
100
AcDbEllipse
 10
888.2150213713938
 20
-1687.816451449877
 30
0.0
 11
-0.7072144933793113
 21
-0.7072144933794532
 31
0.0
210
0.0
220
0.0
230
-1.0
 40
0.9998476951999998
 41
4.712388980384784
 42
6.283185307179585
  0
LINE
  5
71C2
330
6678
100
AcDbEntity
  8
1外形線
  6
Continuous
370
    15
100
AcDbLine
 10
888.9221296086942
 20
-1688.52355759029
 30
0.0
 11
889.0400685742822
 21
-1688.405618624673
 31
0.0
  0
LINE
  5
71C3
330
6678
100
AcDbEntity
  8
1外形線
  6
Continuous
370
    15
100
AcDbLine
 10
887.5078082456928
 20
-1688.52366562368
 30
0.0
 11
885.7400387897831
 21
-1686.75589989306
 31
0.0
  0
ARC
  5
71C4
330
6678
100
AcDbEntity
  8
1外形線
  6
Continuous
370
    15
100
AcDbCircle
 10
875.1334382071979
 20
-1697.362500708083
 30
0.0
 40
15.0
100
AcDbArc
 50
45.00000000030397
 51
90.0
  0
LINE
  5
71C5
330
6678
100
AcDbEntity
  8
1外形線
  6
Continuous
370
    15
100
AcDbLine
 10
875.1334369554859
 20
-1588.562500284896
 30
0.0
 11
836.6334380954828
 21
-1588.562500284896
 31
0.0
  0
LINE
  5
71C6
330
6678
100
AcDbEntity
  8
1外形線
  6
Continuous
370
    15
100
AcDbLine
 10
875.1334369554859
 20
-1682.362501131282
 30
0.0
 11
836.6334380954974
 21
-1682.362501131282
 31
0.0
  0
LINE
  5
71C7
330
6678
100
AcDbEntity
  8
2寸法線
100
AcDbLine
 10
704.7141552703781
 20
-1635.462500708088
 30
0.0
 11
792.3141552703782
 21
-1635.462500708089
 31
0.0
  0
LINE
  5
71C8
330
6678
100
AcDbEntity
  8
2寸法線
100
AcDbLine
 10
957.6138023880858
 20
-1614.882135479932
 30
0.0
 11
878.7247024426466
 21
-1693.771235425371
 31
0.0
  0
LINE
  5
71C9
330
6678
100
AcDbEntity
  8
2寸法線
100
AcDbLine
 10
541.41450815267
 20
-1614.882135479932
 30
0.0
 11
620.3036080981092
 21
-1693.771235425371
 31
0.0
  0
LINE
  5
71CA
330
6678
100
AcDbEntity
  8
2寸法線
100
AcDbLine
 10
583.8186405016727
 20
-1779.757157303565
 30
0.0
 11
629.5975293934962
 21
-1890.277171736576
 31
0.0
  0
LINE
  5
71CF
330
6678
100
AcDbEntity
  8
1外形線
  6
Continuous
370
    15
100
AcDbLine
 10
914.8120013910263
 20
-1736.498146421871
 30
0.0
 11
913.565789296026
 21
-1736.498146421871
 31
0.0
  0
ENDSEC
  0
SECTION
  2
OBJECTS
  0
DICTIONARY
  5
660E
330
0
100
AcDbDictionary
281
     1
  3
ACAD_COLOR
350
666F
  3
ACAD_GROUP
350
660F
  3
ACAD_LAYOUT
350
666E
  3
ACAD_MATERIAL
350
6612
  3
ACAD_MLEADERSTYLE
350
6672
  3
ACAD_MLINESTYLE
350
666B
  3
ACAD_PLOTSETTINGS
350
666D
  3
ACAD_PLOTSTYLENAME
350
6610
  3
ACAD_SCALELIST
350
663F
  3
ACAD_TABLESTYLE
350
6670
  3
ACAD_VISUALSTYLE
350
662B
  3
ACDB_RECOMPOSE_DATA
350
720C
  3
AcDbVariableDictionary
350
6723
  3
DWGPROPS
350
720D
  0
DICTIONARY
  5
681E
330
6604
100
AcDbDictionary
280
     1
281
     1
  3
ACAD_LAYERSTATES
360
681F
  0
DICTIONARY
  5
671D
330
6661
100
AcDbDictionary
280
     1
281
     1
  3
ADSK_XREC_LAYER_RECONCILED
360
671E
  0
DICTIONARY
  5
671F
330
667C
100
AcDbDictionary
280
     1
281
     1
  3
ADSK_XREC_LAYER_RECONCILED
360
6720
  0
DICTIONARY
  5
6721
330
667F
100
AcDbDictionary
280
     1
281
     1
  3
ADSK_XREC_LAYER_RECONCILED
360
6722
  0
DICTIONARY
  5
6811
330
6810
100
AcDbDictionary
280
     1
281
     1
  0
DICTIONARY
  5
6813
330
6812
100
AcDbDictionary
280
     1
281
     1
  0
DICTIONARY
  5
7171
330
6678
100
AcDbDictionary
280
     1
281
     1
  3
ACAD_SORTENTS
360
7172
  0
DICTIONARY
  5
666F
102
{ACAD_REACTORS
330
660E
102
}
330
660E
100
AcDbDictionary
281
     1
  0
DICTIONARY
  5
660F
102
{ACAD_REACTORS
330
660E
102
}
330
660E
100
AcDbDictionary
281
     1
  0
DICTIONARY
  5
666E
102
{ACAD_REACTORS
330
660E
102
}
330
660E
100
AcDbDictionary
281
     1
  3
Model
350
667B
  3
レイアウト1
350
6677
  0
DICTIONARY
  5
6612
102
{ACAD_REACTORS
330
660E
102
}
330
660E
100
AcDbDictionary
281
     1
  3
ByBlock
350
661B
  3
ByLayer
350
6613
  3
Global
350
6623
  0
DICTIONARY
  5
6672
102
{ACAD_REACTORS
330
660E
102
}
330
660E
100
AcDbDictionary
281
     1
  3
Standard
350
6673
  0
DICTIONARY
  5
666B
102
{ACAD_REACTORS
330
660E
102
}
330
660E
100
AcDbDictionary
281
     1
  3
Standard
350
666C
  0
DICTIONARY
  5
666D
102
{ACAD_REACTORS
330
660E
102
}
330
660E
100
AcDbDictionary
281
     1
  0
ACDBDICTIONARYWDFLT
  5
6610
102
{ACAD_REACTORS
330
660E
102
}
330
660E
100
AcDbDictionary
281
     1
  3
Normal
350
6611
100
AcDbDictionaryWithDefault
340
6611
  0
DICTIONARY
  5
663F
102
{ACAD_REACTORS
330
660E
102
}
330
660E
100
AcDbDictionary
281
     1
  3
A0
350
6640
  3
A1
350
6641
  3
A2
350
6642
  3
A3
350
6643
  3
A4
350
6644
  3
A5
350
6645
  3
A6
350
6646
  3
A7
350
6647
  3
A8
350
6648
  3
A9
350
6649
  3
B0
350
664A
  3
B1
350
664B
  3
B2
350
664C
  3
B3
350
664D
  3
B4
350
664E
  3
B5
350
664F
  3
B6
350
6650
  3
B7
350
6651
  3
B8
350
6652
  3
B9
350
6653
  3
C0
350
6654
  3
C1
350
6655
  3
C2
350
6656
  3
C3
350
6657
  3
C4
350
6658
  3
C5
350
6659
  3
C6
350
665A
  3
C7
350
665B
  3
C8
350
665C
  3
C9
350
665D
  3
D0
350
665E
  3
D1
350
665F
  3
D2
350
6660
  0
DICTIONARY
  5
6670
102
{ACAD_REACTORS
330
660E
102
}
330
660E
100
AcDbDictionary
281
     1
  3
Standard
350
6671
  0
DICTIONARY
  5
662B
102
{ACAD_REACTORS
330
660E
102
}
330
660E
100
AcDbDictionary
281
     1
  3
2dWireframe
350
6631
  3
3D Hidden
350
6633
  3
3dWireframe
350
6632
  3
Basic
350
6630
  3
Brighten
350
6637
  3
ColorChange
350
663B
  3
Conceptual
350
6634
  3
Dim
350
6636
  3
EdgeColorOff
350
663E
  3
Facepattern
350
663A
  3
Flat
350
662C
  3
FlatWithEdges
350
662D
  3
Gouraud
350
662E
  3
GouraudWithEdges
350
662F
  3
JitterOff
350
663C
  3
Linepattern
350
6639
  3
OverhangOff
350
663D
  3
Realistic
350
6635
  3
Thicken
350
6638
  3
Wireframe
350
681D
  0
XRECORD
  5
720C
102
{ACAD_REACTORS
330
660E
102
}
330
660E
100
AcDbXrecord
280
     1
 90
        1
330
6671
  0
DICTIONARY
  5
6723
102
{ACAD_REACTORS
330
660E
102
}
330
660E
100
AcDbDictionary
281
     1
  3
CANNOSCALE
350
6727
  3
CMLEADERSTYLE
350
6725
  3
CTABLESTYLE
350
6724
  3
DIMASSOC
350
71D2
  3
INDEXCTL
350
71D1
  3
LAYEREVAL
350
6729
  3
LAYERNOTIFY
350
672A
  3
LIGHTINGUNITS
350
6728
  3
LOFTANG1
350
71D3
  3
LOFTANG2
350
71D4
  3
LONGITUDE
350
71D5
  3
MSLTSCALE
350
6726
  3
SORTENTS
350
71D0
  3
XCLIPFRAME
350
71D6
  0
XRECORD
  5
720D
102
{ACAD_REACTORS
330
660E
102
}
330
660E
100
AcDbXrecord
280
     1
  1
DWGPROPS COOKIE
  2

  3

  4

  6

  7

  8
ryota.matsumura
  9

300
=
301
=
302
=
303
=
304
=
305
=
306
=
307
=
308
=
309
=
 40
0.0642130787037037
 41
2454393.806994896
 42
2458547.669262998
  1

 90
        0
  0
DICTIONARY
  5
681F
102
{ACAD_REACTORS
330
681E
102
}
330
681E
100
AcDbDictionary
281
     1
  0
XRECORD
  5
671E
102
{ACAD_REACTORS
330
671D
102
}
330
671D
100
AcDbXrecord
280
     1
290
     1
  0
XRECORD
  5
6720
102
{ACAD_REACTORS
330
671F
102
}
330
671F
100
AcDbXrecord
280
     1
290
     1
  0
XRECORD
  5
6722
102
{ACAD_REACTORS
330
6721
102
}
330
6721
100
AcDbXrecord
280
     1
290
     1
  0
SORTENTSTABLE
  5
7172
102
{ACAD_REACTORS
330
7171
102
}
330
7171
100
AcDbSortentsTable
330
6678
331
71B1
  5
71B2
331
71A0
  5
71A1
331
71C2
  5
71C3
331
70EC
  5
70EC
331
70E2
  5
70E2
331
711F
  5
711F
331
7130
  5
7130
331
7061
  5
7061
331
717E
  5
717E
331
718F
  5
7190
331
70AF
  5
70AF
331
709E
  5
709E
331
708D
  5
708D
331
71B2
  5
71B3
331
71A1
  5
71A2
331
7190
  5
7191
331
71C3
  5
71C4
331
70ED
  5
70ED
331
70E3
  5
70E3
331
70B0
  5
70B0
331
7120
  5
7120
331
7131
  5
7131
331
7062
  5
7062
331
7051
  5
7051
331
717F
  5
717F
331
709F
  5
709F
331
708E
  5
708E
331
7180
  5
7181
331
71B3
  5
71B4
331
71A2
  5
71A3
331
7191
  5
7192
331
71C4
  5
71C5
331
70EE
  5
70EE
331
70E4
  5
70E4
331
70B1
  5
70B1
331
70A0
  5
70A0
331
7110
  5
7110
331
7121
  5
7121
331
7052
  5
7052
331
7063
  5
7063
331
7154
  5
7154
331
708F
  5
708F
331
7170
  5
715A
331
7181
  5
7182
331
71B4
  5
71B5
331
71A3
  5
71A4
331
7192
  5
7193
331
71C5
  5
71C6
331
70EF
  5
70EF
331
70E5
  5
70E5
331
70B2
  5
70B2
331
70A1
  5
70A1
331
7090
  5
7090
331
7111
  5
7111
331
7122
  5
7122
331
7053
  5
7053
331
7064
  5
7064
331
7182
  5
7183
331
71B5
  5
71B6
331
71A4
  5
71A5
331
7193
  5
7194
331
71C6
  5
71C7
331
70F0
  5
70F0
331
70E6
  5
70E6
331
70B3
  5
70B3
331
70A2
  5
70A2
331
7091
  5
7091
331
7112
  5
7112
331
7123
  5
7123
331
7054
  5
7054
331
7065
  5
7065
331
7156
  5
7157
331
7183
  5
7184
331
71A5
  5
71A6
331
7194
  5
7195
331
71B6
  5
71B7
331
71C7
  5
71C8
331
70F1
  5
70F1
331
70E7
  5
70E7
331
70D6
  5
70D6
331
70B4
  5
70B4
331
70A3
  5
70A3
331
7070
  5
7070
331
7113
  5
7113
331
7124
  5
7124
331
7055
  5
7055
331
7066
  5
7066
331
7157
  5
7158
331
7158
  5
7159
331
7162
  5
7164
331
7173
  5
7155
331
7184
  5
7185
331
71A6
  5
71A7
331
7195
  5
7196
331
71C8
  5
71C9
331
71B7
  5
71B8
331
70F2
  5
70F2
331
70D7
  5
70D7
331
70B5
  5
70B5
331
70A4
  5
70A4
331
7071
  5
7071
331
7114
  5
7114
331
7125
  5
7125
331
7067
  5
7067
331
7056
  5
7056
331
7068
  5
7068
331
7163
  5
7165
331
7185
  5
7186
331
71A7
  5
71A8
331
7196
  5
7197
331
71C9
  5
71CA
331
71B8
  5
71B9
331
70F3
  5
70F3
331
70D8
  5
70D8
331
70B6
  5
70B6
331
70A5
  5
70A5
331
7159
  5
715B
331
7115
  5
7115
331
7126
  5
7126
331
7057
  5
7057
331
7069
  5
7069
331
7058
  5
7058
331
7164
  5
7166
331
7186
  5
7187
331
71A8
  5
71A9
331
7197
  5
7198
331
71CA
  5
71CB
331
71B9
  5
71BA
331
70F4
  5
70F4
331
70D9
  5
70D9
331
70B7
  5
70B7
331
70A6
  5
70A6
331
715A
  5
715C
331
7127
  5
7127
331
7128
  5
7128
331
7059
  5
7059
331
706A
  5
706A
331
7165
  5
7167
331
7187
  5
7188
331
71A9
  5
71AA
331
7198
  5
7199
331
71BA
  5
71BB
331
70F5
  5
70F5
331
70DA
  5
70DA
331
70B8
  5
70B8
331
70A7
  5
70A7
331
715B
  5
715D
331
7117
  5
7117
331
7118
  5
7118
331
7129
  5
7129
331
705A
  5
705A
331
706B
  5
706B
331
7166
  5
7168
331
7188
  5
7189
331
71AA
  5
71AB
331
7199
  5
719A
331
71BB
  5
71BC
331
70DB
  5
70DB
331
70B9
  5
70B9
331
70A8
  5
70A8
331
715C
  5
715E
331
7119
  5
7119
331
712A
  5
712A
331
705B
  5
705B
331
706C
  5
706C
331
7167
  5
7169
331
71AB
  5
71AC
331
719A
  5
719B
331
7189
  5
718A
331
71BC
  5
71BD
331
70DC
  5
70DC
331
70A9
  5
70A9
331
7098
  5
7098
331
715D
  5
715F
331
711A
  5
711A
331
712B
  5
712B
331
705C
  5
705C
331
706D
  5
706D
331
7168
  5
716A
331
71AC
  5
71AD
331
719B
  5
719C
331
718A
  5
718B
331
71BD
  5
71BE
331
70DD
  5
70DD
331
70AA
  5
70AA
331
7099
  5
7099
331
715E
  5
7160
331
70E8
  5
70E8
331
711B
  5
711B
331
712C
  5
712C
331
705D
  5
705D
331
706E
  5
706E
331
71AD
  5
71AE
331
719C
  5
719D
331
718B
  5
718C
331
71BE
  5
71BF
331
71CF
  5
7180
331
70DE
  5
70DE
331
70AB
  5
70AB
331
709A
  5
709A
331
7169
  5
716B
331
70E9
  5
70E9
331
711C
  5
711C
331
712D
  5
712D
331
705E
  5
705E
331
706F
  5
706F
331
717B
  5
717B
331
71AE
  5
71AF
331
719D
  5
719E
331
718C
  5
718D
331
71BF
  5
71C0
331
70DF
  5
70DF
331
70AC
  5
70AC
331
709B
  5
709B
331
716A
  5
7170
331
71C0
  5
71C1
331
70EA
  5
70EA
331
70E0
  5
70E0
331
711D
  5
711D
331
712E
  5
712E
331
705F
  5
705F
331
716B
  5
7173
331
717C
  5
717C
331
71AF
  5
71B0
331
719E
  5
719F
331
718D
  5
718E
331
70AD
  5
70AD
331
709C
  5
709C
331
71B0
  5
71B1
331
71C1
  5
71C2
331
70EB
  5
70EB
331
70E1
  5
70E1
331
711E
  5
711E
331
712F
  5
712F
331
7060
  5
7060
331
717D
  5
717D
331
719F
  5
71A0
331
718E
  5
718F
331
70AE
  5
70AE
331
709D
  5
709D
331
708C
  5
708C
  0
LAYOUT
  5
667B
102
{ACAD_XDICTIONARY
360
723B
102
}
102
{ACAD_REACTORS
330
666E
102
}
330
666E
100
AcDbPlotSettings
  1

  2
RICOH IPSiO SP C710e
  4

  6

 40
0.0
 41
0.0
 42
0.0
 43
0.0
 44
0.0
 45
0.0
 46
0.0
 47
0.0
 48
0.0
 49
0.0
140
0.0
141
0.0
142
1.0
143
1.0
 70
  1712
 72
     0
 73
     0
 74
     0
  7

 75
     0
147
1.0
148
0.0
149
0.0
100
AcDbLayout
  1
Model
 70
     1
 71
     0
 10
0.0
 20
0.0
 11
12.0
 21
9.0
 12
0.0
 22
0.0
 32
0.0
 14
0.0
 24
0.0
 34
0.0
 15
0.0
 25
0.0
 35
0.0
146
0.0
 13
0.0
 23
0.0
 33
0.0
 16
1.0
 26
0.0
 36
0.0
 17
0.0
 27
1.0
 37
0.0
 76
     0
330
6678
331
667E
  0
LAYOUT
  5
6677
102
{ACAD_XDICTIONARY
360
7239
102
}
102
{ACAD_REACTORS
330
666E
102
}
330
666E
100
AcDbPlotSettings
  1

  2
RICOH IPSiO SP C710e
  4

  6

 40
0.0
 41
0.0
 42
0.0
 43
0.0
 44
0.0
 45
0.0
 46
0.0
 47
0.0
 48
0.0
 49
0.0
140
0.0
141
0.0
142
1.0
143
1.0
 70
   688
 72
     0
 73
     0
 74
     5
  7

 75
    16
147
1.0
148
0.0
149
0.0
100
AcDbLayout
  1
レイアウト1
 70
     1
 71
     1
 10
0.0
 20
0.0
 11
420.0
 21
297.0
 12
0.0
 22
0.0
 32
0.0
 14
1.000000000000000E+20
 24
1.000000000000000E+20
 34
1.000000000000000E+20
 15
-1.000000000000000E+20
 25
-1.000000000000000E+20
 35
-1.000000000000000E+20
146
0.0
 13
0.0
 23
0.0
 33
0.0
 16
1.0
 26
0.0
 36
0.0
 17
0.0
 27
1.0
 37
0.0
 76
     0
330
6674
  0
MATERIAL
  5
661B
102
{ACAD_XDICTIONARY
360
661C
102
}
102
{ACAD_REACTORS
330
6612
102
}
330
6612
100
AcDbMaterial
  1
ByBlock
 72
     0
 43
0.0208333333333333
 43
0.0
 43
0.0
 43
0.0
 43
0.0
 43
0.0208333333333333
 43
0.0
 43
0.0
 43
0.0
 43
0.0
 43
1.0
 43
0.0
 43
0.0
 43
0.0
 43
0.0
 43
1.0
 77
     0
 47
0.0208333333333333
 47
0.0
 47
0.0
 47
0.0
 47
0.0
 47
0.0208333333333333
 47
0.0
 47
0.0
 47
0.0
 47
0.0
 47
1.0
 47
0.0
 47
0.0
 47
0.0
 47
0.0
 47
1.0
171
     0
 49
0.0208333333333333
 49
0.0
 49
0.0
 49
0.0
 49
0.0
 49
0.0208333333333333
 49
0.0
 49
0.0
 49
0.0
 49
0.0
 49
1.0
 49
0.0
 49
0.0
 49
0.0
 49
0.0
 49
1.0
175
     0
142
0.0208333333333333
142
0.0
142
0.0
142
0.0
142
0.0
142
0.0208333333333333
142
0.0
142
0.0
142
0.0
142
0.0
142
1.0
142
0.0
142
0.0
142
0.0
142
0.0
142
1.0
179
     0
144
0.0208333333333333
144
0.0
144
0.0
144
0.0
144
0.0
144
0.0208333333333333
144
0.0
144
0.0
144
0.0
144
0.0
144
1.0
144
0.0
144
0.0
144
0.0
144
0.0
144
1.0
147
0.0208333333333333
147
0.0
147
0.0
147
0.0
147
0.0
147
0.0208333333333333
147
0.0
147
0.0
147
0.0
147
0.0
147
1.0
147
0.0
147
0.0
147
0.0
147
0.0
147
1.0
  0
MATERIAL
  5
6613
102
{ACAD_XDICTIONARY
360
6614
102
}
102
{ACAD_REACTORS
330
6612
102
}
330
6612
100
AcDbMaterial
  1
ByLayer
 72
     0
 43
0.0208333333333333
 43
0.0
 43
0.0
 43
0.0
 43
0.0
 43
0.0208333333333333
 43
0.0
 43
0.0
 43
0.0
 43
0.0
 43
1.0
 43
0.0
 43
0.0
 43
0.0
 43
0.0
 43
1.0
 77
     0
 47
0.0208333333333333
 47
0.0
 47
0.0
 47
0.0
 47
0.0
 47
0.0208333333333333
 47
0.0
 47
0.0
 47
0.0
 47
0.0
 47
1.0
 47
0.0
 47
0.0
 47
0.0
 47
0.0
 47
1.0
171
     0
 49
0.0208333333333333
 49
0.0
 49
0.0
 49
0.0
 49
0.0
 49
0.0208333333333333
 49
0.0
 49
0.0
 49
0.0
 49
0.0
 49
1.0
 49
0.0
 49
0.0
 49
0.0
 49
0.0
 49
1.0
175
     0
142
0.0208333333333333
142
0.0
142
0.0
142
0.0
142
0.0
142
0.0208333333333333
142
0.0
142
0.0
142
0.0
142
0.0
142
1.0
142
0.0
142
0.0
142
0.0
142
0.0
142
1.0
179
     0
144
0.0208333333333333
144
0.0
144
0.0
144
0.0
144
0.0
144
0.0208333333333333
144
0.0
144
0.0
144
0.0
144
0.0
144
1.0
144
0.0
144
0.0
144
0.0
144
0.0
144
1.0
147
0.0208333333333333
147
0.0
147
0.0
147
0.0
147
0.0
147
0.0208333333333333
147
0.0
147
0.0
147
0.0
147
0.0
147
1.0
147
0.0
147
0.0
147
0.0
147
0.0
147
1.0
  0
MATERIAL
  5
6623
102
{ACAD_XDICTIONARY
360
6624
102
}
102
{ACAD_REACTORS
330
6612
102
}
330
6612
100
AcDbMaterial
  1
Global
 72
     0
 43
0.0208333333333333
 43
0.0
 43
0.0
 43
0.0
 43
0.0
 43
0.0208333333333333
 43
0.0
 43
0.0
 43
0.0
 43
0.0
 43
1.0
 43
0.0
 43
0.0
 43
0.0
 43
0.0
 43
1.0
 77
     0
 47
0.0208333333333333
 47
0.0
 47
0.0
 47
0.0
 47
0.0
 47
0.0208333333333333
 47
0.0
 47
0.0
 47
0.0
 47
0.0
 47
1.0
 47
0.0
 47
0.0
 47
0.0
 47
0.0
 47
1.0
171
     0
 49
0.0208333333333333
 49
0.0
 49
0.0
 49
0.0
 49
0.0
 49
0.0208333333333333
 49
0.0
 49
0.0
 49
0.0
 49
0.0
 49
1.0
 49
0.0
 49
0.0
 49
0.0
 49
0.0
 49
1.0
175
     0
142
0.0208333333333333
142
0.0
142
0.0
142
0.0
142
0.0
142
0.0208333333333333
142
0.0
142
0.0
142
0.0
142
0.0
142
1.0
142
0.0
142
0.0
142
0.0
142
0.0
142
1.0
179
     0
144
0.0208333333333333
144
0.0
144
0.0
144
0.0
144
0.0
144
0.0208333333333333
144
0.0
144
0.0
144
0.0
144
0.0
144
1.0
144
0.0
144
0.0
144
0.0
144
0.0
144
1.0
147
0.0208333333333333
147
0.0
147
0.0
147
0.0
147
0.0
147
0.0208333333333333
147
0.0
147
0.0
147
0.0
147
0.0
147
1.0
147
0.0
147
0.0
147
0.0
147
0.0
147
1.0
  0
MLEADERSTYLE
  5
6673
102
{ACAD_REACTORS
330
6672
102
}
330
6672
100
AcDbMLeaderStyle
170
     2
171
     1
172
     0
 90
        2
 40
0.0
 41
0.0
173
     1
 91
-1056964608
340
6667
 92
       -2
290
     1
 42
0.09
291
     1
 43
0.36
  3
Standard
 44
0.18
300

342
6662
174
     1
178
     6
175
     1
176
     0
 93
-1056964608
 45
0.18
292
     0
297
     0
 46
0.18
 94
-1056964608
 47
1.0
 49
1.0
140
1.0
293
     1
141
0.0
294
     1
177
     0
142
1.0
295
     0
296
     0
143
0.125
1001
ACAD_MLEADERVER
1070
     2
  0
MLINESTYLE
  5
666C
102
{ACAD_REACTORS
330
666B
102
}
330
666B
100
AcDbMlineStyle
  2
STANDARD
 70
     0
  3

 62
   256
 51
90.0
 52
90.0
 71
     2
 49
0.5
 62
   256
  6
BYLAYER
 49
-0.5
 62
   256
  6
BYLAYER
  0
ACDBPLACEHOLDER
  5
6611
102
{ACAD_REACTORS
330
6610
102
}
330
6610
  0
SCALE
  5
6640
102
{ACAD_REACTORS
330
663F
102
}
330
663F
100
AcDbScale
 70
     0
300
1:1
140
1.0
141
1.0
290
     1
  0
SCALE
  5
6641
102
{ACAD_REACTORS
330
663F
102
}
330
663F
100
AcDbScale
 70
     0
300
1:2
140
1.0
141
2.0
290
     0
  0
SCALE
  5
6642
102
{ACAD_REACTORS
330
663F
102
}
330
663F
100
AcDbScale
 70
     0
300
1:4
140
1.0
141
4.0
290
     0
  0
SCALE
  5
6643
102
{ACAD_REACTORS
330
663F
102
}
330
663F
100
AcDbScale
 70
     0
300
1:5
140
1.0
141
5.0
290
     0
  0
SCALE
  5
6644
102
{ACAD_REACTORS
330
663F
102
}
330
663F
100
AcDbScale
 70
     0
300
1:8
140
1.0
141
8.0
290
     0
  0
SCALE
  5
6645
102
{ACAD_REACTORS
330
663F
102
}
330
663F
100
AcDbScale
 70
     0
300
1:10
140
1.0
141
10.0
290
     0
  0
SCALE
  5
6646
102
{ACAD_REACTORS
330
663F
102
}
330
663F
100
AcDbScale
 70
     0
300
1:16
140
1.0
141
16.0
290
     0
  0
SCALE
  5
6647
102
{ACAD_REACTORS
330
663F
102
}
330
663F
100
AcDbScale
 70
     0
300
1:20
140
1.0
141
20.0
290
     0
  0
SCALE
  5
6648
102
{ACAD_REACTORS
330
663F
102
}
330
663F
100
AcDbScale
 70
     0
300
1:30
140
1.0
141
30.0
290
     0
  0
SCALE
  5
6649
102
{ACAD_REACTORS
330
663F
102
}
330
663F
100
AcDbScale
 70
     0
300
1:40
140
1.0
141
40.0
290
     0
  0
SCALE
  5
664A
102
{ACAD_REACTORS
330
663F
102
}
330
663F
100
AcDbScale
 70
     0
300
1:50
140
1.0
141
50.0
290
     0
  0
SCALE
  5
664B
102
{ACAD_REACTORS
330
663F
102
}
330
663F
100
AcDbScale
 70
     0
300
1:100
140
1.0
141
100.0
290
     0
  0
SCALE
  5
664C
102
{ACAD_REACTORS
330
663F
102
}
330
663F
100
AcDbScale
 70
     0
300
2:1
140
2.0
141
1.0
290
     0
  0
SCALE
  5
664D
102
{ACAD_REACTORS
330
663F
102
}
330
663F
100
AcDbScale
 70
     0
300
4:1
140
4.0
141
1.0
290
     0
  0
SCALE
  5
664E
102
{ACAD_REACTORS
330
663F
102
}
330
663F
100
AcDbScale
 70
     0
300
8:1
140
8.0
141
1.0
290
     0
  0
SCALE
  5
664F
102
{ACAD_REACTORS
330
663F
102
}
330
663F
100
AcDbScale
 70
     0
300
10:1
140
10.0
141
1.0
290
     0
  0
SCALE
  5
6650
102
{ACAD_REACTORS
330
663F
102
}
330
663F
100
AcDbScale
 70
     0
300
100:1
140
100.0
141
1.0
290
     0
  0
SCALE
  5
6651
102
{ACAD_REACTORS
330
663F
102
}
330
663F
100
AcDbScale
 70
     0
300
1/128" = 1'-0"
140
0.0078125
141
12.0
290
     0
  0
SCALE
  5
6652
102
{ACAD_REACTORS
330
663F
102
}
330
663F
100
AcDbScale
 70
     0
300
1/64" = 1'-0"
140
0.015625
141
12.0
290
     0
  0
SCALE
  5
6653
102
{ACAD_REACTORS
330
663F
102
}
330
663F
100
AcDbScale
 70
     0
300
1/32" = 1'-0"
140
0.03125
141
12.0
290
     0
  0
SCALE
  5
6654
102
{ACAD_REACTORS
330
663F
102
}
330
663F
100
AcDbScale
 70
     0
300
1/16" = 1'-0"
140
0.0625
141
12.0
290
     0
  0
SCALE
  5
6655
102
{ACAD_REACTORS
330
663F
102
}
330
663F
100
AcDbScale
 70
     0
300
3/32" = 1'-0"
140
0.09375
141
12.0
290
     0
  0
SCALE
  5
6656
102
{ACAD_REACTORS
330
663F
102
}
330
663F
100
AcDbScale
 70
     0
300
1/8" = 1'-0"
140
0.125
141
12.0
290
     0
  0
SCALE
  5
6657
102
{ACAD_REACTORS
330
663F
102
}
330
663F
100
AcDbScale
 70
     0
300
3/16" = 1'-0"
140
0.1875
141
12.0
290
     0
  0
SCALE
  5
6658
102
{ACAD_REACTORS
330
663F
102
}
330
663F
100
AcDbScale
 70
     0
300
1/4" = 1'-0"
140
0.25
141
12.0
290
     0
  0
SCALE
  5
6659
102
{ACAD_REACTORS
330
663F
102
}
330
663F
100
AcDbScale
 70
     0
300
3/8" = 1'-0"
140
0.375
141
12.0
290
     0
  0
SCALE
  5
665A
102
{ACAD_REACTORS
330
663F
102
}
330
663F
100
AcDbScale
 70
     0
300
1/2" = 1'-0"
140
0.5
141
12.0
290
     0
  0
SCALE
  5
665B
102
{ACAD_REACTORS
330
663F
102
}
330
663F
100
AcDbScale
 70
     0
300
3/4" = 1'-0"
140
0.75
141
12.0
290
     0
  0
SCALE
  5
665C
102
{ACAD_REACTORS
330
663F
102
}
330
663F
100
AcDbScale
 70
     0
300
1" = 1'-0"
140
1.0
141
12.0
290
     0
  0
SCALE
  5
665D
102
{ACAD_REACTORS
330
663F
102
}
330
663F
100
AcDbScale
 70
     0
300
1-1/2" = 1'-0"
140
1.5
141
12.0
290
     0
  0
SCALE
  5
665E
102
{ACAD_REACTORS
330
663F
102
}
330
663F
100
AcDbScale
 70
     0
300
3" = 1'-0"
140
3.0
141
12.0
290
     0
  0
SCALE
  5
665F
102
{ACAD_REACTORS
330
663F
102
}
330
663F
100
AcDbScale
 70
     0
300
6" = 1'-0"
140
6.0
141
12.0
290
     0
  0
SCALE
  5
6660
102
{ACAD_REACTORS
330
663F
102
}
330
663F
100
AcDbScale
 70
     0
300
1'-0" = 1'-0"
140
12.0
141
12.0
290
     0
  0
TABLESTYLE
  5
6671
102
{ACAD_XDICTIONARY
360
672B
102
}
102
{ACAD_REACTORS
330
6670
102
}
330
6670
100
AcDbTableStyle
  3
Standard
 70
     0
 71
     0
 40
0.06
 41
0.06
280
     0
281
     0
  7
STANDARD
140
0.18
170
     2
 62
     0
 63
     7
283
     0
274
    -2
284
     1
 64
     0
275
    -2
285
     1
 65
     0
276
    -2
286
     1
 66
     0
277
    -2
287
     1
 67
     0
278
    -2
288
     1
 68
     0
279
    -2
289
     1
 69
     0
  7
STANDARD
140
0.25
170
     5
 62
     0
 63
     7
283
     0
274
    -2
284
     1
 64
     0
275
    -2
285
     1
 65
     0
276
    -2
286
     1
 66
     0
277
    -2
287
     1
 67
     0
278
    -2
288
     1
 68
     0
279
    -2
289
     1
 69
     0
  7
STANDARD
140
0.18
170
     5
 62
     0
 63
     7
283
     0
274
    -2
284
     1
 64
     0
275
    -2
285
     1
 65
     0
276
    -2
286
     1
 66
     0
277
    -2
287
     1
 67
     0
278
    -2
288
     1
 68
     0
279
    -2
289
     1
 69
     0
  0
VISUALSTYLE
  5
6631
102
{ACAD_XDICTIONARY
360
721B
102
}
102
{ACAD_REACTORS
330
662B
102
}
330
662B
100
AcDbVisualStyle
  2
2dWireframe
 70
     4
 71
     0
 72
     2
 73
     0
 90
        0
 40
-0.6
 41
-30.0
 62
     5
 63
     7
 74
     1
 91
        4
 64
     7
 65
   257
 75
     1
175
     1
 42
1.0
 92
        0
 66
   257
 43
1.0
 76
     1
 77
     6
 78
     2
 67
     7
 79
     5
170
     0
171
     0
290
     0
174
     0
 93
        1
 44
0.0
173
     0
291
     0
 45
0.0
1001
ACAD
1000
AcDbSavedByObjectVersion
1070
     0
  0
VISUALSTYLE
  5
6633
102
{ACAD_XDICTIONARY
360
721F
102
}
102
{ACAD_REACTORS
330
662B
102
}
330
662B
100
AcDbVisualStyle
  2
3D Hidden
 70
     6
 71
     1
 72
     2
 73
     2
 90
        0
 40
-0.6
 41
-30.0
 62
     5
 63
     7
 74
     2
 91
        2
 64
     7
 65
   257
 75
     2
175
     1
 42
179.0
 92
        0
 66
   257
 43
1.0
 76
     1
 77
     6
 78
     2
 67
     7
 79
     3
170
     0
171
     0
290
     0
174
     0
 93
        1
 44
0.0
173
     0
291
     0
 45
0.0
1001
ACAD
1000
AcDbSavedByObjectVersion
1070
     0
  0
VISUALSTYLE
  5
6632
102
{ACAD_XDICTIONARY
360
721D
102
}
102
{ACAD_REACTORS
330
662B
102
}
330
662B
100
AcDbVisualStyle
  2
3dWireframe
 70
     5
 71
     0
 72
     2
 73
     0
 90
        0
 40
-0.6
 41
-30.0
 62
     5
 63
     7
 74
     1
 91
        4
 64
     7
 65
   257
 75
     1
175
     1
 42
1.0
 92
        0
 66
   257
 43
1.0
 76
     1
 77
     6
 78
     2
 67
     7
 79
     5
170
     0
171
     0
290
     0
174
     0
 93
        1
 44
0.0
173
     0
291
     0
 45
0.0
1001
ACAD
1000
AcDbSavedByObjectVersion
1070
     0
  0
VISUALSTYLE
  5
6630
102
{ACAD_XDICTIONARY
360
7219
102
}
102
{ACAD_REACTORS
330
662B
102
}
330
662B
100
AcDbVisualStyle
  2
Basic
 70
     7
 71
     1
 72
     0
 73
     1
 90
        0
 40
-0.6
 41
-30.0
 62
     5
 63
     7
 74
     0
 91
        4
 64
     7
 65
   257
 75
     1
175
     1
 42
1.0
 92
        8
 66
     7
 43
1.0
 76
     1
 77
     6
 78
     2
 67
     7
 79
     5
170
     0
171
     0
290
     0
174
     0
 93
        1
 44
0.0
173
     0
291
     1
 45
0.0
1001
ACAD
1000
AcDbSavedByObjectVersion
1070
     0
  0
VISUALSTYLE
  5
6637
102
{ACAD_XDICTIONARY
360
7227
102
}
102
{ACAD_REACTORS
330
662B
102
}
330
662B
100
AcDbVisualStyle
  2
Brighten
 70
    12
 71
     2
 72
     2
 73
     0
 90
        0
 40
-0.6
 41
-30.0
 62
     5
 63
     7
 74
     1
 91
        4
 64
     7
 65
   257
 75
     1
175
     1
 42
1.0
 92
        8
 66
     7
 43
1.0
 76
     1
 77
     6
 78
     2
 67
     7
 79
     5
170
     0
171
     0
290
     0
174
     0
 93
        1
 44
50.0
173
     0
291
     1
 45
0.0
1001
ACAD
1000
AcDbSavedByObjectVersion
1070
     0
  0
VISUALSTYLE
  5
663B
102
{ACAD_XDICTIONARY
360
722F
102
}
102
{ACAD_REACTORS
330
662B
102
}
330
662B
100
AcDbVisualStyle
  2
ColorChange
 70
    16
 71
     2
 72
     2
 73
     3
 90
        0
 40
-0.6
 41
-30.0
 62
     5
 63
     8
 74
     1
 91
        4
 64
     7
 65
   257
 75
     1
175
     1
 42
1.0
 92
        8
 66
     8
 43
1.0
 76
     1
 77
     6
 78
     2
 67
     7
 79
     5
170
     0
171
     0
290
     0
174
     0
 93
        1
 44
0.0
173
     0
291
     1
 45
0.0
1001
ACAD
1000
AcDbSavedByObjectVersion
1070
     0
  0
VISUALSTYLE
  5
6634
102
{ACAD_XDICTIONARY
360
7221
102
}
102
{ACAD_REACTORS
330
662B
102
}
330
662B
100
AcDbVisualStyle
  2
Conceptual
 70
     9
 71
     3
 72
     2
 73
     0
 90
        0
 40
-0.6
 41
-30.0
 62
     5
 63
     7
 74
     2
 91
        2
 64
     7
 65
   257
 75
     1
175
     1
 42
179.0
 92
        8
 66
     7
 43
1.0
 76
     1
 77
     6
 78
     2
 67
     7
 79
     3
170
     0
171
     0
290
     0
174
     0
 93
        1
 44
0.0
173
     0
291
     0
 45
0.0
1001
ACAD
1000
AcDbSavedByObjectVersion
1070
     0
  0
VISUALSTYLE
  5
6636
102
{ACAD_XDICTIONARY
360
7225
102
}
102
{ACAD_REACTORS
330
662B
102
}
330
662B
100
AcDbVisualStyle
  2
Dim
 70
    11
 71
     2
 72
     2
 73
     0
 90
        0
 40
-0.6
 41
-30.0
 62
     5
 63
     7
 74
     1
 91
        4
 64
     7
 65
   257
 75
     1
175
     1
 42
1.0
 92
        8
 66
     7
 43
1.0
 76
     1
 77
     6
 78
     2
 67
     7
 79
     5
170
     0
171
     0
290
     0
174
     0
 93
        1
 44
-50.0
173
     0
291
     1
 45
0.0
1001
ACAD
1000
AcDbSavedByObjectVersion
1070
     0
  0
VISUALSTYLE
  5
663E
102
{ACAD_XDICTIONARY
360
7235
102
}
102
{ACAD_REACTORS
330
662B
102
}
330
662B
100
AcDbVisualStyle
  2
EdgeColorOff
 70
    22
 71
     2
 72
     2
 73
     0
 90
        0
 40
-0.6
 41
-30.0
 62
     5
 63
     7
 74
     1
 91
        4
 64
     7
 65
   257
 75
     1
175
     1
 42
1.0
 92
        8
 66
     7
 43
1.0
 76
     1
 77
     6
 78
     2
 67
     7
 79
     5
170
     0
171
     0
290
     0
174
     0
 93
        1
 44
0.0
173
     0
291
     1
 45
0.0
1001
ACAD
1000
AcDbSavedByObjectVersion
1070
     0
  0
VISUALSTYLE
  5
663A
102
{ACAD_XDICTIONARY
360
722D
102
}
102
{ACAD_REACTORS
330
662B
102
}
330
662B
100
AcDbVisualStyle
  2
Facepattern
 70
    15
 71
     2
 72
     2
 73
     0
 90
        0
 40
-0.6
 41
-30.0
 62
     5
 63
     7
 74
     1
 91
        4
 64
     7
 65
   257
 75
     1
175
     1
 42
1.0
 92
        8
 66
     7
 43
1.0
 76
     1
 77
     6
 78
     2
 67
     7
 79
     5
170
     0
171
     0
290
     0
174
     0
 93
        1
 44
0.0
173
     0
291
     1
 45
0.0
1001
ACAD
1000
AcDbSavedByObjectVersion
1070
     0
  0
VISUALSTYLE
  5
662C
102
{ACAD_XDICTIONARY
360
7211
102
}
102
{ACAD_REACTORS
330
662B
102
}
330
662B
100
AcDbVisualStyle
  2
Flat
 70
     0
 71
     2
 72
     1
 73
     1
 90
        2
 40
-0.6
 41
30.0
 62
     5
 63
     7
 74
     0
 91
        4
 64
     7
 65
   257
 75
     1
175
     1
 42
1.0
 92
        8
 66
     7
 43
1.0
 76
     1
 77
     6
 78
     2
 67
     7
 79
     5
170
     0
171
     0
290
     0
174
     0
 93
       13
 44
0.0
173
     0
291
     1
 45
0.0
1001
ACAD
1000
AcDbSavedByObjectVersion
1070
     0
  0
VISUALSTYLE
  5
662D
102
{ACAD_XDICTIONARY
360
7213
102
}
102
{ACAD_REACTORS
330
662B
102
}
330
662B
100
AcDbVisualStyle
  2
FlatWithEdges
 70
     1
 71
     2
 72
     1
 73
     1
 90
        2
 40
-0.6
 41
30.0
 62
     5
 63
     7
 74
     1
 91
        4
 64
     7
 65
   257
 75
     1
175
     1
 42
1.0
 92
        0
 66
   257
 43
1.0
 76
     1
 77
     6
 78
     2
 67
     7
 79
     5
170
     0
171
     0
290
     0
174
     0
 93
       13
 44
0.0
173
     0
291
     1
 45
0.0
1001
ACAD
1000
AcDbSavedByObjectVersion
1070
     0
  0
VISUALSTYLE
  5
662E
102
{ACAD_XDICTIONARY
360
7215
102
}
102
{ACAD_REACTORS
330
662B
102
}
330
662B
100
AcDbVisualStyle
  2
Gouraud
 70
     2
 71
     2
 72
     2
 73
     1
 90
        2
 40
-0.6
 41
30.0
 62
     5
 63
     7
 74
     0
 91
        4
 64
     7
 65
   257
 75
     1
175
     1
 42
1.0
 92
        0
 66
     7
 43
1.0
 76
     1
 77
     6
 78
     2
 67
     7
 79
     5
170
     0
171
     0
290
     0
174
     0
 93
       13
 44
0.0
173
     0
291
     1
 45
0.0
1001
ACAD
1000
AcDbSavedByObjectVersion
1070
     0
  0
VISUALSTYLE
  5
662F
102
{ACAD_XDICTIONARY
360
7217
102
}
102
{ACAD_REACTORS
330
662B
102
}
330
662B
100
AcDbVisualStyle
  2
GouraudWithEdges
 70
     3
 71
     2
 72
     2
 73
     1
 90
        2
 40
-0.6
 41
30.0
 62
     5
 63
     7
 74
     1
 91
        4
 64
     7
 65
   257
 75
     1
175
     1
 42
1.0
 92
        0
 66
   257
 43
1.0
 76
     1
 77
     6
 78
     2
 67
     7
 79
     5
170
     0
171
     0
290
     0
174
     0
 93
       13
 44
0.0
173
     0
291
     1
 45
0.0
1001
ACAD
1000
AcDbSavedByObjectVersion
1070
     0
  0
VISUALSTYLE
  5
663C
102
{ACAD_XDICTIONARY
360
7231
102
}
102
{ACAD_REACTORS
330
662B
102
}
330
662B
100
AcDbVisualStyle
  2
JitterOff
 70
    20
 71
     2
 72
     2
 73
     0
 90
        0
 40
-0.6
 41
-30.0
 62
     5
 63
     7
 74
     1
 91
        4
 64
     7
 65
   257
 75
     1
175
     1
 42
1.0
 92
       10
 66
     7
 43
1.0
 76
     1
 77
     6
 78
     2
 67
     7
 79
     5
170
     0
171
     0
290
     0
174
     0
 93
        1
 44
0.0
173
     0
291
     1
 45
0.0
1001
ACAD
1000
AcDbSavedByObjectVersion
1070
     0
  0
VISUALSTYLE
  5
6639
102
{ACAD_XDICTIONARY
360
722B
102
}
102
{ACAD_REACTORS
330
662B
102
}
330
662B
100
AcDbVisualStyle
  2
Linepattern
 70
    14
 71
     2
 72
     2
 73
     0
 90
        0
 40
-0.6
 41
-30.0
 62
     5
 63
     7
 74
     1
 91
        4
 64
     7
 65
   257
 75
     7
175
     7
 42
1.0
 92
        8
 66
     7
 43
1.0
 76
     1
 77
     6
 78
     2
 67
     7
 79
     5
170
     0
171
     0
290
     0
174
     0
 93
        1
 44
0.0
173
     0
291
     1
 45
0.0
1001
ACAD
1000
AcDbSavedByObjectVersion
1070
     0
  0
VISUALSTYLE
  5
663D
102
{ACAD_XDICTIONARY
360
7233
102
}
102
{ACAD_REACTORS
330
662B
102
}
330
662B
100
AcDbVisualStyle
  2
OverhangOff
 70
    21
 71
     2
 72
     2
 73
     0
 90
        0
 40
-0.6
 41
-30.0
 62
     5
 63
     7
 74
     1
 91
        4
 64
     7
 65
   257
 75
     1
175
     1
 42
1.0
 92
        9
 66
     7
 43
1.0
 76
     1
 77
     6
 78
     2
 67
     7
 79
     5
170
     0
171
     0
290
     0
174
     0
 93
        1
 44
0.0
173
     0
291
     1
 45
0.0
1001
ACAD
1000
AcDbSavedByObjectVersion
1070
     0
  0
VISUALSTYLE
  5
6635
102
{ACAD_XDICTIONARY
360
7223
102
}
102
{ACAD_REACTORS
330
662B
102
}
330
662B
100
AcDbVisualStyle
  2
Realistic
 70
     8
 71
     2
 72
     2
 73
     0
 90
        0
 40
-0.6
 41
-30.0
 62
     5
 63
     7
 74
     1
 91
        0
 64
     7
 65
   257
 75
     1
175
     1
 42
1.0
 92
        8
 66
     8
 43
1.0
 76
     1
 77
     6
 78
     2
 67
     7
 79
     5
170
     0
171
     0
290
     0
174
     0
 93
       13
 44
0.0
173
     0
291
     0
 45
0.0
1001
ACAD
1000
AcDbSavedByObjectVersion
1070
     0
  0
VISUALSTYLE
  5
6638
102
{ACAD_XDICTIONARY
360
7229
102
}
102
{ACAD_REACTORS
330
662B
102
}
330
662B
100
AcDbVisualStyle
  2
Thicken
 70
    13
 71
     2
 72
     2
 73
     0
 90
        0
 40
-0.6
 41
-30.0
 62
     5
 63
     7
 74
     1
 91
        4
 64
     7
 65
   257
 75
     1
175
     1
 42
1.0
 92
       12
 66
     7
 43
1.0
 76
     1
 77
     6
 78
     2
 67
     7
 79
     5
170
     0
171
     0
290
     0
174
     0
 93
        1
 44
0.0
173
     0
291
     1
 45
0.0
1001
ACAD
1000
AcDbSavedByObjectVersion
1070
     0
  0
VISUALSTYLE
  5
681D
102
{ACAD_XDICTIONARY
360
723D
102
}
102
{ACAD_REACTORS
330
662B
102
}
330
662B
100
AcDbVisualStyle
  2
Wireframe
 70
     5
 71
     0
 72
     2
 73
     0
 90
        0
 40
-0.6
 41
-30.0
 62
     5
 63
     7
 74
     1
 91
        4
 64
     7
 65
   257
 75
     1
175
     1
 42
1.0
 92
        0
 66
   257
 43
1.0
 76
     1
 77
     6
 78
     2
 67
     7
 79
     3
170
     0
171
     0
290
     0
174
     0
 93
        1
 44
0.0
173
     0
291
     0
 45
0.0
1001
ACAD
1000
AcDbSavedByObjectVersion
1070
     0
  0
DICTIONARYVAR
  5
6727
102
{ACAD_REACTORS
330
6723
102
}
330
6723
100
DictionaryVariables
280
     0
  1
1:1
  0
DICTIONARYVAR
  5
6725
102
{ACAD_REACTORS
330
6723
102
}
330
6723
100
DictionaryVariables
280
     0
  1
STANDARD
  0
DICTIONARYVAR
  5
6724
102
{ACAD_REACTORS
330
6723
102
}
330
6723
100
DictionaryVariables
280
     0
  1
STANDARD
  0
DICTIONARYVAR
  5
71D2
102
{ACAD_REACTORS
330
6723
102
}
330
6723
100
DictionaryVariables
280
     0
  1
1
  0
DICTIONARYVAR
  5
71D1
102
{ACAD_REACTORS
330
6723
102
}
330
6723
100
DictionaryVariables
280
     0
  1
0
  0
DICTIONARYVAR
  5
6729
102
{ACAD_REACTORS
330
6723
102
}
330
6723
100
DictionaryVariables
280
     0
  1
1
  0
DICTIONARYVAR
  5
672A
102
{ACAD_REACTORS
330
6723
102
}
330
6723
100
DictionaryVariables
280
     0
  1
15
  0
DICTIONARYVAR
  5
6728
102
{ACAD_REACTORS
330
6723
102
}
330
6723
100
DictionaryVariables
280
     0
  1
0
  0
DICTIONARYVAR
  5
71D3
102
{ACAD_REACTORS
330
6723
102
}
330
6723
100
DictionaryVariables
280
     0
  1
1.570796
  0
DICTIONARYVAR
  5
71D4
102
{ACAD_REACTORS
330
6723
102
}
330
6723
100
DictionaryVariables
280
     0
  1
1.570796
  0
DICTIONARYVAR
  5
71D5
102
{ACAD_REACTORS
330
6723
102
}
330
6723
100
DictionaryVariables
280
     0
  1
-122.394000
  0
DICTIONARYVAR
  5
6726
102
{ACAD_REACTORS
330
6723
102
}
330
6723
100
DictionaryVariables
280
     0
  1
0
  0
DICTIONARYVAR
  5
71D0
102
{ACAD_REACTORS
330
6723
102
}
330
6723
100
DictionaryVariables
280
     0
  1
127
  0
DICTIONARYVAR
  5
71D6
102
{ACAD_REACTORS
330
6723
102
}
330
6723
100
DictionaryVariables
280
     0
  1
2
  0
DICTIONARY
  5
723B
330
667B
100
AcDbDictionary
280
     1
281
     1
  3
ACAD_XREC_ROUNDTRIP
360
723C
  0
DICTIONARY
  5
7239
330
6677
100
AcDbDictionary
280
     1
281
     1
  3
ACAD_XREC_ROUNDTRIP
360
723A
  0
DICTIONARY
  5
661C
330
661B
100
AcDbDictionary
280
     1
281
     1
  3
ACAD_XREC_ROUNDTRIP
360
720F
  3
BUMPTILE
360
661E
  3
DIFFUSETILE
360
661D
  3
OPACITYTILE
360
6621
  3
REFLECTIONTILE
360
6620
  3
REFRACTIONTILE
360
6622
  3
SPECULARTILE
360
661F
  0
DICTIONARY
  5
6614
330
6613
100
AcDbDictionary
280
     1
281
     1
  3
ACAD_XREC_ROUNDTRIP
360
720E
  3
BUMPTILE
360
6616
  3
DIFFUSETILE
360
6615
  3
OPACITYTILE
360
6619
  3
REFLECTIONTILE
360
6618
  3
REFRACTIONTILE
360
661A
  3
SPECULARTILE
360
6617
  0
DICTIONARY
  5
6624
330
6623
100
AcDbDictionary
280
     1
281
     1
  3
ACAD_XREC_ROUNDTRIP
360
7210
  3
BUMPTILE
360
6626
  3
DIFFUSETILE
360
6625
  3
OPACITYTILE
360
6629
  3
REFLECTIONTILE
360
6628
  3
REFRACTIONTILE
360
662A
  3
SPECULARTILE
360
6627
  0
DICTIONARY
  5
672B
330
6671
100
AcDbDictionary
280
     1
281
     1
  3
ACAD_ROUNDTRIP_2008_TABLESTYLE_CELLSTYLEMAP
360
720B
  3
ACAD_XREC_ROUNDTRIP
360
7237
  0
DICTIONARY
  5
721B
330
6631
100
AcDbDictionary
280
     1
281
     1
  3
ACAD_XREC_ROUNDTRIP
360
721C
  0
DICTIONARY
  5
721F
330
6633
100
AcDbDictionary
280
     1
281
     1
  3
ACAD_XREC_ROUNDTRIP
360
7220
  0
DICTIONARY
  5
721D
330
6632
100
AcDbDictionary
280
     1
281
     1
  3
ACAD_XREC_ROUNDTRIP
360
721E
  0
DICTIONARY
  5
7219
330
6630
100
AcDbDictionary
280
     1
281
     1
  3
ACAD_XREC_ROUNDTRIP
360
721A
  0
DICTIONARY
  5
7227
330
6637
100
AcDbDictionary
280
     1
281
     1
  3
ACAD_XREC_ROUNDTRIP
360
7228
  0
DICTIONARY
  5
722F
330
663B
100
AcDbDictionary
280
     1
281
     1
  3
ACAD_XREC_ROUNDTRIP
360
7230
  0
DICTIONARY
  5
7221
330
6634
100
AcDbDictionary
280
     1
281
     1
  3
ACAD_XREC_ROUNDTRIP
360
7222
  0
DICTIONARY
  5
7225
330
6636
100
AcDbDictionary
280
     1
281
     1
  3
ACAD_XREC_ROUNDTRIP
360
7226
  0
DICTIONARY
  5
7235
330
663E
100
AcDbDictionary
280
     1
281
     1
  3
ACAD_XREC_ROUNDTRIP
360
7236
  0
DICTIONARY
  5
722D
330
663A
100
AcDbDictionary
280
     1
281
     1
  3
ACAD_XREC_ROUNDTRIP
360
722E
  0
DICTIONARY
  5
7211
330
662C
100
AcDbDictionary
280
     1
281
     1
  3
ACAD_XREC_ROUNDTRIP
360
7212
  0
DICTIONARY
  5
7213
330
662D
100
AcDbDictionary
280
     1
281
     1
  3
ACAD_XREC_ROUNDTRIP
360
7214
  0
DICTIONARY
  5
7215
330
662E
100
AcDbDictionary
280
     1
281
     1
  3
ACAD_XREC_ROUNDTRIP
360
7216
  0
DICTIONARY
  5
7217
330
662F
100
AcDbDictionary
280
     1
281
     1
  3
ACAD_XREC_ROUNDTRIP
360
7218
  0
DICTIONARY
  5
7231
330
663C
100
AcDbDictionary
280
     1
281
     1
  3
ACAD_XREC_ROUNDTRIP
360
7232
  0
DICTIONARY
  5
722B
330
6639
100
AcDbDictionary
280
     1
281
     1
  3
ACAD_XREC_ROUNDTRIP
360
722C
  0
DICTIONARY
  5
7233
330
663D
100
AcDbDictionary
280
     1
281
     1
  3
ACAD_XREC_ROUNDTRIP
360
7234
  0
DICTIONARY
  5
7223
330
6635
100
AcDbDictionary
280
     1
281
     1
  3
ACAD_XREC_ROUNDTRIP
360
7224
  0
DICTIONARY
  5
7229
330
6638
100
AcDbDictionary
280
     1
281
     1
  3
ACAD_XREC_ROUNDTRIP
360
722A
  0
DICTIONARY
  5
723D
330
681D
100
AcDbDictionary
280
     1
281
     1
  3
ACAD_XREC_ROUNDTRIP
360
723E
  0
XRECORD
  5
723C
102
{ACAD_REACTORS
330
723B
102
}
330
723B
100
AcDbXrecord
280
     1
102
SHADEPLOT
 70
     0
102
SHADEPLOTRESLEVEL
 70
     2
102
SHADEPLOTCUSTOMDPI
 70
   300
  0
XRECORD
  5
723A
102
{ACAD_REACTORS
330
7239
102
}
330
7239
100
AcDbXrecord
280
     1
102
SHADEPLOT
 70
     0
102
SHADEPLOTRESLEVEL
 70
     2
102
SHADEPLOTCUSTOMDPI
 70
   300
  0
XRECORD
  5
720F
102
{ACAD_REACTORS
330
661C
102
}
330
661C
100
AcDbXrecord
280
     1
102
MATERIAL
148
0.0
149
0.0
149
0.0
 93
        0
 94
      127
282
     0
 72
     0
 77
     0
171
     0
175
     0
179
     0
273
     0
  0
XRECORD
  5
661E
102
{ACAD_REACTORS
330
661C
102
}
330
661C
100
AcDbXrecord
280
     1
270
     1
271
     1
  0
XRECORD
  5
661D
102
{ACAD_REACTORS
330
661C
102
}
330
661C
100
AcDbXrecord
280
     1
270
     1
271
     1
  0
XRECORD
  5
6621
102
{ACAD_REACTORS
330
661C
102
}
330
661C
100
AcDbXrecord
280
     1
270
     1
271
     1
  0
XRECORD
  5
6620
102
{ACAD_REACTORS
330
661C
102
}
330
661C
100
AcDbXrecord
280
     1
270
     1
271
     1
  0
XRECORD
  5
6622
102
{ACAD_REACTORS
330
661C
102
}
330
661C
100
AcDbXrecord
280
     1
270
     1
271
     1
  0
XRECORD
  5
661F
102
{ACAD_REACTORS
330
661C
102
}
330
661C
100
AcDbXrecord
280
     1
270
     1
271
     1
  0
XRECORD
  5
720E
102
{ACAD_REACTORS
330
6614
102
}
330
6614
100
AcDbXrecord
280
     1
102
MATERIAL
148
0.0
149
0.0
149
0.0
 93
        0
 94
      127
282
     0
 72
     0
 77
     0
171
     0
175
     0
179
     0
273
     0
  0
XRECORD
  5
6616
102
{ACAD_REACTORS
330
6614
102
}
330
6614
100
AcDbXrecord
280
     1
270
     1
271
     1
  0
XRECORD
  5
6615
102
{ACAD_REACTORS
330
6614
102
}
330
6614
100
AcDbXrecord
280
     1
270
     1
271
     1
  0
XRECORD
  5
6619
102
{ACAD_REACTORS
330
6614
102
}
330
6614
100
AcDbXrecord
280
     1
270
     1
271
     1
  0
XRECORD
  5
6618
102
{ACAD_REACTORS
330
6614
102
}
330
6614
100
AcDbXrecord
280
     1
270
     1
271
     1
  0
XRECORD
  5
661A
102
{ACAD_REACTORS
330
6614
102
}
330
6614
100
AcDbXrecord
280
     1
270
     1
271
     1
  0
XRECORD
  5
6617
102
{ACAD_REACTORS
330
6614
102
}
330
6614
100
AcDbXrecord
280
     1
270
     1
271
     1
  0
XRECORD
  5
7210
102
{ACAD_REACTORS
330
6624
102
}
330
6624
100
AcDbXrecord
280
     1
102
MATERIAL
148
0.0
149
0.0
149
0.0
 93
        0
 94
      127
282
     0
 72
     0
 77
     0
171
     0
175
     0
179
     0
273
     0
  0
XRECORD
  5
6626
102
{ACAD_REACTORS
330
6624
102
}
330
6624
100
AcDbXrecord
280
     1
270
     1
271
     1
  0
XRECORD
  5
6625
102
{ACAD_REACTORS
330
6624
102
}
330
6624
100
AcDbXrecord
280
     1
270
     1
271
     1
  0
XRECORD
  5
6629
102
{ACAD_REACTORS
330
6624
102
}
330
6624
100
AcDbXrecord
280
     1
270
     1
271
     1
  0
XRECORD
  5
6628
102
{ACAD_REACTORS
330
6624
102
}
330
6624
100
AcDbXrecord
280
     1
270
     1
271
     1
  0
XRECORD
  5
662A
102
{ACAD_REACTORS
330
6624
102
}
330
6624
100
AcDbXrecord
280
     1
270
     1
271
     1
  0
XRECORD
  5
6627
102
{ACAD_REACTORS
330
6624
102
}
330
6624
100
AcDbXrecord
280
     1
270
     1
271
     1
  0
CELLSTYLEMAP
  5
720B
102
{ACAD_REACTORS
330
672B
102
}
330
672B
100
AcDbCellStyleMap
 90
        3
300
CELLSTYLE
  1
TABLEFORMAT_BEGIN
 90
        5
170
     1
 91
        0
 92
    32768
 62
   257
 93
        1
300
CONTENTFORMAT
  1
CONTENTFORMAT_BEGIN
 90
        0
 91
        0
 92
      512
 93
        0
300

 40
0.0
140
1.0
 94
        5
 62
     0
340
6662
144
0.25
309
CONTENTFORMAT_END
171
     1
301
MARGIN
  1
CELLMARGIN_BEGIN
 40
0.06
 40
0.06
 40
0.06
 40
0.06
 40
0.18
 40
0.18
309
CELLMARGIN_END
 94
        6
 95
        1
302
GRIDFORMAT
  1
GRIDFORMAT_BEGIN
 90
        0
 91
        1
 62
     0
 92
       -2
340
0
 93
        0
 40
0.045
309
GRIDFORMAT_END
 95
        2
302
GRIDFORMAT
  1
GRIDFORMAT_BEGIN
 90
        0
 91
        1
 62
     0
 92
       -2
340
0
 93
        0
 40
0.045
309
GRIDFORMAT_END
 95
        4
302
GRIDFORMAT
  1
GRIDFORMAT_BEGIN
 90
        0
 91
        1
 62
     0
 92
       -2
340
0
 93
        0
 40
0.045
309
GRIDFORMAT_END
 95
        8
302
GRIDFORMAT
  1
GRIDFORMAT_BEGIN
 90
        0
 91
        1
 62
     0
 92
       -2
340
0
 93
        0
 40
0.045
309
GRIDFORMAT_END
 95
       16
302
GRIDFORMAT
  1
GRIDFORMAT_BEGIN
 90
        0
 91
        1
 62
     0
 92
       -2
340
0
 93
        0
 40
0.045
309
GRIDFORMAT_END
 95
       32
302
GRIDFORMAT
  1
GRIDFORMAT_BEGIN
 90
        0
 91
        1
 62
     0
 92
       -2
340
0
 93
        0
 40
0.045
309
GRIDFORMAT_END
309
TABLEFORMAT_END
  1
CELLSTYLE_BEGIN
 90
        1
 91
        1
300
_TITLE
309
CELLSTYLE_END
300
CELLSTYLE
  1
TABLEFORMAT_BEGIN
 90
        5
170
     1
 91
        0
 92
        0
 62
   257
 93
        1
300
CONTENTFORMAT
  1
CONTENTFORMAT_BEGIN
 90
        0
 91
        0
 92
      512
 93
        0
300

 40
0.0
140
1.0
 94
        5
 62
     0
340
6662
144
0.18
309
CONTENTFORMAT_END
171
     1
301
MARGIN
  1
CELLMARGIN_BEGIN
 40
0.06
 40
0.06
 40
0.06
 40
0.06
 40
0.18
 40
0.18
309
CELLMARGIN_END
 94
        6
 95
        1
302
GRIDFORMAT
  1
GRIDFORMAT_BEGIN
 90
        0
 91
        1
 62
     0
 92
       -2
340
0
 93
        0
 40
0.045
309
GRIDFORMAT_END
 95
        2
302
GRIDFORMAT
  1
GRIDFORMAT_BEGIN
 90
        0
 91
        1
 62
     0
 92
       -2
340
0
 93
        0
 40
0.045
309
GRIDFORMAT_END
 95
        4
302
GRIDFORMAT
  1
GRIDFORMAT_BEGIN
 90
        0
 91
        1
 62
     0
 92
       -2
340
0
 93
        0
 40
0.045
309
GRIDFORMAT_END
 95
        8
302
GRIDFORMAT
  1
GRIDFORMAT_BEGIN
 90
        0
 91
        1
 62
     0
 92
       -2
340
0
 93
        0
 40
0.045
309
GRIDFORMAT_END
 95
       16
302
GRIDFORMAT
  1
GRIDFORMAT_BEGIN
 90
        0
 91
        1
 62
     0
 92
       -2
340
0
 93
        0
 40
0.045
309
GRIDFORMAT_END
 95
       32
302
GRIDFORMAT
  1
GRIDFORMAT_BEGIN
 90
        0
 91
        1
 62
     0
 92
       -2
340
0
 93
        0
 40
0.045
309
GRIDFORMAT_END
309
TABLEFORMAT_END
  1
CELLSTYLE_BEGIN
 90
        2
 91
        1
300
_HEADER
309
CELLSTYLE_END
300
CELLSTYLE
  1
TABLEFORMAT_BEGIN
 90
        5
170
     1
 91
        0
 92
        0
 62
   257
 93
        1
300
CONTENTFORMAT
  1
CONTENTFORMAT_BEGIN
 90
        0
 91
        0
 92
      512
 93
        0
300

 40
0.0
140
1.0
 94
        2
 62
     0
340
6662
144
0.18
309
CONTENTFORMAT_END
171
     1
301
MARGIN
  1
CELLMARGIN_BEGIN
 40
0.06
 40
0.06
 40
0.06
 40
0.06
 40
0.18
 40
0.18
309
CELLMARGIN_END
 94
        6
 95
        1
302
GRIDFORMAT
  1
GRIDFORMAT_BEGIN
 90
        0
 91
        1
 62
     0
 92
       -2
340
0
 93
        0
 40
0.045
309
GRIDFORMAT_END
 95
        2
302
GRIDFORMAT
  1
GRIDFORMAT_BEGIN
 90
        0
 91
        1
 62
     0
 92
       -2
340
0
 93
        0
 40
0.045
309
GRIDFORMAT_END
 95
        4
302
GRIDFORMAT
  1
GRIDFORMAT_BEGIN
 90
        0
 91
        1
 62
     0
 92
       -2
340
0
 93
        0
 40
0.045
309
GRIDFORMAT_END
 95
        8
302
GRIDFORMAT
  1
GRIDFORMAT_BEGIN
 90
        0
 91
        1
 62
     0
 92
       -2
340
0
 93
        0
 40
0.045
309
GRIDFORMAT_END
 95
       16
302
GRIDFORMAT
  1
GRIDFORMAT_BEGIN
 90
        0
 91
        1
 62
     0
 92
       -2
340
0
 93
        0
 40
0.045
309
GRIDFORMAT_END
 95
       32
302
GRIDFORMAT
  1
GRIDFORMAT_BEGIN
 90
        0
 91
        1
 62
     0
 92
       -2
340
0
 93
        0
 40
0.045
309
GRIDFORMAT_END
309
TABLEFORMAT_END
  1
CELLSTYLE_BEGIN
 90
        3
 91
        2
300
_DATA
309
CELLSTYLE_END
  0
XRECORD
  5
7237
102
{ACAD_REACTORS
330
672B
102
}
330
672B
100
AcDbXrecord
280
     1
102
ACAD_ROUNDTRIP_PRE2007_TABLESTYLE
 90
      512
 91
        0
  1

 92
      512
 93
        0
  2

 94
      512
 95
        0
  3

  0
XRECORD
  5
721C
102
{ACAD_REACTORS
330
721B
102
}
330
721B
100
AcDbXrecord
280
     1
102
RTVSPropertyOp0
 70
     1
102
RTVSPropertyOp1
 70
     1
102
RTVSPropertyOp2
 70
     1
102
RTVSPropertyOp3
 70
     1
102
RTVSPropertyOp4
 70
     1
102
RTVSPropertyOp5
 70
     1
102
RTVSPropertyOp6
 70
     1
102
RTVSPropertyOp7
 70
     1
102
RTVSPropertyOp8
 70
     1
102
RTVSPropertyOp9
 70
     1
102
RTVSPropertyOp10
 70
     1
102
RTVSPropertyOp11
 70
     1
102
RTVSPropertyOp12
 70
     1
102
RTVSPropertyOp13
 70
     1
102
RTVSPropertyOp14
 70
     1
102
RTVSPropertyOp15
 70
     1
102
RTVSPropertyOp16
 70
     1
102
RTVSPropertyOp17
 70
     1
102
RTVSPropertyOp18
 70
     1
102
RTVSPropertyOp19
 70
     1
102
RTVSPropertyOp20
 70
     1
102
RTVSPropertyOp21
 70
     1
102
RTVSPropertyOp22
 70
     1
102
RTVSPropertyOp23
 70
     1
102
RTVSPropertyOp24
 70
     1
102
RTVSPropertyOp25
 70
     1
102
RTVSPropertyOp26
 70
     1
102
RTVSPropertyOp27
 70
     1
  0
XRECORD
  5
7220
102
{ACAD_REACTORS
330
721F
102
}
330
721F
100
AcDbXrecord
280
     1
102
RTVSPropertyOp0
 70
     1
102
RTVSPropertyOp1
 70
     1
102
RTVSPropertyOp2
 70
     1
102
RTVSPropertyOp3
 70
     1
102
RTVSPropertyOp4
 70
     1
102
RTVSPropertyOp5
 70
     1
102
RTVSPropertyOp6
 70
     1
102
RTVSPropertyOp7
 70
     1
102
RTVSPropertyOp8
 70
     1
102
RTVSPropertyOp9
 70
     1
102
RTVSPropertyOp10
 70
     1
102
RTVSPropertyOp11
 70
     1
102
RTVSPropertyOp12
 70
     1
102
RTVSPropertyOp13
 70
     1
102
RTVSPropertyOp14
 70
     1
102
RTVSPropertyOp15
 70
     1
102
RTVSPropertyOp16
 70
     1
102
RTVSPropertyOp17
 70
     1
102
RTVSPropertyOp18
 70
     1
102
RTVSPropertyOp19
 70
     1
102
RTVSPropertyOp20
 70
     1
102
RTVSPropertyOp21
 70
     1
102
RTVSPropertyOp22
 70
     1
102
RTVSPropertyOp23
 70
     1
102
RTVSPropertyOp24
 70
     1
102
RTVSPropertyOp25
 70
     1
102
RTVSPropertyOp26
 70
     1
102
RTVSPropertyOp27
 70
     1
  0
XRECORD
  5
721E
102
{ACAD_REACTORS
330
721D
102
}
330
721D
100
AcDbXrecord
280
     1
102
RTVSPropertyOp0
 70
     1
102
RTVSPropertyOp1
 70
     1
102
RTVSPropertyOp2
 70
     1
102
RTVSPropertyOp3
 70
     1
102
RTVSPropertyOp4
 70
     1
102
RTVSPropertyOp5
 70
     1
102
RTVSPropertyOp6
 70
     1
102
RTVSPropertyOp7
 70
     1
102
RTVSPropertyOp8
 70
     1
102
RTVSPropertyOp9
 70
     1
102
RTVSPropertyOp10
 70
     1
102
RTVSPropertyOp11
 70
     1
102
RTVSPropertyOp12
 70
     1
102
RTVSPropertyOp13
 70
     1
102
RTVSPropertyOp14
 70
     1
102
RTVSPropertyOp15
 70
     1
102
RTVSPropertyOp16
 70
     1
102
RTVSPropertyOp17
 70
     1
102
RTVSPropertyOp18
 70
     1
102
RTVSPropertyOp19
 70
     1
102
RTVSPropertyOp20
 70
     1
102
RTVSPropertyOp21
 70
     1
102
RTVSPropertyOp22
 70
     1
102
RTVSPropertyOp23
 70
     1
102
RTVSPropertyOp24
 70
     1
102
RTVSPropertyOp25
 70
     1
102
RTVSPropertyOp26
 70
     1
102
RTVSPropertyOp27
 70
     1
  0
XRECORD
  5
721A
102
{ACAD_REACTORS
330
7219
102
}
330
7219
100
AcDbXrecord
280
     1
102
RTVSPropertyOp0
 70
     1
102
RTVSPropertyOp1
 70
     1
102
RTVSPropertyOp2
 70
     1
102
RTVSPropertyOp3
 70
     1
102
RTVSPropertyOp4
 70
     1
102
RTVSPropertyOp5
 70
     1
102
RTVSPropertyOp6
 70
     1
102
RTVSPropertyOp7
 70
     1
102
RTVSPropertyOp8
 70
     1
102
RTVSPropertyOp9
 70
     1
102
RTVSPropertyOp10
 70
     1
102
RTVSPropertyOp11
 70
     1
102
RTVSPropertyOp12
 70
     1
102
RTVSPropertyOp13
 70
     1
102
RTVSPropertyOp14
 70
     1
102
RTVSPropertyOp15
 70
     1
102
RTVSPropertyOp16
 70
     1
102
RTVSPropertyOp17
 70
     1
102
RTVSPropertyOp18
 70
     1
102
RTVSPropertyOp19
 70
     1
102
RTVSPropertyOp20
 70
     1
102
RTVSPropertyOp21
 70
     1
102
RTVSPropertyOp22
 70
     1
102
RTVSPropertyOp23
 70
     1
102
RTVSPropertyOp24
 70
     1
102
RTVSPropertyOp25
 70
     1
102
RTVSPropertyOp26
 70
     1
102
RTVSPropertyOp27
 70
     1
  0
XRECORD
  5
7228
102
{ACAD_REACTORS
330
7227
102
}
330
7227
100
AcDbXrecord
280
     1
102
RTVSPropertyOp0
 70
     1
102
RTVSPropertyOp1
 70
     1
102
RTVSPropertyOp2
 70
     1
102
RTVSPropertyOp3
 70
     1
102
RTVSPropertyOp4
 70
     1
102
RTVSPropertyOp5
 70
     1
102
RTVSPropertyOp6
 70
     1
102
RTVSPropertyOp7
 70
     1
102
RTVSPropertyOp8
 70
     1
102
RTVSPropertyOp9
 70
     1
102
RTVSPropertyOp10
 70
     1
102
RTVSPropertyOp11
 70
     1
102
RTVSPropertyOp12
 70
     1
102
RTVSPropertyOp13
 70
     1
102
RTVSPropertyOp14
 70
     1
102
RTVSPropertyOp15
 70
     1
102
RTVSPropertyOp16
 70
     1
102
RTVSPropertyOp17
 70
     1
102
RTVSPropertyOp18
 70
     1
102
RTVSPropertyOp19
 70
     1
102
RTVSPropertyOp20
 70
     1
102
RTVSPropertyOp21
 70
     1
102
RTVSPropertyOp22
 70
     1
102
RTVSPropertyOp23
 70
     1
102
RTVSPropertyOp24
 70
     1
102
RTVSPropertyOp25
 70
     1
102
RTVSPropertyOp26
 70
     1
102
RTVSPropertyOp27
 70
     1
  0
XRECORD
  5
7230
102
{ACAD_REACTORS
330
722F
102
}
330
722F
100
AcDbXrecord
280
     1
102
RTVSPropertyOp0
 70
     1
102
RTVSPropertyOp1
 70
     1
102
RTVSPropertyOp2
 70
     1
102
RTVSPropertyOp3
 70
     1
102
RTVSPropertyOp4
 70
     1
102
RTVSPropertyOp5
 70
     1
102
RTVSPropertyOp6
 70
     1
102
RTVSPropertyOp7
 70
     1
102
RTVSPropertyOp8
 70
     1
102
RTVSPropertyOp9
 70
     1
102
RTVSPropertyOp10
 70
     1
102
RTVSPropertyOp11
 70
     1
102
RTVSPropertyOp12
 70
     1
102
RTVSPropertyOp13
 70
     1
102
RTVSPropertyOp14
 70
     1
102
RTVSPropertyOp15
 70
     1
102
RTVSPropertyOp16
 70
     1
102
RTVSPropertyOp17
 70
     1
102
RTVSPropertyOp18
 70
     1
102
RTVSPropertyOp19
 70
     1
102
RTVSPropertyOp20
 70
     1
102
RTVSPropertyOp21
 70
     1
102
RTVSPropertyOp22
 70
     1
102
RTVSPropertyOp23
 70
     1
102
RTVSPropertyOp24
 70
     1
102
RTVSPropertyOp25
 70
     1
102
RTVSPropertyOp26
 70
     1
102
RTVSPropertyOp27
 70
     1
  0
XRECORD
  5
7222
102
{ACAD_REACTORS
330
7221
102
}
330
7221
100
AcDbXrecord
280
     1
102
RTVSPropertyOp0
 70
     1
102
RTVSPropertyOp1
 70
     1
102
RTVSPropertyOp2
 70
     1
102
RTVSPropertyOp3
 70
     1
102
RTVSPropertyOp4
 70
     1
102
RTVSPropertyOp5
 70
     1
102
RTVSPropertyOp6
 70
     1
102
RTVSPropertyOp7
 70
     1
102
RTVSPropertyOp8
 70
     1
102
RTVSPropertyOp9
 70
     1
102
RTVSPropertyOp10
 70
     1
102
RTVSPropertyOp11
 70
     1
102
RTVSPropertyOp12
 70
     1
102
RTVSPropertyOp13
 70
     1
102
RTVSPropertyOp14
 70
     1
102
RTVSPropertyOp15
 70
     1
102
RTVSPropertyOp16
 70
     1
102
RTVSPropertyOp17
 70
     1
102
RTVSPropertyOp18
 70
     1
102
RTVSPropertyOp19
 70
     1
102
RTVSPropertyOp20
 70
     1
102
RTVSPropertyOp21
 70
     1
102
RTVSPropertyOp22
 70
     1
102
RTVSPropertyOp23
 70
     1
102
RTVSPropertyOp24
 70
     1
102
RTVSPropertyOp25
 70
     1
102
RTVSPropertyOp26
 70
     1
102
RTVSPropertyOp27
 70
     1
  0
XRECORD
  5
7226
102
{ACAD_REACTORS
330
7225
102
}
330
7225
100
AcDbXrecord
280
     1
102
RTVSPropertyOp0
 70
     1
102
RTVSPropertyOp1
 70
     1
102
RTVSPropertyOp2
 70
     1
102
RTVSPropertyOp3
 70
     1
102
RTVSPropertyOp4
 70
     1
102
RTVSPropertyOp5
 70
     1
102
RTVSPropertyOp6
 70
     1
102
RTVSPropertyOp7
 70
     1
102
RTVSPropertyOp8
 70
     1
102
RTVSPropertyOp9
 70
     1
102
RTVSPropertyOp10
 70
     1
102
RTVSPropertyOp11
 70
     1
102
RTVSPropertyOp12
 70
     1
102
RTVSPropertyOp13
 70
     1
102
RTVSPropertyOp14
 70
     1
102
RTVSPropertyOp15
 70
     1
102
RTVSPropertyOp16
 70
     1
102
RTVSPropertyOp17
 70
     1
102
RTVSPropertyOp18
 70
     1
102
RTVSPropertyOp19
 70
     1
102
RTVSPropertyOp20
 70
     1
102
RTVSPropertyOp21
 70
     1
102
RTVSPropertyOp22
 70
     1
102
RTVSPropertyOp23
 70
     1
102
RTVSPropertyOp24
 70
     1
102
RTVSPropertyOp25
 70
     1
102
RTVSPropertyOp26
 70
     1
102
RTVSPropertyOp27
 70
     1
  0
XRECORD
  5
7236
102
{ACAD_REACTORS
330
7235
102
}
330
7235
100
AcDbXrecord
280
     1
102
RTVSPropertyOp0
 70
     0
102
RTVSPropertyOp1
 70
     0
102
RTVSPropertyOp2
 70
     0
102
RTVSPropertyOp3
 70
     0
102
RTVSPropertyOp4
 70
     0
102
RTVSPropertyOp5
 70
     0
102
RTVSPropertyOp6
 70
     0
102
RTVSPropertyOp7
 70
     0
102
RTVSPropertyOp8
 70
     0
102
RTVSPropertyOp9
 70
     0
102
RTVSPropertyOp10
 70
     0
102
RTVSPropertyOp11
 70
     0
102
RTVSPropertyOp12
 70
     0
102
RTVSPropertyOp13
 70
     0
102
RTVSPropertyOp14
 70
     2
102
RTVSPropertyOp15
 70
     0
102
RTVSPropertyOp16
 70
     0
102
RTVSPropertyOp17
 70
     0
102
RTVSPropertyOp18
 70
     0
102
RTVSPropertyOp19
 70
     0
102
RTVSPropertyOp20
 70
     0
102
RTVSPropertyOp21
 70
     0
102
RTVSPropertyOp22
 70
     0
102
RTVSPropertyOp23
 70
     0
102
RTVSPropertyOp24
 70
     0
102
RTVSPropertyOp25
 70
     0
102
RTVSPropertyOp26
 70
     0
102
RTVSPropertyOp27
 70
     0
  0
XRECORD
  5
722E
102
{ACAD_REACTORS
330
722D
102
}
330
722D
100
AcDbXrecord
280
     1
102
RTVSPropertyOp0
 70
     1
102
RTVSPropertyOp1
 70
     1
102
RTVSPropertyOp2
 70
     1
102
RTVSPropertyOp3
 70
     1
102
RTVSPropertyOp4
 70
     1
102
RTVSPropertyOp5
 70
     1
102
RTVSPropertyOp6
 70
     1
102
RTVSPropertyOp7
 70
     1
102
RTVSPropertyOp8
 70
     1
102
RTVSPropertyOp9
 70
     1
102
RTVSPropertyOp10
 70
     1
102
RTVSPropertyOp11
 70
     1
102
RTVSPropertyOp12
 70
     1
102
RTVSPropertyOp13
 70
     1
102
RTVSPropertyOp14
 70
     1
102
RTVSPropertyOp15
 70
     1
102
RTVSPropertyOp16
 70
     1
102
RTVSPropertyOp17
 70
     1
102
RTVSPropertyOp18
 70
     1
102
RTVSPropertyOp19
 70
     1
102
RTVSPropertyOp20
 70
     1
102
RTVSPropertyOp21
 70
     1
102
RTVSPropertyOp22
 70
     1
102
RTVSPropertyOp23
 70
     1
102
RTVSPropertyOp24
 70
     1
102
RTVSPropertyOp25
 70
     1
102
RTVSPropertyOp26
 70
     1
102
RTVSPropertyOp27
 70
     1
  0
XRECORD
  5
7212
102
{ACAD_REACTORS
330
7211
102
}
330
7211
100
AcDbXrecord
280
     1
102
RTVSPropertyOp0
 70
     1
102
RTVSPropertyOp1
 70
     1
102
RTVSPropertyOp2
 70
     1
102
RTVSPropertyOp3
 70
     1
102
RTVSPropertyOp4
 70
     1
102
RTVSPropertyOp5
 70
     1
102
RTVSPropertyOp6
 70
     1
102
RTVSPropertyOp7
 70
     1
102
RTVSPropertyOp8
 70
     1
102
RTVSPropertyOp9
 70
     1
102
RTVSPropertyOp10
 70
     1
102
RTVSPropertyOp11
 70
     1
102
RTVSPropertyOp12
 70
     1
102
RTVSPropertyOp13
 70
     1
102
RTVSPropertyOp14
 70
     1
102
RTVSPropertyOp15
 70
     1
102
RTVSPropertyOp16
 70
     1
102
RTVSPropertyOp17
 70
     1
102
RTVSPropertyOp18
 70
     1
102
RTVSPropertyOp19
 70
     1
102
RTVSPropertyOp20
 70
     1
102
RTVSPropertyOp21
 70
     1
102
RTVSPropertyOp22
 70
     1
102
RTVSPropertyOp23
 70
     1
102
RTVSPropertyOp24
 70
     1
102
RTVSPropertyOp25
 70
     1
102
RTVSPropertyOp26
 70
     1
102
RTVSPropertyOp27
 70
     1
  0
XRECORD
  5
7214
102
{ACAD_REACTORS
330
7213
102
}
330
7213
100
AcDbXrecord
280
     1
102
RTVSPropertyOp0
 70
     1
102
RTVSPropertyOp1
 70
     1
102
RTVSPropertyOp2
 70
     1
102
RTVSPropertyOp3
 70
     1
102
RTVSPropertyOp4
 70
     1
102
RTVSPropertyOp5
 70
     1
102
RTVSPropertyOp6
 70
     1
102
RTVSPropertyOp7
 70
     1
102
RTVSPropertyOp8
 70
     1
102
RTVSPropertyOp9
 70
     1
102
RTVSPropertyOp10
 70
     1
102
RTVSPropertyOp11
 70
     1
102
RTVSPropertyOp12
 70
     1
102
RTVSPropertyOp13
 70
     1
102
RTVSPropertyOp14
 70
     1
102
RTVSPropertyOp15
 70
     1
102
RTVSPropertyOp16
 70
     1
102
RTVSPropertyOp17
 70
     1
102
RTVSPropertyOp18
 70
     1
102
RTVSPropertyOp19
 70
     1
102
RTVSPropertyOp20
 70
     1
102
RTVSPropertyOp21
 70
     1
102
RTVSPropertyOp22
 70
     1
102
RTVSPropertyOp23
 70
     1
102
RTVSPropertyOp24
 70
     1
102
RTVSPropertyOp25
 70
     1
102
RTVSPropertyOp26
 70
     1
102
RTVSPropertyOp27
 70
     1
  0
XRECORD
  5
7216
102
{ACAD_REACTORS
330
7215
102
}
330
7215
100
AcDbXrecord
280
     1
102
RTVSPropertyOp0
 70
     1
102
RTVSPropertyOp1
 70
     1
102
RTVSPropertyOp2
 70
     1
102
RTVSPropertyOp3
 70
     1
102
RTVSPropertyOp4
 70
     1
102
RTVSPropertyOp5
 70
     1
102
RTVSPropertyOp6
 70
     1
102
RTVSPropertyOp7
 70
     1
102
RTVSPropertyOp8
 70
     1
102
RTVSPropertyOp9
 70
     1
102
RTVSPropertyOp10
 70
     1
102
RTVSPropertyOp11
 70
     1
102
RTVSPropertyOp12
 70
     1
102
RTVSPropertyOp13
 70
     1
102
RTVSPropertyOp14
 70
     1
102
RTVSPropertyOp15
 70
     1
102
RTVSPropertyOp16
 70
     1
102
RTVSPropertyOp17
 70
     1
102
RTVSPropertyOp18
 70
     1
102
RTVSPropertyOp19
 70
     1
102
RTVSPropertyOp20
 70
     1
102
RTVSPropertyOp21
 70
     1
102
RTVSPropertyOp22
 70
     1
102
RTVSPropertyOp23
 70
     1
102
RTVSPropertyOp24
 70
     1
102
RTVSPropertyOp25
 70
     1
102
RTVSPropertyOp26
 70
     1
102
RTVSPropertyOp27
 70
     1
  0
XRECORD
  5
7218
102
{ACAD_REACTORS
330
7217
102
}
330
7217
100
AcDbXrecord
280
     1
102
RTVSPropertyOp0
 70
     1
102
RTVSPropertyOp1
 70
     1
102
RTVSPropertyOp2
 70
     1
102
RTVSPropertyOp3
 70
     1
102
RTVSPropertyOp4
 70
     1
102
RTVSPropertyOp5
 70
     1
102
RTVSPropertyOp6
 70
     1
102
RTVSPropertyOp7
 70
     1
102
RTVSPropertyOp8
 70
     1
102
RTVSPropertyOp9
 70
     1
102
RTVSPropertyOp10
 70
     1
102
RTVSPropertyOp11
 70
     1
102
RTVSPropertyOp12
 70
     1
102
RTVSPropertyOp13
 70
     1
102
RTVSPropertyOp14
 70
     1
102
RTVSPropertyOp15
 70
     1
102
RTVSPropertyOp16
 70
     1
102
RTVSPropertyOp17
 70
     1
102
RTVSPropertyOp18
 70
     1
102
RTVSPropertyOp19
 70
     1
102
RTVSPropertyOp20
 70
     1
102
RTVSPropertyOp21
 70
     1
102
RTVSPropertyOp22
 70
     1
102
RTVSPropertyOp23
 70
     1
102
RTVSPropertyOp24
 70
     1
102
RTVSPropertyOp25
 70
     1
102
RTVSPropertyOp26
 70
     1
102
RTVSPropertyOp27
 70
     1
  0
XRECORD
  5
7232
102
{ACAD_REACTORS
330
7231
102
}
330
7231
100
AcDbXrecord
280
     1
102
RTVSPropertyOp0
 70
     0
102
RTVSPropertyOp1
 70
     0
102
RTVSPropertyOp2
 70
     0
102
RTVSPropertyOp3
 70
     0
102
RTVSPropertyOp4
 70
     0
102
RTVSPropertyOp5
 70
     0
102
RTVSPropertyOp6
 70
     0
102
RTVSPropertyOp7
 70
     0
102
RTVSPropertyOp8
 70
     0
102
RTVSPropertyOp9
 70
     0
102
RTVSPropertyOp10
 70
     0
102
RTVSPropertyOp11
 70
     0
102
RTVSPropertyOp12
 70
     0
102
RTVSPropertyOp13
 70
     0
102
RTVSPropertyOp14
 70
     2
102
RTVSPropertyOp15
 70
     0
102
RTVSPropertyOp16
 70
     0
102
RTVSPropertyOp17
 70
     0
102
RTVSPropertyOp18
 70
     0
102
RTVSPropertyOp19
 70
     0
102
RTVSPropertyOp20
 70
     0
102
RTVSPropertyOp21
 70
     0
102
RTVSPropertyOp22
 70
     0
102
RTVSPropertyOp23
 70
     0
102
RTVSPropertyOp24
 70
     0
102
RTVSPropertyOp25
 70
     0
102
RTVSPropertyOp26
 70
     0
102
RTVSPropertyOp27
 70
     0
  0
XRECORD
  5
722C
102
{ACAD_REACTORS
330
722B
102
}
330
722B
100
AcDbXrecord
280
     1
102
RTVSPropertyOp0
 70
     1
102
RTVSPropertyOp1
 70
     1
102
RTVSPropertyOp2
 70
     1
102
RTVSPropertyOp3
 70
     1
102
RTVSPropertyOp4
 70
     1
102
RTVSPropertyOp5
 70
     1
102
RTVSPropertyOp6
 70
     1
102
RTVSPropertyOp7
 70
     1
102
RTVSPropertyOp8
 70
     1
102
RTVSPropertyOp9
 70
     1
102
RTVSPropertyOp10
 70
     1
102
RTVSPropertyOp11
 70
     1
102
RTVSPropertyOp12
 70
     1
102
RTVSPropertyOp13
 70
     1
102
RTVSPropertyOp14
 70
     1
102
RTVSPropertyOp15
 70
     1
102
RTVSPropertyOp16
 70
     1
102
RTVSPropertyOp17
 70
     1
102
RTVSPropertyOp18
 70
     1
102
RTVSPropertyOp19
 70
     1
102
RTVSPropertyOp20
 70
     1
102
RTVSPropertyOp21
 70
     1
102
RTVSPropertyOp22
 70
     1
102
RTVSPropertyOp23
 70
     1
102
RTVSPropertyOp24
 70
     1
102
RTVSPropertyOp25
 70
     1
102
RTVSPropertyOp26
 70
     1
102
RTVSPropertyOp27
 70
     1
  0
XRECORD
  5
7234
102
{ACAD_REACTORS
330
7233
102
}
330
7233
100
AcDbXrecord
280
     1
102
RTVSPropertyOp0
 70
     0
102
RTVSPropertyOp1
 70
     0
102
RTVSPropertyOp2
 70
     0
102
RTVSPropertyOp3
 70
     0
102
RTVSPropertyOp4
 70
     0
102
RTVSPropertyOp5
 70
     0
102
RTVSPropertyOp6
 70
     0
102
RTVSPropertyOp7
 70
     0
102
RTVSPropertyOp8
 70
     0
102
RTVSPropertyOp9
 70
     0
102
RTVSPropertyOp10
 70
     0
102
RTVSPropertyOp11
 70
     0
102
RTVSPropertyOp12
 70
     0
102
RTVSPropertyOp13
 70
     0
102
RTVSPropertyOp14
 70
     2
102
RTVSPropertyOp15
 70
     0
102
RTVSPropertyOp16
 70
     0
102
RTVSPropertyOp17
 70
     0
102
RTVSPropertyOp18
 70
     0
102
RTVSPropertyOp19
 70
     0
102
RTVSPropertyOp20
 70
     0
102
RTVSPropertyOp21
 70
     0
102
RTVSPropertyOp22
 70
     0
102
RTVSPropertyOp23
 70
     0
102
RTVSPropertyOp24
 70
     0
102
RTVSPropertyOp25
 70
     0
102
RTVSPropertyOp26
 70
     0
102
RTVSPropertyOp27
 70
     0
  0
XRECORD
  5
7224
102
{ACAD_REACTORS
330
7223
102
}
330
7223
100
AcDbXrecord
280
     1
102
RTVSPropertyOp0
 70
     1
102
RTVSPropertyOp1
 70
     1
102
RTVSPropertyOp2
 70
     1
102
RTVSPropertyOp3
 70
     1
102
RTVSPropertyOp4
 70
     1
102
RTVSPropertyOp5
 70
     1
102
RTVSPropertyOp6
 70
     1
102
RTVSPropertyOp7
 70
     1
102
RTVSPropertyOp8
 70
     1
102
RTVSPropertyOp9
 70
     1
102
RTVSPropertyOp10
 70
     1
102
RTVSPropertyOp11
 70
     1
102
RTVSPropertyOp12
 70
     1
102
RTVSPropertyOp13
 70
     1
102
RTVSPropertyOp14
 70
     1
102
RTVSPropertyOp15
 70
     1
102
RTVSPropertyOp16
 70
     1
102
RTVSPropertyOp17
 70
     1
102
RTVSPropertyOp18
 70
     1
102
RTVSPropertyOp19
 70
     1
102
RTVSPropertyOp20
 70
     1
102
RTVSPropertyOp21
 70
     1
102
RTVSPropertyOp22
 70
     1
102
RTVSPropertyOp23
 70
     1
102
RTVSPropertyOp24
 70
     1
102
RTVSPropertyOp25
 70
     1
102
RTVSPropertyOp26
 70
     1
102
RTVSPropertyOp27
 70
     1
  0
XRECORD
  5
722A
102
{ACAD_REACTORS
330
7229
102
}
330
7229
100
AcDbXrecord
280
     1
102
RTVSPropertyOp0
 70
     1
102
RTVSPropertyOp1
 70
     1
102
RTVSPropertyOp2
 70
     1
102
RTVSPropertyOp3
 70
     1
102
RTVSPropertyOp4
 70
     1
102
RTVSPropertyOp5
 70
     1
102
RTVSPropertyOp6
 70
     1
102
RTVSPropertyOp7
 70
     1
102
RTVSPropertyOp8
 70
     1
102
RTVSPropertyOp9
 70
     1
102
RTVSPropertyOp10
 70
     1
102
RTVSPropertyOp11
 70
     1
102
RTVSPropertyOp12
 70
     1
102
RTVSPropertyOp13
 70
     1
102
RTVSPropertyOp14
 70
     1
102
RTVSPropertyOp15
 70
     1
102
RTVSPropertyOp16
 70
     1
102
RTVSPropertyOp17
 70
     1
102
RTVSPropertyOp18
 70
     1
102
RTVSPropertyOp19
 70
     1
102
RTVSPropertyOp20
 70
     1
102
RTVSPropertyOp21
 70
     1
102
RTVSPropertyOp22
 70
     1
102
RTVSPropertyOp23
 70
     1
102
RTVSPropertyOp24
 70
     1
102
RTVSPropertyOp25
 70
     1
102
RTVSPropertyOp26
 70
     1
102
RTVSPropertyOp27
 70
     1
  0
XRECORD
  5
723E
102
{ACAD_REACTORS
330
723D
102
}
330
723D
100
AcDbXrecord
280
     1
102
RTVSPropertyOp0
 70
     1
102
RTVSPropertyOp1
 70
     1
102
RTVSPropertyOp2
 70
     1
102
RTVSPropertyOp3
 70
     1
102
RTVSPropertyOp4
 70
     1
102
RTVSPropertyOp5
 70
     1
102
RTVSPropertyOp6
 70
     1
102
RTVSPropertyOp7
 70
     1
102
RTVSPropertyOp8
 70
     1
102
RTVSPropertyOp9
 70
     1
102
RTVSPropertyOp10
 70
     1
102
RTVSPropertyOp11
 70
     1
102
RTVSPropertyOp12
 70
     1
102
RTVSPropertyOp13
 70
     1
102
RTVSPropertyOp14
 70
     1
102
RTVSPropertyOp15
 70
     1
102
RTVSPropertyOp16
 70
     1
102
RTVSPropertyOp17
 70
     1
102
RTVSPropertyOp18
 70
     1
102
RTVSPropertyOp19
 70
     1
102
RTVSPropertyOp20
 70
     1
102
RTVSPropertyOp21
 70
     1
102
RTVSPropertyOp22
 70
     1
102
RTVSPropertyOp23
 70
     1
102
RTVSPropertyOp24
 70
     1
102
RTVSPropertyOp25
 70
     1
102
RTVSPropertyOp26
 70
     1
102
RTVSPropertyOp27
 70
     1
  0
ENDSEC
  0
EOF
