  0
SECTION
  2
HEADER
  9
$ACADVER
  1
AC1009
  9
$INSBASE
 10
0.0
 20
0.0
 30
0.0
  9
$EXTMIN
 10
111.08315788519209
 20
-3090.4993781094968
 30
0.0
  9
$EXTMAX
 10
443.64112264562459
 20
-2767.5103214216028
 30
0.0000000000002274
  9
$LIMMIN
 10
0.0
 20
0.0
  9
$LIMMAX
 10
420.0
 20
297.0
  9
$ORTHOMODE
 70
     1
  9
$REGENMODE
 70
     1
  9
$FILLMODE
 70
     1
  9
$QTEXTMODE
 70
     0
  9
$MIRRTEXT
 70
     1
  9
$DRAGMODE
 70
     2
  9
$LTSCALE
 40
1.0
  9
$OSMODE
 70
    37
  9
$ATTMODE
 70
     1
  9
$TEXTSIZE
 40
2.5
  9
$TRACEWID
 40
1.0
  9
$TEXTSTYLE
  7
KANJI
  9
$CLAYER
  8
2寸法線
  9
$CELTYPE
  6
BYLAYER
  9
$CECOLOR
 62
   256
  9
$DIMSCALE
 40
0.0
  9
$DIMASZ
 40
1.8
  9
$DIMEXO
 40
1.0
  9
$DIMDLI
 40
0.0
  9
$DIMRND
 40
0.0
  9
$DIMDLE
 40
0.0
  9
$DIMEXE
 40
1.0
  9
$DIMTP
 40
0.0
  9
$DIMTM
 40
0.0
  9
$DIMTXT
 40
2.5
  9
$DIMCEN
 40
0.0
  9
$DIMTSZ
 40
0.0
  9
$DIMTOL
 70
     0
  9
$DIMLIM
 70
     0
  9
$DIMTIH
 70
     0
  9
$DIMTOH
 70
     0
  9
$DIMSE1
 70
     0
  9
$DIMSE2
 70
     0
  9
$DIMTAD
 70
     1
  9
$DIMZIN
 70
     8
  9
$DIMBLK
  1

  9
$DIMASO
 70
     1
  9
$DIMSHO
 70
     1
  9
$DIMPOST
  1

  9
$DIMAPOST
  1

  9
$DIMALT
 70
     0
  9
$DIMALTD
 70
     2
  9
$DIMALTF
 40
25.399999999999999
  9
$DIMLFAC
 40
1.0
  9
$DIMTOFL
 70
     1
  9
$DIMTVP
 40
0.0
  9
$DIMTIX
 70
     0
  9
$DIMSOXD
 70
     0
  9
$DIMSAH
 70
     1
  9
$DIMBLK1
  1
2
  9
$DIMBLK2
  1
2
  9
$DIMSTYLE
  2
M
  9
$DIMCLRD
 70
     0
  9
$DIMCLRE
 70
     0
  9
$DIMCLRT
 70
     0
  9
$DIMTFAC
 40
1.0
  9
$DIMGAP
 40
0.5
  9
$LUNITS
 70
     2
  9
$LUPREC
 70
     3
  9
$SKETCHINC
 40
1.0
  9
$FILLETRAD
 40
0.0
  9
$AUNITS
 70
     0
  9
$AUPREC
 70
     1
  9
$MENU
  1
.
  9
$ELEVATION
 40
0.0
  9
$PELEVATION
 40
0.0
  9
$THICKNESS
 40
0.0
  9
$LIMCHECK
 70
     0
  9
$BLIPMODE
 70
     0
  9
$CHAMFERA
 40
10.0
  9
$CHAMFERB
 40
10.0
  9
$SKPOLY
 70
     0
  9
$TDCREATE
 40
2454393.806994895
  9
$TDUPDATE
 40
2454396.4939151038
  9
$TDINDWG
 40
0.0704754398
  9
$TDUSRTIMER
 40
0.070475081
  9
$USRTIMER
 70
     1
  9
$ANGBASE
 50
0.0
  9
$ANGDIR
 70
     0
  9
$PDMODE
 70
     0
  9
$PDSIZE
 40
0.0
  9
$PLINEWID
 40
0.0
  9
$COORDS
 70
     0
  9
$SPLFRAME
 70
     0
  9
$SPLINETYPE
 70
     6
  9
$SPLINESEGS
 70
     8
  9
$ATTDIA
 70
     1
  9
$ATTREQ
 70
     1
  9
$HANDLING
 70
     1
  9
$HANDSEED
  5
8D95
  9
$SURFTAB1
 70
     6
  9
$SURFTAB2
 70
     6
  9
$SURFTYPE
 70
     6
  9
$SURFU
 70
     6
  9
$SURFV
 70
     6
  9
$UCSNAME
  2

  9
$UCSORG
 10
0.0
 20
0.0
 30
0.0
  9
$UCSXDIR
 10
1.0
 20
0.0
 30
0.0
  9
$UCSYDIR
 10
0.0
 20
1.0
 30
0.0
  9
$PUCSNAME
  2

  9
$PUCSORG
 10
0.0
 20
0.0
 30
0.0
  9
$PUCSXDIR
 10
1.0
 20
0.0
 30
0.0
  9
$PUCSYDIR
 10
0.0
 20
1.0
 30
0.0
  9
$USERI1
 70
     0
  9
$USERI2
 70
     0
  9
$USERI3
 70
     0
  9
$USERI4
 70
     0
  9
$USERI5
 70
     0
  9
$USERR1
 40
0.0
  9
$USERR2
 40
0.0
  9
$USERR3
 40
0.0
  9
$USERR4
 40
0.0
  9
$USERR5
 40
0.0
  9
$WORLDVIEW
 70
     1
  9
$SHADEDGE
 70
     3
  9
$SHADEDIF
 70
    70
  9
$TILEMODE
 70
     1
  9
$MAXACTVP
 70
    48
  9
$PLIMCHECK
 70
     0
  9
$PEXTMIN
 10
1.0000000000000000E+020
 20
1.0000000000000000E+020
 30
1.0000000000000000E+020
  9
$PEXTMAX
 10
-1.0000000000000000E+020
 20
-1.0000000000000000E+020
 30
-1.0000000000000000E+020
  9
$PLIMMIN
 10
0.0
 20
0.0
  9
$PLIMMAX
 10
420.0
 20
297.0
  9
$UNITMODE
 70
     0
  9
$VISRETAIN
 70
     1
  9
$PLINEGEN
 70
     0
  9
$PSLTSCALE
 70
     1
  0
ENDSEC
  0
SECTION
  2
TABLES
  0
TABLE
  2
VPORT
 70
     4
  0
VPORT
  2
*ACTIVE
 70
     0
 10
0.0
 20
0.0
 11
1.0
 21
1.0
 12
271.47845735013891
 22
-2934.6827600786719
 13
0.0
 23
0.0
 14
10.0
 24
10.0
 15
10.0
 25
10.0
 16
0.0
 26
0.0
 36
1.0
 17
0.0
 27
0.0
 37
0.0
 40
331.03040372740219
 41
1.5937904269081491
 42
50.0
 43
0.0
 44
0.0
 50
0.0
 51
0.0
 71
     0
 72
   100
 73
     1
 74
     1
 75
     0
 76
     0
 77
     0
 78
     0
  0
ENDTAB
  0
TABLE
  2
LTYPE
 70
     1
  0
LTYPE
  2
CONTINUOUS
 70
     0
  3
Solid line
 72
    65
 73
     0
 40
0.0
  0
ENDTAB
  0
TABLE
  2
LAYER
 70
     4
  0
LAYER
  2
0
 70
     0
 62
     7
  6
CONTINUOUS
  0
LAYER
  2
2寸法線
 70
     0
 62
     2
  6
CONTINUOUS
  0
LAYER
  2
1外形線
 70
     0
 62
     3
  6
CONTINUOUS
  0
LAYER
  2
DEFPOINTS
 70
     0
 62
     7
  6
CONTINUOUS
  0
ENDTAB
  0
TABLE
  2
STYLE
 70
     2
  0
STYLE
  2
STANDARD
 70
     0
 40
0.0
 41
1.0
 50
0.0
 71
     0
 42
2.5
  3
txt
  4

  0
STYLE
  2
KANJI
 70
     0
 40
0.0
 41
1.0
 50
0.0
 71
     0
 42
2.5
  3
simplex.shx
  4
bigfont.shx
  0
ENDTAB
  0
TABLE
  2
VIEW
 70
     0
  0
ENDTAB
  0
TABLE
  2
UCS
 70
     0
  0
ENDTAB
  0
TABLE
  2
APPID
 70
     1
  0
APPID
  2
ACAD
 70
     0
  0
ENDTAB
  0
TABLE
  2
DIMSTYLE
 70
     2
  0
DIMSTYLE
  2
STANDARD
 70
     0
  3

  4

  5

  6

  7

 40
1.0
 41
0.18
 42
0.0625
 43
0.38
 44
0.18
 45
0.0
 46
0.0
 47
0.0
 48
0.0
140
0.18
141
0.09
142
0.0
143
25.399999999999999
144
1.0
145
0.0
146
1.0
147
0.09
 71
     0
 72
     0
 73
     0
 74
     0
 75
     0
 76
     0
 77
     0
 78
     0
170
     0
171
     2
172
     1
173
     0
174
     0
175
     0
176
     0
177
     0
178
     0
  0
DIMSTYLE
  2
M
 70
     0
  3

  4

  5

  6

  7

 40
0.0
 41
2.0
 42
1.0
 43
0.0
 44
1.0
 45
0.0
 46
0.0
 47
0.0
 48
0.0
140
2.5
141
0.0
142
0.0
143
25.399999999999999
144
1.0
145
0.0
146
1.0
147
0.5
 71
     0
 72
     0
 73
     0
 74
     0
 75
     0
 76
     0
 77
     1
 78
     8
170
     0
171
     2
172
     1
173
     1
174
     0
175
     0
176
     0
177
     0
178
     0
  0
ENDTAB
  0
ENDSEC
  0
SECTION
  2
BLOCKS
  0
BLOCK
  8
0
  2
$MODEL_SPACE
 70
     0
 10
0.0
 20
0.0
 30
0.0
  3
$MODEL_SPACE
  1

  0
ENDBLK
  5
8D56
  8
0
  0
BLOCK
 67
     1
  8
0
  2
$PAPER_SPACE
 70
     0
 10
0.0
 20
0.0
 30
0.0
  3
$PAPER_SPACE
  1

  0
ENDBLK
  5
8D52
 67
     1
  8
0
  0
BLOCK
  8
0
  2
2
 70
     0
 10
0.0
 20
0.0
 30
0.0
  3
2
  1

  0
INSERT
  5
131
  8
0
  6
CONTINUOUS
 62
     0
  2
*U3
 10
0.0
 20
0.0
 30
0.0
1001
ACAD
1002
{
1000
R14_HATCH_DATA
1000
131
1011
1.0
1021
0.0
1031
0.0
1021
0.0
1031
0.0
1011
0.0
1021
0.0
1031
0.0
1021
1.0
1031
0.0
1011
0.0
1021
0.0
1031
0.0
1021
0.0
1031
1.0
1040
0.0
1010
0.0
1020
0.0
1030
1.0
1000
SOLID
1070
     1
1070
     0
1071
        1
1071
        1
1071
        3
1070
     1
1040
-0.9999999999983517
1040
0.2679491924306774
1040
0.0
1040
0.0
1070
     1
1040
0.0
1040
0.0
1040
-0.9999999999983517
1040
-0.2679491924306765
1070
     1
1040
-0.9999999999983524
1040
-0.267949192430676
1040
-0.9999999999983524
1040
0.2679491924306774
1071
        0
1070
     0
1070
     1
1071
        1
1040
2.9957451172313361
1040
-4.1249460962632014
1040
0.0
1002
}
  0
ENDBLK
  5
132
  8
0
  0
BLOCK
  8
0
  2
*U3
 70
     1
 10
0.0
 20
0.0
 30
0.0
  3
*U3
  1

  0
SOLID
  5
864C
  8
0
  6
CONTINUOUS
 62
     0
 10
0.666666666665568
 20
0.0000000000000004
 30
0.0
 11
0.9999999999983517
 21
0.2679491924306774
 31
0.0
 12
0.0
 22
0.0
 32
0.0
 13
0.0
 23
0.0
 33
0.0
210
0.0
220
0.0
230
-1.0
  0
SOLID
  5
864D
  8
0
  6
CONTINUOUS
 62
     0
 10
0.666666666665568
 20
0.0000000000000004
 30
0.0
 11
0.0
 21
0.0
 31
0.0
 12
0.9999999999983524
 22
-0.267949192430676
 32
0.0
 13
0.9999999999983524
 23
-0.267949192430676
 33
0.0
210
0.0
220
0.0
230
-1.0
  0
SOLID
  5
864E
  8
0
  6
CONTINUOUS
 62
     0
 10
0.666666666665568
 20
0.0000000000000004
 30
0.0
 11
0.9999999999983524
 21
-0.267949192430676
 31
0.0
 12
0.9999999999983517
 22
0.2679491924306774
 32
0.0
 13
0.9999999999983517
 23
0.2679491924306774
 33
0.0
210
0.0
220
0.0
230
-1.0
  0
ENDBLK
  5
8650
  8
0
  0
ENDSEC
  0
SECTION
  2
ENTITIES
  0
LINE
  5
831A
  8
1外形線
 10
167.5569087967917
 20
-2812.3234540695798
 30
0.0000000000002274
 11
153.310697545555
 21
-2812.3234540695798
 31
0.0000000000002274
  0
LINE
  5
831C
  8
1外形線
 10
166.09514198999889
 20
-2874.445844254903
 30
0.0000000000002274
 11
154.01122177300689
 21
-2874.445844254903
 31
0.0000000000002274
  0
ARC
  5
831E
  8
1外形線
 10
148.0951419899059
 20
-2831.245844254905
 30
0.0000000000002274
 40
32.200000000000003
 50
30.543407149395019
 51
70.811863546270629
  0
LINE
  5
831F
  8
1外形線
 10
116.0951419899077
 20
-2897.2458442549
 30
0.0000000000002274
 11
178.09514198990769
 21
-2897.2458442549
 31
0.0000000000002274
  0
LINE
  5
8321
  8
1外形線
 10
117.0951419899059
 20
-2902.2458442549
 30
0.0000000000002274
 11
177.29514198990839
 21
-2902.2458442549
 31
0.0000000000002274
  0
LINE
  5
8323
  8
1外形線
 10
117.095665807655
 20
-2940.2458442549
 30
0.0000000000002274
 11
188.6956658076557
 21
-2940.2458442549
 31
0.0000000000002274
  0
LINE
  5
8324
  8
1外形線
 10
117.0951419899059
 20
-2902.2458442549
 30
0.0000000000002274
 11
177.7943296253211
 21
-2902.2458442549
 31
0.0000000000002274
  0
ARC
  5
8326
  8
1外形線
 10
140.29514198990671
 20
-2850.2458442549068
 30
0.0000000000002274
 40
24.199999999999982
 50
180.0
 51
270.0
  0
LINE
  5
8327
  8
1外形線
 10
116.0951419899059
 20
-2824.2458442549068
 30
0.0000000000002274
 11
116.0951419899077
 21
-2901.2458442549032
 31
0.0000000000002274
  0
ARC
  5
8328
  8
1外形線
 10
117.0951419899077
 20
-2901.2458442549032
 30
0.0000000000002274
 40
1.0
 50
180.0
 51
270.0
  0
LINE
  5
832A
  8
1外形線
 10
116.29566580765589
 20
-2935.2458442548982
 30
0.0000000000002274
 11
140.09514198986949
 21
-2935.2458442548982
 31
0.0000000000002274
  0
LINE
  5
832B
  8
1外形線
 10
116.29566580765589
 20
-2935.2458442548982
 30
0.0000000000002274
 11
116.1012522269335
 21
-2903.2513997251622
 31
0.0000000000002274
  0
LINE
  5
832C
  8
1外形線
 10
116.09566580765529
 20
-2939.2458442549
 30
0.0000000000002274
 11
116.09566580765529
 21
-2935.4458442548998
 31
0.0000000000002274
  0
ARC
  5
832D
  8
1外形線
 10
117.0956658076572
 20
-2939.2458442549
 30
0.0000000000002274
 40
1.0
 50
180.0
 51
270.0
  0
ARC
  5
832E
  8
1外形線
 10
116.29566580765589
 20
-2935.4458442548998
 30
0.0000000000002274
 40
0.2
 50
90.0
 51
180.0
  0
ARC
  5
832F
  8
1外形線
 10
117.1012367951911
 20
-2903.2458442548982
 30
0.0000000000002274
 40
1.0
 50
90.0
 51
180.3183066114581
  0
LINE
  5
8331
  8
1外形線
 10
150.8951419899073
 20
-2874.4458442549048
 30
0.0000000000002274
 11
140.0951419899059
 21
-2874.4458442549048
 31
0.0000000000002274
  0
LINE
  5
8334
  8
1外形線
 10
154.01122177300891
 20
-2874.445844254903
 30
0.0000000000002274
 11
150.8951419899073
 21
-2874.445844254903
 31
0.0000000000002274
  0
ARC
  5
8335
  8
1外形線
 10
140.29514198990671
 20
-2824.245844254905
 30
0.0000000000002274
 40
24.199999999999982
 50
89.99999999999838
 51
180.0
  0
ARC
  5
8336
  8
1外形線
 10
138.6480305963629
 20
-2826.5234540695778
 30
0.0000000000002274
 40
14.19999999999999
 50
90.0
 51
117.2660444507387
  0
ARC
  5
8338
  8
1外形線
 10
130.29424184759921
 20
-2835.5635690130539
 30
0.0000000000002274
 40
14.19999999999999
 50
157.25314872562771
 51
180.64513609282861
  0
ARC
  5
833E
  8
1外形線
 10
146.89424184759591
 20
-2842.5234540695801
 30
0.0000000000002274
 40
32.200000000000003
 50
117.2660444507387
 51
157.25314872562771
  0
LINE
  5
833F
  8
1外形線
 10
138.6480305963629
 20
-2812.3234540695798
 30
0.0000000000002274
 11
153.310697545555
 21
-2812.3234540695798
 31
0.0000000000002274
  0
LINE
  5
8342
  8
1外形線
 10
150.8951419899073
 20
-2800.0458442549052
 30
0.0000000000002274
 11
140.0951419899059
 21
-2800.0458442549052
 31
0.0000000000002274
  0
ARC
  5
8343
  8
1外形線
 10
154.01122177300891
 20
-2814.245844254905
 30
0.0000000000002274
 40
14.19999999999999
 50
70.811863546270629
 51
89.999999999996732
  0
LINE
  5
8344
  8
1外形線
 10
154.0112217730107
 20
-2800.0458442549052
 30
0.0000000000002274
 11
150.8951419899073
 21
-2800.0458442549052
 31
0.0000000000002274
  0
ARC
  5
8345
  8
1外形線
 10
166.09514198999719
 20
-2850.4458442549021
 30
0.0000000000002274
 40
24.0
 50
270.0
 51
0.0
  0
ARC
  5
8347
  8
1外形線
 10
177.29514198990691
 20
-2901.2458442549
 30
0.0000000000002274
 40
1.0
 50
270.0
 51
0.0
  0
LINE
  5
8348
  8
1外形線
 10
189.49566580765469
 20
-2935.2458442548982
 30
0.0000000000002274
 11
189.49566580765469
 21
-2922.2280443464078
 31
0.0000000000002274
  0
LINE
  5
8349
  8
1外形線
 10
166.09514198999889
 20
-2935.2458442548982
 30
0.0000000000002274
 11
189.49566580765469
 21
-2935.2458442548982
 31
0.0000000000002274
  0
LINE
  5
834A
  8
1外形線
 10
189.6956658076557
 20
-2939.2458442548859
 30
0.0000000000002274
 11
189.69566580765169
 21
-2935.4458442548848
 31
0.0000000000002274
  0
ARC
  5
834B
  8
1外形線
 10
188.6956658076557
 20
-2939.2458442548859
 30
0.0000000000002274
 40
1.0
 50
270.0
 51
0.0000000000260551
  0
ARC
  5
834C
  8
1外形線
 10
189.49566580765469
 20
-2935.4458442548848
 30
0.0000000000002274
 40
0.2
 50
0.0000000000260551
 51
90.000000000021103
  0
LINE
  5
834D
  8
1外形線
 10
178.59560984740131
 20
-2902.647555022415
 30
0.0000000000002274
 11
186.57858338569639
 21
-2913.3390374397741
 31
0.0000000000002274
  0
ARC
  5
834E
  8
1外形線
 10
177.7943296253211
 20
-2903.2458442548982
 30
0.0000000000002274
 40
1.0
 50
36.747470952860994
 51
90.0
  0
ARC
  5
834F
  8
1外形線
 10
174.49566580765469
 20
-2922.2280443464078
 30
0.0000000000002274
 40
15.0
 50
0.0
 51
36.747470952860994
  0
LINE
  5
8350
  8
1外形線
 10
178.09514198990769
 20
-2897.2458442549
 30
0.0000000000002274
 11
178.09514198990769
 21
-2871.23045394578
 31
0.0000000000002274
  0
ARC
  5
8351
  8
1外形線
 10
178.0951419899059
 20
-2897.4458442548971
 30
0.0000000000002274
 40
0.2
 50
0.0
 51
90.0
  0
LINE
  5
8352
  8
1外形線
 10
178.29514198990839
 20
-2897.4458442548971
 30
0.0000000000002274
 11
178.29514198990839
 21
-2901.2458442549
 31
0.0000000000002274
  0
ARC
  5
8353
  8
1外形線
 10
176.09514198999719
 20
-2835.4862369568709
 30
0.0000000000002274
 40
14.0
 50
0.0
 51
22.746851274372251
  0
LINE
  5
8355
  8
1外形線
 10
190.09514198999889
 20
-2835.4862369568709
 30
0.0000000000002274
 11
190.09514198999889
 21
-2850.4458442549039
 31
0.0000000000002274
  0
ARC
  5
835A
  8
1外形線
 10
159.310697545555
 20
-2842.5234540695801
 30
0.0000000000002274
 40
32.200000000000003
 50
22.746851274372251
 51
62.733955549261111
  0
ARC
  5
835C
  8
1外形線
 10
167.5569087967917
 20
-2826.5234540695778
 30
0.0000000000002274
 40
14.19999999999999
 50
62.733955549261111
 51
90.0
  0
ARC
  5
8361
  8
1外形線
 10
414.42913854091012
 20
-3061.287394004783
 30
0.0000000000002274
 40
24.199999999999982
 50
270.0
 51
0.0
  0
ARC
  5
8362
  8
1外形線
 10
407.42913854091012
 20
-3053.4873940047828
 30
0.0000000000002274
 40
32.200000000000003
 50
19.188136453717512
 51
59.456592850590198
  0
LINE
  5
8364
  8
1外形線
 10
364.22913854091132
 20
-3035.4873940046891
 30
0.0000000000002274
 11
364.2291385409095
 21
-3050.6873940047799
 31
0.0000000000002274
  0
LINE
  5
8366
  8
1外形線
 10
426.35152872623411
 20
-3034.0256271978978
 30
0.0000000000002274
 11
426.35152872623411
 21
-3048.2718384491341
 31
0.0000000000002274
  0
LINE
  5
8367
  8
1外形線
 10
336.42913854091393
 20
-3084.4873940047828
 30
0.0000000000002274
 11
336.42913854091393
 21
-3023.7882063693669
 31
0.0000000000002274
  0
LINE
  5
8368
  8
1外形線
 10
336.42913854091393
 20
-3084.4873940047828
 30
0.0000000000002274
 11
336.42913854091393
 21
-3024.2873940047798
 31
0.0000000000002274
  0
LINE
  5
8369
  8
1外形線
 10
341.42913854091393
 20
-3085.4873940047828
 30
0.0000000000002274
 11
341.42913854091393
 21
-3023.4873940047828
 31
0.0000000000002274
  0
LINE
  5
836A
  8
1外形線
 10
298.42913854091393
 20
-3084.4868701870332
 30
0.0000000000002274
 11
298.42913854091393
 21
-3012.8868701870369
 31
0.0000000000002274
  0
ARC
  5
836C
  8
1外形線
 10
388.4291385409083
 20
-3061.287394004783
 30
0.0000000000002274
 40
24.199999999999982
 50
180.0
 51
270.0
  0
LINE
  5
836D
  8
1外形線
 10
414.4291385409083
 20
-3085.4873940047828
 30
0.0000000000002274
 11
337.42913854091012
 21
-3085.4873940047828
 31
0.0000000000002274
  0
LINE
  5
836F
  8
1外形線
 10
303.42913854091393
 20
-3085.2868701870329
 30
0.0000000000002274
 11
335.42358307065069
 21
-3085.4812837677559
 31
0.0000000000002274
  0
LINE
  5
8370
  8
1外形線
 10
303.42913854091393
 20
-3085.2868701870329
 30
0.0000000000002274
 11
303.42913854091393
 21
-3061.487394004821
 31
0.0000000000002274
  0
ARC
  5
8371
  8
1外形線
 10
303.22913854091291
 20
-3085.2868701870329
 30
0.0000000000002274
 40
0.2
 50
270.0
 51
0.0
  0
LINE
  5
8372
  8
1外形線
 10
299.42913854091393
 20
-3085.4868701870332
 30
0.0000000000002274
 11
303.22913854091291
 21
-3085.4868701870332
 31
0.0000000000002274
  0
ARC
  5
8373
  8
1外形線
 10
299.42913854091393
 20
-3084.4868701870332
 30
0.0000000000002274
 40
1.0
 50
180.0
 51
270.0
  0
ARC
  5
8375
  8
1外形線
 10
337.42913854091012
 20
-3084.4873940047828
 30
0.0000000000002274
 40
1.0
 50
180.0
 51
270.0
  0
ARC
  5
8376
  8
1外形線
 10
335.42913854091393
 20
-3084.4812991995009
 30
0.0000000000002274
 40
1.0
 50
269.68169338854813
 51
0.0
  0
LINE
  5
837A
  8
1外形線
 10
364.2291385409095
 20
-3050.6873940047799
 30
0.0000000000002274
 11
364.2291385409095
 21
-3061.4873940047828
 31
0.0000000000002274
  0
ARC
  5
837C
  8
1外形線
 10
412.1515287262352
 20
-3062.9345053983288
 30
0.0000000000002274
 40
14.19999999999999
 50
332.7339555492735
 51
0.0
  0
ARC
  5
837E
  8
1外形線
 10
396.1515287262352
 20
-3054.6882941470922
 30
0.0000000000002274
 40
32.200000000000003
 50
292.7468512743751
 51
332.7339555492735
  0
ARC
  5
8380
  8
1外形線
 10
403.11141378275852
 20
-3071.2882941470921
 30
0.0000000000002274
 40
14.19999999999999
 50
269.3548639071617
 51
292.7468512743751
  0
LINE
  5
8382
  8
1外形線
 10
426.35152872623411
 20
-3062.9345053983288
 30
0.0000000000002274
 11
426.35152872623411
 21
-3048.2718384491341
 31
0.0000000000002274
  0
LINE
  5
8383
  8
1外形線
 10
341.42913854091393
 20
-3023.4873940047828
 30
0.0000000000002274
 11
367.44452885003329
 21
-3023.4873940047828
 31
0.0000000000002274
  0
ARC
  5
8384
  8
1外形線
 10
388.22913854091132
 20
-3035.4873940046932
 30
0.0000000000002274
 40
24.0
 50
90.000000000003226
 51
180.0
  0
LINE
  5
8385
  8
1外形線
 10
336.02742777339819
 20
-3022.9869261472891
 30
0.0000000000002274
 11
325.33594535603811
 21
-3015.003952608995
 31
0.0000000000002274
  0
LINE
  5
8386
  8
1外形線
 10
303.42913854091393
 20
-3035.4873940046891
 30
0.0000000000002274
 11
303.42913854091393
 21
-3012.0868701870372
 31
0.0000000000002274
  0
LINE
  5
8387
  8
1外形線
 10
303.42913854091393
 20
-3012.0868701870331
 30
0.0000000000002274
 11
316.44693844940372
 21
-3012.0868701870331
 31
0.0000000000002274
  0
ARC
  5
8388
  8
1外形線
 10
299.42913854092632
 20
-3012.8868701870351
 30
0.0000000000002274
 40
1.0
 50
89.999999999978783
 51
180.0
  0
ARC
  5
8389
  8
1外形線
 10
303.22913854092769
 20
-3012.0868701870372
 30
0.0000000000002274
 40
0.2
 50
359.9999999999738
 51
89.999999999978783
  0
LINE
  5
838A
  8
1外形線
 10
299.42913854092632
 20
-3011.8868701870351
 30
0.0000000000002274
 11
303.22913854092769
 21
-3011.8868701870369
 31
0.0000000000002274
  0
ARC
  5
838B
  8
1外形線
 10
316.44693844940531
 20
-3027.0868701870331
 30
0.0000000000002274
 40
15.0
 50
53.252529047139959
 51
90.000000000001606
  0
ARC
  5
838C
  8
1外形線
 10
337.42913854091358
 20
-3024.287394004783
 30
0.0000000000002274
 40
1.0
 50
89.99999999999838
 51
180.0
  0
ARC
  5
838D
  8
1外形線
 10
335.42913854091393
 20
-3023.7882063693669
 30
0.0000000000002274
 40
1.0
 50
0.0
 51
53.252529047138651
  0
ARC
  5
838E
  8
1外形線
 10
341.22913854091291
 20
-3023.4873940047828
 30
0.0000000000002274
 40
0.2
 50
0.0
 51
89.99999999999838
  0
LINE
  5
838F
  8
1外形線
 10
341.22913854091291
 20
-3023.2873940047798
 30
0.0000000000002274
 11
337.42913854091358
 21
-3023.2873940047798
 31
0.0000000000002274
  0
LINE
  5
8391
  8
1外形線
 10
403.18874583894251
 20
-3011.4873940046891
 30
0.0000000000002274
 11
388.2291385409095
 21
-3011.4873940046891
 31
0.0000000000002274
  0
ARC
  5
8394
  8
1外形線
 10
396.1515287262352
 20
-3042.2718384491341
 30
0.0000000000002274
 40
32.200000000000003
 50
27.266044450726429
 51
67.253148725623362
  0
ARC
  5
8396
  8
1外形線
 10
412.1515287262352
 20
-3034.0256271978978
 30
0.0000000000002274
 40
14.19999999999999
 50
0.0
 51
27.266044450726429
  0
ARC
  5
8398
  8
1外形線
 10
403.18874583894251
 20
-3025.4873940046919
 30
0.0000000000002274
 40
14.0
 50
67.253148725623362
 51
90.000000000001606
  0
LINE
  5
8399
  8
1外形線
 10
438.6291385409092
 20
-3050.6873940047831
 30
0.0000000000002274
 11
438.6291385409092
 21
-3061.4873940047828
 31
0.0000000000002274
  0
LINE
  5
839A
  8
1外形線
 10
438.6291385409092
 20
-3047.57131422168
 30
0.0000000000002274
 11
438.6291385409092
 21
-3050.6873940047831
 31
0.0000000000002274
  0
ARC
  5
839B
  8
1外形線
 10
424.42913854091012
 20
-3047.57131422168
 30
0.0000000000002274
 40
14.19999999999999
 50
0.0
 51
19.188136453717512
  0
LINE
  5
839E
  8
1外形線
  6
CONTINUOUS
 62
     3
 10
365.2291385409095
 20
-2902.2458442549
 30
0.0000000000002274
 11
437.62913854090732
 21
-2902.245844254905
 31
0.0000000000002274
  0
LINE
  5
839F
  8
1外形線
  6
CONTINUOUS
 62
     3
 10
437.17341045090791
 20
-2902.2458442549
 30
0.0000000000002274
 11
403.02913854090849
 21
-2902.2458442549
 31
0.0000000000002274
  0
ARC
  5
83A0
  8
1外形線
  6
CONTINUOUS
 62
     3
 10
441.42913854091012
 20
-2923.9696671813981
 30
0.0000000000002274
 40
15.0
 50
131.71091988760111
 51
180.0
  0
LINE
  5
83A3
  8
1外形線
  6
CONTINUOUS
 62
     3
 10
364.42913854091012
 20
-2897.2458442549
 30
0.0000000000002274
 11
438.42913854091017
 21
-2897.245844254905
 31
0.0000000000002274
  0
ARC
  5
83A4
  8
1外形線
  6
CONTINUOUS
 10
393.42913854091171
 20
-2845.2458442549032
 30
0.0000000000002274
 40
45.0
 50
0.0
 51
45.000000000003453
  0
LINE
  5
83A7
  8
1外形線
 10
341.42913854091393
 20
-2874.2458442549032
 30
0.0000000000002274
 11
341.42913854091393
 21
-2800.245844254905
 31
0.0000000000002274
  0
LINE
  5
83A8
  8
1外形線
 10
336.42913854091393
 20
-2873.4458442549039
 30
0.0000000000002274
 11
336.42913854091393
 21
-2801.0458442549052
 31
0.0000000000002274
  0
LINE
  5
83A9
  8
1外形線
 10
298.42913854091728
 20
-2835.6458442549001
 30
0.0000000000002274
 11
298.42913854091393
 21
-2873.445844254903
 31
0.0000000000002274
  0
LINE
  5
83AA
  8
1外形線
 10
303.42913854091728
 20
-2835.6458442549001
 30
0.0000000000002274
 11
303.42913854091393
 21
-2874.445844254903
 31
0.0000000000002274
  0
ARC
  5
83AB
  8
1外形線
  6
CONTINUOUS
 10
352.42913854090989
 20
-2886.2458442549
 30
0.0000000000002274
 40
12.0
 50
0.0
 51
44.999999999979273
  0
LINE
  5
83B0
  8
1外形線
 10
335.42913854091393
 20
-2874.4458442549048
 30
0.0000000000002274
 11
299.42913854091393
 21
-2874.445844254903
 31
0.0000000000002274
  0
ARC
  5
83B1
  8
1外形線
 10
299.42913854091393
 20
-2873.445844254903
 30
0.0000000000002274
 40
1.0
 50
180.0
 51
269.99999999999648
  0
LINE
  5
83B2
  8
1外形線
  6
CONTINUOUS
 10
341.42913854091393
 20
-2874.2458442549068
 30
0.0000000000002274
 11
352.42913854091393
 21
-2874.245844254905
 31
0.0000000000002274
  0
ARC
  5
83B3
  8
1外形線
 10
337.42913854091358
 20
-2873.4458442549039
 30
0.0000000000002274
 40
1.0
 50
180.0
 51
270.0
  0
ARC
  5
83B4
  8
1外形線
 10
335.42913854091393
 20
-2873.4458442549039
 30
0.0000000000002274
 40
1.0
 50
269.99999999999648
 51
0.0
  0
ARC
  5
83B5
  8
1外形線
 10
341.22913854091291
 20
-2874.2458442549032
 30
0.0000000000002274
 40
0.2
 50
270.0
 51
0.0
  0
LINE
  5
83B6
  8
1外形線
 10
341.22913854091291
 20
-2874.4458442549048
 30
0.0000000000002274
 11
337.42913854091358
 21
-2874.4458442549048
 31
0.0000000000002274
  0
ARC
  5
83B7
  8
1外形線
  6
CONTINUOUS
 10
352.42913854091393
 20
-2886.245844254905
 30
0.0000000000002274
 40
12.0
 50
45.00000000001036
 51
90.000000000001606
  0
ARC
  5
83B8
  8
1外形線
  6
CONTINUOUS
 62
     3
 10
365.2291385409095
 20
-2901.2458442549
 30
0.0000000000002274
 40
1.0
 50
180.0
 51
269.99999999999648
  0
LINE
  5
83B9
  8
1外形線
  6
CONTINUOUS
 62
     3
 10
403.02913854090849
 20
-2940.2458442549
 30
0.0000000000002274
 11
365.2291385409095
 21
-2940.2458442549
 31
0.0000000000002274
  0
LINE
  5
83BA
  8
1外形線
  6
CONTINUOUS
 62
     3
 10
403.02913854090849
 20
-2935.2458442548982
 30
0.0000000000002274
 11
364.2291385409095
 21
-2935.2458442548982
 31
0.0000000000002274
  0
LINE
  5
83BB
  8
1外形線
  6
CONTINUOUS
 62
     3
 10
403.02913854090849
 20
-2902.2458442549
 30
0.0000000000002274
 11
365.2291385409095
 21
-2902.2458442549
 31
0.0000000000002274
  0
LINE
  5
83BC
  8
1外形線
  6
CONTINUOUS
 62
     3
 10
364.2291385409095
 20
-2903.2458442548982
 30
0.0000000000002274
 11
364.2291385409095
 21
-2939.2458442549
 31
0.0000000000002274
  0
ARC
  5
83BD
  8
1外形線
  6
CONTINUOUS
 62
     3
 10
365.2291385409095
 20
-2939.2458442549
 30
0.0000000000002274
 40
1.0
 50
180.0
 51
270.0
  0
ARC
  5
83BE
  8
1外形線
  6
CONTINUOUS
 62
     3
 10
365.2291385409095
 20
-2903.2458442548982
 30
0.0000000000002274
 40
1.0
 50
90.0
 51
180.0
  0
LINE
  5
83BF
  8
1外形線
  6
CONTINUOUS
 62
     3
 10
426.42913854091017
 20
-2923.9696671813981
 30
0.0000000000002274
 11
426.42913854091017
 21
-2935.2458442548982
 31
0.0000000000002274
  0
LINE
  5
83C1
  8
1外形線
  6
CONTINUOUS
 62
     3
 10
403.02913854090849
 20
-2940.2458442549
 30
0.0000000000002274
 11
425.6291385409092
 21
-2940.2458442549
 31
0.0000000000002274
  0
LINE
  5
83C2
  8
1外形線
  6
CONTINUOUS
 62
     3
 10
426.42913854091017
 20
-2935.2458442548982
 30
0.0000000000002274
 11
403.02913854090849
 21
-2935.2458442548982
 31
0.0000000000002274
  0
LINE
  5
83C3
  8
1外形線
  6
CONTINUOUS
 62
     3
 10
426.6291385409092
 20
-2935.4458442548998
 30
0.0000000000002274
 11
426.6291385409092
 21
-2939.2458442549
 31
0.0000000000002274
  0
ARC
  5
83C4
  8
1外形線
  6
CONTINUOUS
 62
     3
 10
425.6291385409092
 20
-2939.2458442549
 30
0.0000000000002274
 40
1.0
 50
270.0
 51
0.0
  0
ARC
  5
83C5
  8
1外形線
  6
CONTINUOUS
 62
     3
 10
426.42913854091017
 20
-2935.4458442548998
 30
0.0000000000002274
 40
0.2
 50
0.0
 51
90.0
  0
LINE
  5
83C8
  8
1外形線
  6
CONTINUOUS
 10
364.42913854091012
 20
-2897.2458442549
 30
0.0000000000002274
 11
364.42913854091012
 21
-2886.2458442549032
 31
0.0000000000002274
  0
ARC
  5
83C9
  8
1外形線
  6
CONTINUOUS
 62
     3
 10
364.42913854091012
 20
-2897.4458442548971
 30
0.0000000000002274
 40
0.2
 50
89.999999999996732
 51
180.0
  0
LINE
  5
83CA
  8
1外形線
  6
CONTINUOUS
 62
     3
 10
364.2291385409095
 20
-2897.4458442548971
 30
0.0000000000002274
 11
364.2291385409095
 21
-2901.2458442549
 31
0.0000000000002274
  0
LINE
  5
83D1
  8
1外形線
  6
CONTINUOUS
 10
341.42913854091393
 20
-2800.245844254905
 30
0.0000000000002274
 11
393.42913854091393
 21
-2800.245844254905
 31
0.0000000000002274
  0
ARC
  5
83D3
  8
1外形線
 10
314.70531561442249
 20
-2797.2458442549
 30
0.0000000000002274
 40
15.0
 50
269.99999999999648
 51
318.28908011239702
  0
LINE
  5
83D5
  8
1外形線
 10
298.42913854091728
 20
-2835.6458442549001
 30
0.0000000000002274
 11
298.42913854091728
 21
-2813.045844254902
 31
0.0000000000002274
  0
LINE
  5
83D6
  8
1外形線
 10
303.42913854091728
 20
-2812.2458442549032
 30
0.0000000000002274
 11
303.42913854091728
 21
-2835.6458442549001
 31
0.0000000000002274
  0
LINE
  5
83D7
  8
1外形線
 10
314.7053156144205
 20
-2812.2458442549032
 30
0.0000000000002274
 11
303.42913854091728
 21
-2812.2458442549032
 31
0.0000000000002274
  0
LINE
  5
83D8
  8
1外形線
 10
303.2291385409203
 20
-2812.045844254902
 30
0.0000000000002274
 11
299.42913854091728
 21
-2812.045844254902
 31
0.0000000000002274
  0
ARC
  5
83D9
  8
1外形線
 10
303.2291385409203
 20
-2812.2458442549032
 30
0.0000000000002274
 40
0.2
 50
0.0
 51
89.999999999996732
  0
ARC
  5
83DA
  8
1外形線
 10
299.42913854091728
 20
-2813.045844254902
 30
0.0000000000002274
 40
1.0
 50
89.999999999996732
 51
180.0
  0
ARC
  5
83DC
  8
1外形線
 10
336.42913854091728
 20
-2810.4458442549048
 30
0.0000000000002274
 40
9.9999999999995381
 50
96.379370208440264
 51
138.28908011239821
  0
LINE
  5
83DD
  8
1外形線
 10
325.90298637153808
 20
-2807.2264338975642
 30
0.0000000000002274
 11
328.96402470284153
 21
-2803.7921178264651
 31
0.0000000000002274
  0
ARC
  5
83DE
  8
1外形線
 10
337.42913854091358
 20
-2801.0458442549052
 30
0.0000000000002274
 40
1.0
 50
90.0
 51
180.0
  0
ARC
  5
83DF
  8
1外形線
 10
335.42913854092092
 20
-2801.5015723449051
 30
0.0000000000002274
 40
1.0
 50
0.0
 51
96.379370208438644
  0
ARC
  5
83E0
  8
1外形線
 10
341.22913854091291
 20
-2800.245844254905
 30
0.0000000000002274
 40
0.2
 50
0.0
 51
90.0
  0
LINE
  5
83E1
  8
1外形線
 10
341.22913854091291
 20
-2800.0458442549052
 30
0.0000000000002274
 11
337.42913854091358
 21
-2800.0458442549052
 31
0.0000000000002274
  0
ARC
  5
83E2
  8
1外形線
  6
CONTINUOUS
 10
393.42913854091393
 20
-2845.2458442549068
 30
0.0000000000002274
 40
45.0
 50
45.000000000004597
 51
90.0
  0
LINE
  5
83E9
  8
1外形線
  6
CONTINUOUS
 10
438.42913854091017
 20
-2897.245844254905
 30
0.0000000000002274
 11
438.42913854091188
 21
-2845.2458442549068
 31
0.0000000000002274
  0
ARC
  5
83EA
  8
1外形線
  6
CONTINUOUS
 62
     3
 10
437.6291385409092
 20
-2901.245844254905
 30
0.0000000000002274
 40
1.0
 50
269.99999999999648
 51
0.0
  0
ARC
  5
83EB
  8
1外形線
  6
CONTINUOUS
 62
     3
 10
428.2291385409095
 20
-2902.2458442549
 30
0.0000000000002274
 40
9.9999999999995381
 50
311.7109198875998
 51
353.6206297915457
  0
LINE
  5
83EC
  8
1外形線
  6
CONTINUOUS
 62
     3
 10
431.44854889824779
 20
-2912.771996424281
 30
0.0000000000002274
 11
434.88286496934711
 21
-2909.7109580929791
 31
0.0000000000002274
  0
ARC
  5
83ED
  8
1外形線
  6
CONTINUOUS
 62
     3
 10
437.17341045090791
 20
-2903.2458442548982
 30
0.0000000000002274
 40
1.0
 50
353.6206297915457
 51
90.0
  0
ARC
  5
83EF
  8
1外形線
  6
CONTINUOUS
 62
     3
 10
438.42913854091017
 20
-2897.4458442549071
 30
0.0000000000002274
 40
0.2
 50
0.0
 51
89.999999999996732
  0
LINE
  5
83F0
  8
1外形線
  6
CONTINUOUS
 62
     3
 10
438.6291385409092
 20
-2897.4458442549071
 30
0.0000000000002274
 11
438.62913854090732
 21
-2901.245844254905
 31
0.0000000000002274
  0
ENDSEC
  0
EOF
