  0
SECTION
  2
HEADER
  9
$ACADVER
  1
AC1009
  9
$INSBASE
 10
0.0
 20
0.0
 30
0.0
  9
$EXTMIN
 10
-6.7518806759770271
 20
-766.59904571245636
 30
0.0
  9
$EXTMAX
 10
247.2699482589089
 20
-498.15050406677568
 30
0.0
  9
$LIMMIN
 10
0.0
 20
0.0
  9
$LIMMAX
 10
420.0
 20
297.0
  9
$ORTHOMODE
 70
     1
  9
$REGENMODE
 70
     1
  9
$FILLMODE
 70
     1
  9
$QTEXTMODE
 70
     0
  9
$MIRRTEXT
 70
     1
  9
$DRAGMODE
 70
     2
  9
$LTSCALE
 40
1.0
  9
$OSMODE
 70
    37
  9
$ATTMODE
 70
     1
  9
$TEXTSIZE
 40
2.5
  9
$TRACEWID
 40
1.0
  9
$TEXTSTYLE
  7
KANJI
  9
$CLAYER
  8
1外形線
  9
$CELTYPE
  6
BYLAYER
  9
$CECOLOR
 62
   256
  9
$DIMSCALE
 40
0.0
  9
$DIMASZ
 40
1.8
  9
$DIMEXO
 40
1.0
  9
$DIMDLI
 40
0.0
  9
$DIMRND
 40
0.0
  9
$DIMDLE
 40
0.0
  9
$DIMEXE
 40
1.0
  9
$DIMTP
 40
0.0
  9
$DIMTM
 40
0.0
  9
$DIMTXT
 40
2.5
  9
$DIMCEN
 40
0.0
  9
$DIMTSZ
 40
0.0
  9
$DIMTOL
 70
     0
  9
$DIMLIM
 70
     0
  9
$DIMTIH
 70
     0
  9
$DIMTOH
 70
     0
  9
$DIMSE1
 70
     0
  9
$DIMSE2
 70
     0
  9
$DIMTAD
 70
     1
  9
$DIMZIN
 70
     8
  9
$DIMBLK
  1

  9
$DIMASO
 70
     1
  9
$DIMSHO
 70
     1
  9
$DIMPOST
  1

  9
$DIMAPOST
  1

  9
$DIMALT
 70
     0
  9
$DIMALTD
 70
     2
  9
$DIMALTF
 40
25.399999999999999
  9
$DIMLFAC
 40
1.0
  9
$DIMTOFL
 70
     1
  9
$DIMTVP
 40
0.0
  9
$DIMTIX
 70
     0
  9
$DIMSOXD
 70
     0
  9
$DIMSAH
 70
     1
  9
$DIMBLK1
  1
2
  9
$DIMBLK2
  1
2
  9
$DIMSTYLE
  2
M
  9
$DIMCLRD
 70
     0
  9
$DIMCLRE
 70
     0
  9
$DIMCLRT
 70
     0
  9
$DIMTFAC
 40
1.0
  9
$DIMGAP
 40
0.5
  9
$LUNITS
 70
     2
  9
$LUPREC
 70
     3
  9
$SKETCHINC
 40
1.0
  9
$FILLETRAD
 40
0.0
  9
$AUNITS
 70
     0
  9
$AUPREC
 70
     1
  9
$MENU
  1
.
  9
$ELEVATION
 40
0.0
  9
$PELEVATION
 40
0.0
  9
$THICKNESS
 40
0.0
  9
$LIMCHECK
 70
     0
  9
$BLIPMODE
 70
     0
  9
$CHAMFERA
 40
10.0
  9
$CHAMFERB
 40
10.0
  9
$SKPOLY
 70
     0
  9
$TDCREATE
 40
2454393.806994895
  9
$TDUPDATE
 40
2454396.5206550122
  9
$TDINDWG
 40
0.0088521759
  9
$TDUSRTIMER
 40
0.0088516319
  9
$USRTIMER
 70
     1
  9
$ANGBASE
 50
0.0
  9
$ANGDIR
 70
     0
  9
$PDMODE
 70
     0
  9
$PDSIZE
 40
0.0
  9
$PLINEWID
 40
0.0
  9
$COORDS
 70
     0
  9
$SPLFRAME
 70
     0
  9
$SPLINETYPE
 70
     6
  9
$SPLINESEGS
 70
     8
  9
$ATTDIA
 70
     1
  9
$ATTREQ
 70
     1
  9
$HANDLING
 70
     1
  9
$HANDSEED
  5
890
  9
$SURFTAB1
 70
     6
  9
$SURFTAB2
 70
     6
  9
$SURFTYPE
 70
     6
  9
$SURFU
 70
     6
  9
$SURFV
 70
     6
  9
$UCSNAME
  2

  9
$UCSORG
 10
0.0
 20
0.0
 30
0.0
  9
$UCSXDIR
 10
1.0
 20
0.0
 30
0.0
  9
$UCSYDIR
 10
0.0
 20
1.0
 30
0.0
  9
$PUCSNAME
  2

  9
$PUCSORG
 10
0.0
 20
0.0
 30
0.0
  9
$PUCSXDIR
 10
1.0
 20
0.0
 30
0.0
  9
$PUCSYDIR
 10
0.0
 20
1.0
 30
0.0
  9
$USERI1
 70
     0
  9
$USERI2
 70
     0
  9
$USERI3
 70
     0
  9
$USERI4
 70
     0
  9
$USERI5
 70
     0
  9
$USERR1
 40
0.0
  9
$USERR2
 40
0.0
  9
$USERR3
 40
0.0
  9
$USERR4
 40
0.0
  9
$USERR5
 40
0.0
  9
$WORLDVIEW
 70
     1
  9
$SHADEDGE
 70
     3
  9
$SHADEDIF
 70
    70
  9
$TILEMODE
 70
     1
  9
$MAXACTVP
 70
    48
  9
$PLIMCHECK
 70
     0
  9
$PEXTMIN
 10
1.0000000000000000E+020
 20
1.0000000000000000E+020
 30
1.0000000000000000E+020
  9
$PEXTMAX
 10
-1.0000000000000000E+020
 20
-1.0000000000000000E+020
 30
-1.0000000000000000E+020
  9
$PLIMMIN
 10
0.0
 20
0.0
  9
$PLIMMAX
 10
420.0
 20
297.0
  9
$UNITMODE
 70
     0
  9
$VISRETAIN
 70
     1
  9
$PLINEGEN
 70
     0
  9
$PSLTSCALE
 70
     1
  0
ENDSEC
  0
SECTION
  2
TABLES
  0
TABLE
  2
VPORT
 70
     4
  0
VPORT
  2
*ACTIVE
 70
     0
 10
0.0
 20
0.0
 11
1.0
 21
1.0
 12
122.9415558819131
 22
-634.32949744903658
 13
0.0
 23
0.0
 14
10.0
 24
10.0
 15
10.0
 25
10.0
 16
0.0
 26
0.0
 36
1.0
 17
0.0
 27
0.0
 37
0.0
 40
336.21225022086509
 41
1.5937904269081491
 42
50.0
 43
0.0
 44
0.0
 50
0.0
 51
0.0
 71
     0
 72
   100
 73
     1
 74
     1
 75
     0
 76
     0
 77
     0
 78
     0
  0
ENDTAB
  0
TABLE
  2
LTYPE
 70
     4
  0
LTYPE
  2
CONTINUOUS
 70
     0
  3
Solid line
 72
    65
 73
     0
 40
0.0
  0
ENDTAB
  0
TABLE
  2
LAYER
 70
     9
  0
LAYER
  2
0
 70
     0
 62
     7
  6
CONTINUOUS
  0
LAYER
  2
1外形線
 70
     0
 62
     3
  6
CONTINUOUS
  0
LAYER
  2
DEFPOINTS
 70
     0
 62
     7
  6
CONTINUOUS
  0
ENDTAB
  0
TABLE
  2
STYLE
 70
     3
  0
STYLE
  2
STANDARD
 70
     0
 40
0.0
 41
1.0
 50
0.0
 71
     0
 42
2.5
  3
txt
  4

  0
STYLE
  2
KANJI
 70
     0
 40
0.0
 41
1.0
 50
0.0
 71
     0
 42
2.5
  3
simplex.shx
  4
bigfont.shx
  0
ENDTAB
  0
TABLE
  2
VIEW
 70
     0
  0
ENDTAB
  0
TABLE
  2
UCS
 70
     0
  0
ENDTAB
  0
TABLE
  2
APPID
 70
     1
  0
APPID
  2
ACAD
 70
     0
  0
ENDTAB
  0
TABLE
  2
DIMSTYLE
 70
     4
  0
DIMSTYLE
  2
STANDARD
 70
     0
  3

  4

  5

  6

  7

 40
1.0
 41
0.18
 42
0.0625
 43
0.38
 44
0.18
 45
0.0
 46
0.0
 47
0.0
 48
0.0
140
0.18
141
0.09
142
0.0
143
25.399999999999999
144
1.0
145
0.0
146
1.0
147
0.09
 71
     0
 72
     0
 73
     0
 74
     0
 75
     0
 76
     0
 77
     0
 78
     0
170
     0
171
     2
172
     1
173
     0
174
     0
175
     0
176
     0
177
     0
178
     0
  0
DIMSTYLE
  2
M
 70
     0
  3

  4

  5

  6

  7

 40
0.0
 41
2.0
 42
1.0
 43
0.0
 44
1.0
 45
0.0
 46
0.0
 47
0.0
 48
0.0
140
2.5
141
0.0
142
0.0
143
25.399999999999999
144
1.0
145
0.0
146
1.0
147
0.5
 71
     0
 72
     0
 73
     0
 74
     0
 75
     0
 76
     0
 77
     1
 78
     8
170
     0
171
     2
172
     1
173
     1
174
     0
175
     0
176
     0
177
     0
178
     0
  0
ENDTAB
  0
ENDSEC
  0
SECTION
  2
BLOCKS
  0
BLOCK
  8
0
  2
$MODEL_SPACE
 70
     0
 10
0.0
 20
0.0
 30
0.0
  3
$MODEL_SPACE
  1

  0
ENDBLK
  5
7D5
  8
0
  0
BLOCK
 67
     1
  8
0
  2
$PAPER_SPACE
 70
     0
 10
0.0
 20
0.0
 30
0.0
  3
$PAPER_SPACE
  1

  0
ENDBLK
  5
7D1
 67
     1
  8
0
  0
BLOCK
  8
0
  2
2
 70
     0
 10
0.0
 20
0.0
 30
0.0
  3
2
  1

  0
INSERT
  5
131
  8
0
  6
CONTINUOUS
 62
     0
  2
*U3
 10
0.0
 20
0.0
 30
0.0
1001
ACAD
1002
{
1000
R14_HATCH_DATA
1000
131
1011
1.0
1021
-1.4984393050965666E+146
1031
-3.9983527237962216E+146
1021
0.0
1031
0.0
1011
0.0
1021
-1.4984393050965666E+146
1031
-3.9983527237962216E+146
1021
1.0
1031
0.0
1011
0.0
1021
-1.4984393050965666E+146
1031
-3.9983527237962216E+146
1021
0.0
1031
1.0
1040
0.0
1010
0.0
1020
0.0
1030
1.0
1000
SOLID
1070
     1
1070
     0
1071
        1
1071
        1
1071
        3
1070
     1
1040
-0.9999999999983517
1040
0.2679491924306774
1040
0.0
1040
0.0
1070
     1
1040
0.0
1040
0.0
1040
-0.9999999999983517
1040
-0.2679491924306765
1070
     1
1040
-0.9999999999983524
1040
-0.267949192430676
1040
-0.9999999999983524
1040
0.2679491924306774
1071
        0
1070
     0
1070
     1
1071
        1
1040
2.9957451172313361
1040
-4.1249460962632014
1040
0.0
1002
}
  0
ENDBLK
  5
132
  8
0
  0
BLOCK
  8
0
  2
*U3
 70
     1
 10
0.0
 20
0.0
 30
0.0
  3
*U3
  1

  0
SOLID
  5
46F
  8
0
  6
CONTINUOUS
 62
     0
 10
0.666666666665568
 20
0.0000000000000004
 30
0.0
 11
0.9999999999983517
 21
0.2679491924306774
 31
0.0
 12
0.0
 22
0.0
 32
0.0
 13
0.0
 23
0.0
 33
0.0
210
0.0
220
0.0
230
-1.0
  0
SOLID
  5
470
  8
0
  6
CONTINUOUS
 62
     0
 10
0.666666666665568
 20
0.0000000000000004
 30
0.0
 11
0.0
 21
0.0
 31
0.0
 12
0.9999999999983524
 22
-0.267949192430676
 32
0.0
 13
0.9999999999983524
 23
-0.267949192430676
 33
0.0
210
0.0
220
0.0
230
-1.0
  0
SOLID
  5
471
  8
0
  6
CONTINUOUS
 62
     0
 10
0.666666666665568
 20
0.0000000000000004
 30
0.0
 11
0.9999999999983524
 21
-0.267949192430676
 31
0.0
 12
0.9999999999983517
 22
0.2679491924306774
 32
0.0
 13
0.9999999999983517
 23
0.2679491924306774
 33
0.0
210
0.0
220
0.0
230
-1.0
  0
ENDBLK
  5
473
  8
0
  0
ENDSEC
  0
SECTION
  2
ENTITIES
  0
LINE
  5
5FE
  8
1外形線
 10
99.461322759619406
 20
-638.97722521517051
 30
0.0
 11
99.461322759619406
 21
-604.17722521517055
 31
0.0
  0
ARC
  5
5FF
  8
1外形線
 10
36.261322759619588
 20
-614.97722521517051
 30
0.0
 40
24.0
 50
180.0
 51
270.0
  0
LINE
  5
602
  8
1外形線
 10
-0.5386772403805935
 20
-638.97722521517073
 30
0.0
 11
-0.5386772403805935
 21
-604.17722521517055
 31
0.0
  0
ARC
  5
603
  8
1外形線
 10
62.661322759619217
 20
-614.97722521517051
 30
0.0
 40
24.0
 50
270.0
 51
0.0
  0
LINE
  5
606
  8
1外形線
 10
86.66132275961921
 20
-746.45016907612523
 30
0.0
 11
86.66132275961921
 21
-691.95016907612523
 31
0.0
  0
LINE
  5
607
  8
1外形線
 10
12.261322759619571
 20
-746.45016907612523
 30
0.0
 11
12.26132275962004
 21
-691.95016907612523
 31
0.0
  0
LINE
  5
608
  8
1外形線
 10
49.461322759619392
 20
-755.95016907612523
 30
0.0
 11
-0.5386772403805935
 21
-755.95016907612523
 31
0.0
  0
LINE
  5
609
  8
1外形線
 10
2.4613227596194061
 20
-748.95016907612523
 30
0.0
 11
36.261322759619588
 21
-748.95016907612523
 31
0.0
  0
ARC
  5
60A
  8
1外形線
 10
9.7613227596195866
 20
-746.45016907612523
 30
0.0
 40
2.5
 50
270.0
 51
0.0
  0
ARC
  5
60B
  8
1外形線
 10
2.4613227596194061
 20
-751.95016907612523
 30
0.0
 40
3.0
 50
90.0
 51
180.0
  0
LINE
  5
60C
  8
1外形線
 10
-0.5386772403805935
 20
-755.95016907612523
 30
0.0
 11
-0.5386772403805935
 21
-751.95016907612523
 31
0.0
  0
LINE
  5
60D
  8
1外形線
 10
49.461322759619392
 20
-755.95016907612523
 30
0.0
 11
99.461322759619406
 21
-755.95016907612523
 31
0.0
  0
LINE
  5
60E
  8
1外形線
 10
96.461322759619406
 20
-748.95016907612523
 30
0.0
 11
62.661322759619217
 21
-748.95016907612523
 31
0.0
  0
LINE
  5
60F
  8
1外形線
 10
99.461322759619406
 20
-755.95016907612523
 30
0.0
 11
99.461322759619406
 21
-751.95016907612523
 31
0.0
  0
ARC
  5
610
  8
1外形線
 10
89.16132275961921
 20
-746.45016907612523
 30
0.0
 40
2.5
 50
180.0
 51
270.0
  0
ARC
  5
611
  8
1外形線
 10
96.461322759619406
 20
-751.95016907612523
 30
0.0
 40
3.0
 50
0.0
 51
90.0
  0
LINE
  5
615
  8
1外形線
 10
49.461322759619392
 20
-638.97722521517051
 30
0.0
 11
-0.5386772403805935
 21
-638.97722521517051
 31
0.0
  0
LINE
  5
616
  8
1外形線
 10
13.26132275962004
 20
-690.95016907612523
 30
0.0
 11
49.461322759619392
 21
-690.95016907612523
 31
0.0
  0
ARC
  5
617
  8
1外形線
 10
13.26132275962004
 20
-691.95016907612523
 30
0.0
 40
1.0
 50
90.0
 51
180.0
  0
LINE
  5
618
  8
1外形線
 10
85.66132275961921
 20
-690.95016907612523
 30
0.0
 11
49.461322759619392
 21
-690.95016907612523
 31
0.0
  0
ARC
  5
619
  8
1外形線
 10
85.66132275961921
 20
-691.95016907612523
 30
0.0
 40
1.0
 50
0.0
 51
90.0
  0
LINE
  5
61A
  8
1外形線
 10
49.461322759619392
 20
-638.97722521517051
 30
0.0
 11
99.461322759619406
 21
-638.97722521517051
 31
0.0
  0
LINE
  5
623
  8
1外形線
 10
12.26132275961958
 20
-569.97722521517051
 30
0.0
 11
12.261322759619571
 21
-614.97722521517051
 31
0.0
  0
LINE
  5
62A
  8
1外形線
 10
86.66132275961921
 20
-569.97722521517051
 30
0.0
 11
86.66132275961921
 21
-614.97722521517051
 31
0.0
  0
LINE
  5
62B
  8
1外形線
 10
182.2699482589089
 20
-610.17722521517055
 30
0.0
 11
182.2699482589089
 21
-638.97722521517051
 31
0.0
  0
LINE
  5
62C
  8
1外形線
 10
240.2699482589089
 20
-638.97722521517051
 30
0.0
 11
240.2699482589089
 21
-604.17722521517055
 31
0.0
  0
LINE
  5
62D
  8
1外形線
 10
247.2699482589089
 20
-638.97722521517051
 30
0.0
 11
247.2699482589089
 21
-604.17722521517055
 31
0.0
  0
LINE
  5
62E
  8
1外形線
 10
182.2699482589089
 20
-638.97722521517051
 30
0.0
 11
247.2699482589089
 21
-638.97722521517051
 31
0.0
  0
ARC
  5
640
  8
1外形線
 10
29.461322759619389
 20
-543.97722521517039
 30
0.0
 40
30.0
 50
90.0
 51
180.0
  0
LINE
  5
64F
  8
1外形線
 10
-0.5386772403805935
 20
-604.17722521517021
 30
0.0
 11
-0.5386772403805935
 21
-543.97722521517039
 31
0.0
  0
ARC
  5
653
  8
1外形線
 10
69.461322759619406
 20
-543.97722521517039
 30
0.0
 40
30.0
 50
0.0
 51
90.0
  0
LINE
  5
657
  8
1外形線
 10
49.461322759619392
 20
-543.97722521517051
 30
0.0
 11
38.261322759619581
 21
-543.97722521517051
 31
0.0
  0
LINE
  5
658
  8
1外形線
 10
49.461322759619392
 20
-543.97722521517051
 30
0.0
 11
60.66132275961921
 21
-543.97722521517051
 31
0.0
  0
LINE
  5
65A
  8
1外形線
 10
69.461322759619406
 20
-513.97722521517017
 30
0.0
 11
49.461322759619392
 21
-513.97722521517017
 31
0.0
  0
LINE
  5
65B
  8
1外形線
 10
29.461322759619389
 20
-513.97722521517017
 30
0.0
 11
49.461322759619392
 21
-513.97722521517017
 31
0.0
  0
LINE
  5
668
  8
1外形線
 10
49.461322759619392
 20
-576.97722521517051
 30
0.0
 11
38.261322759619581
 21
-576.97722521517028
 31
0.0
  0
LINE
  5
66A
  8
1外形線
 10
49.461322759619392
 20
-576.97722521517051
 30
0.0
 11
60.66132275961921
 21
-576.97722521517051
 31
0.0
  0
LINE
  5
672
  8
1外形線
 10
99.461322759619406
 20
-604.17722521517055
 30
0.0
 11
99.461322759619406
 21
-543.97722521517039
 31
0.0
  0
LINE
  5
673
  8
1外形線
 10
182.2699482589089
 20
-610.17722521517055
 30
0.0
 11
182.2699482589089
 21
-576.97722521517051
 31
0.0
  0
LINE
  5
674
  8
1外形線
 10
247.26994825890841
 20
-610.17722521517055
 30
0.0
 11
247.26994825890841
 21
-513.97722521517051
 31
0.0
  0
LINE
  5
675
  8
1外形線
 10
193.54964335564051
 20
-576.09743483616705
 30
0.0
 11
239.18627031612601
 21
-544.72225380083319
 31
0.0
  0
LINE
  5
677
  8
1外形線
 10
182.2699482589089
 20
-576.97722521517051
 30
0.0
 11
190.71699924120509
 21
-576.97722521517051
 31
0.0
  0
ARC
  5
678
  8
1外形線
 10
190.71699924120509
 20
-571.97722521517051
 30
0.0
 40
5.0
 50
270.0
 51
304.50852298766392
  0
ARC
  5
67A
  8
1外形線
 10
237.76994825890841
 20
-542.6621489903348
 30
0.0
 40
2.5
 50
304.50852298766392
 51
0.0
  0
LINE
  5
67B
  8
1外形線
 10
247.26994825890841
 20
-513.97722521517051
 30
0.0
 11
240.2699482589083
 21
-513.97722521517005
 31
0.0
  0
LINE
  5
67C
  8
1外形線
 10
240.2699482589083
 20
-513.97722521517005
 30
0.0
 11
240.2699482589089
 21
-604.17722521517055
 31
0.0
  0
ARC
  5
852
  8
1外形線
 10
38.261322759619581
 20
-569.97722521517051
 30
0.0
 40
26.0
 50
90.0
 51
180.0
  0
ARC
  5
853
  8
1外形線
 10
60.66132275961921
 20
-569.97722521517051
 30
0.0
 40
26.0
 50
0.0
 51
90.0
  0
ARC
  5
854
  8
1外形線
 10
38.261322759619581
 20
-602.97722521517039
 30
0.0
 40
26.0
 50
90.0
 51
180.0
  0
ARC
  5
855
  8
1外形線
 10
60.66132275961921
 20
-602.97722521517051
 30
0.0
 40
26.0
 50
0.0
 51
90.0
  0
LINE
  5
889
  8
1外形線
 62
     2
 10
49.461322759619392
 20
-652.35638191119176
 30
0.0
 11
49.461322759619392
 21
-498.15050406677568
 31
0.0
  0
LINE
  5
88A
  8
1外形線
 62
     2
 10
49.461322759619392
 20
-766.59904571245636
 30
0.0
 11
49.461322759619392
 21
-677.11619895176705
 31
0.0
  0
ENDSEC
  0
EOF
