  0
SECTION
  2
HEADER
  9
$ACADVER
  1
AC1015
  9
$ACADMAINTVER
 70
    20
  9
$DWGCODEPAGE
  3
ANSI_932
  9
$INSBASE
 10
268.4340021441085
 20
176.78614296069
 30
0.0
  9
$EXTMIN
 10
-13.36420631547298
 20
221.2484008399759
 30
-0.0000000000000053
  9
$EXTMAX
 10
220.6259108949084
 20
458.0083816603346
 30
0.0000000000000099
  9
$LIMMIN
 10
0.0
 20
0.0
  9
$LIMMAX
 10
554.0
 20
395.0
  9
$ORTHOMODE
 70
     1
  9
$REGENMODE
 70
     1
  9
$FILLMODE
 70
     1
  9
$QTEXTMODE
 70
     0
  9
$MIRRTEXT
 70
     1
  9
$LTSCALE
 40
2.0
  9
$ATTMODE
 70
     1
  9
$TEXTSIZE
 40
10.0
  9
$TRACEWID
 40
0.2
  9
$TEXTSTYLE
  7
KANJI
  9
$CLAYER
  8
2寸法線
  9
$CELTYPE
  6
ByLayer
  9
$CECOLOR
 62
   256
  9
$CELTSCALE
 40
1.0
  9
$DISPSILH
 70
     0
  9
$DIMSCALE
 40
1.0
  9
$DIMASZ
 40
1.0
  9
$DIMEXO
 40
1.0
  9
$DIMDLI
 40
6.0
  9
$DIMRND
 40
0.0
  9
$DIMDLE
 40
0.0
  9
$DIMEXE
 40
1.0
  9
$DIMTP
 40
0.0
  9
$DIMTM
 40
0.0
  9
$DIMTXT
 40
2.5
  9
$DIMCEN
 40
0.0
  9
$DIMTSZ
 40
0.0
  9
$DIMTOL
 70
     0
  9
$DIMLIM
 70
     0
  9
$DIMTIH
 70
     0
  9
$DIMTOH
 70
     0
  9
$DIMSE1
 70
     0
  9
$DIMSE2
 70
     0
  9
$DIMTAD
 70
     1
  9
$DIMZIN
 70
     8
  9
$DIMBLK
  1

  9
$DIMASO
 70
     1
  9
$DIMSHO
 70
     1
  9
$DIMPOST
  1

  9
$DIMAPOST
  1

  9
$DIMALT
 70
     0
  9
$DIMALTD
 70
     2
  9
$DIMALTF
 40
25.4
  9
$DIMLFAC
 40
1.0
  9
$DIMTOFL
 70
     1
  9
$DIMTVP
 40
0.0
  9
$DIMTIX
 70
     0
  9
$DIMSOXD
 70
     0
  9
$DIMSAH
 70
     1
  9
$DIMBLK1
  1
Y2
  9
$DIMBLK2
  1
Y2
  9
$DIMSTYLE
  2
STANDARD
  9
$DIMCLRD
 70
     0
  9
$DIMCLRE
 70
     0
  9
$DIMCLRT
 70
     0
  9
$DIMTFAC
 40
1.0
  9
$DIMGAP
 40
0.5
  9
$DIMJUST
 70
     0
  9
$DIMSD1
 70
     0
  9
$DIMSD2
 70
     0
  9
$DIMTOLJ
 70
     1
  9
$DIMTZIN
 70
     0
  9
$DIMALTZ
 70
     0
  9
$DIMALTTZ
 70
     0
  9
$DIMUPT
 70
     0
  9
$DIMDEC
 70
     4
  9
$DIMTDEC
 70
     4
  9
$DIMALTU
 70
     2
  9
$DIMALTTD
 70
     2
  9
$DIMTXSTY
  7
STANDARD
  9
$DIMAUNIT
 70
     0
  9
$DIMADEC
 70
     0
  9
$DIMALTRND
 40
0.0
  9
$DIMAZIN
 70
     0
  9
$DIMDSEP
 70
    46
  9
$DIMATFIT
 70
     3
  9
$DIMFRAC
 70
     0
  9
$DIMLDRBLK
  1
Y2
  9
$DIMLUNIT
 70
     2
  9
$DIMLWD
 70
    -2
  9
$DIMLWE
 70
    -2
  9
$DIMTMOVE
 70
     0
  9
$LUNITS
 70
     2
  9
$LUPREC
 70
     4
  9
$SKETCHINC
 40
0.1
  9
$FILLETRAD
 40
0.0
  9
$AUNITS
 70
     0
  9
$AUPREC
 70
     0
  9
$MENU
  1
tcad-s
  9
$ELEVATION
 40
0.0
  9
$PELEVATION
 40
0.0
  9
$THICKNESS
 40
0.0
  9
$LIMCHECK
 70
     0
  9
$CHAMFERA
 40
0.0
  9
$CHAMFERB
 40
0.0
  9
$CHAMFERC
 40
0.0
  9
$CHAMFERD
 40
0.0
  9
$SKPOLY
 70
     0
  9
$TDCREATE
 40
2451123.361182072
  9
$TDUCREATE
 40
2451122.986182072
  9
$TDUPDATE
 40
2455859.738762350
  9
$TDUUPDATE
 40
2455859.363762349
  9
$TDINDWG
 40
1.0652952778
  9
$TDUSRTIMER
 40
1.0652894907
  9
$USRTIMER
 70
     1
  9
$ANGBASE
 50
0.0
  9
$ANGDIR
 70
     0
  9
$PDMODE
 70
     0
  9
$PDSIZE
 40
2.399999999999999
  9
$PLINEWID
 40
0.0
  9
$SPLFRAME
 70
     0
  9
$SPLINETYPE
 70
     6
  9
$SPLINESEGS
 70
     8
  9
$HANDSEED
  5
14B4A
  9
$SURFTAB1
 70
     6
  9
$SURFTAB2
 70
     6
  9
$SURFTYPE
 70
     6
  9
$SURFU
 70
     6
  9
$SURFV
 70
     6
  9
$UCSBASE
  2

  9
$UCSNAME
  2

  9
$UCSORG
 10
0.0
 20
0.0
 30
0.0
  9
$UCSXDIR
 10
1.0
 20
0.0
 30
0.0
  9
$UCSYDIR
 10
0.0
 20
1.0
 30
0.0
  9
$UCSORTHOREF
  2

  9
$UCSORTHOVIEW
 70
     0
  9
$UCSORGTOP
 10
0.0
 20
0.0
 30
0.0
  9
$UCSORGBOTTOM
 10
0.0
 20
0.0
 30
0.0
  9
$UCSORGLEFT
 10
0.0
 20
0.0
 30
0.0
  9
$UCSORGRIGHT
 10
0.0
 20
0.0
 30
0.0
  9
$UCSORGFRONT
 10
0.0
 20
0.0
 30
0.0
  9
$UCSORGBACK
 10
0.0
 20
0.0
 30
0.0
  9
$PUCSBASE
  2

  9
$PUCSNAME
  2

  9
$PUCSORG
 10
0.0
 20
0.0
 30
0.0
  9
$PUCSXDIR
 10
1.0
 20
0.0
 30
0.0
  9
$PUCSYDIR
 10
0.0
 20
1.0
 30
0.0
  9
$PUCSORTHOREF
  2

  9
$PUCSORTHOVIEW
 70
     0
  9
$PUCSORGTOP
 10
0.0
 20
0.0
 30
0.0
  9
$PUCSORGBOTTOM
 10
0.0
 20
0.0
 30
0.0
  9
$PUCSORGLEFT
 10
0.0
 20
0.0
 30
0.0
  9
$PUCSORGRIGHT
 10
0.0
 20
0.0
 30
0.0
  9
$PUCSORGFRONT
 10
0.0
 20
0.0
 30
0.0
  9
$PUCSORGBACK
 10
0.0
 20
0.0
 30
0.0
  9
$USERI1
 70
     0
  9
$USERI2
 70
     0
  9
$USERI3
 70
     0
  9
$USERI4
 70
     0
  9
$USERI5
 70
     0
  9
$USERR1
 40
0.0
  9
$USERR2
 40
0.0
  9
$USERR3
 40
0.0
  9
$USERR4
 40
0.0
  9
$USERR5
 40
0.0
  9
$WORLDVIEW
 70
     1
  9
$SHADEDGE
 70
     3
  9
$SHADEDIF
 70
    70
  9
$TILEMODE
 70
     1
  9
$MAXACTVP
 70
    16
  9
$PINSBASE
 10
0.0
 20
0.0
 30
0.0
  9
$PLIMCHECK
 70
     0
  9
$PEXTMIN
 10
1.000000000000000E+20
 20
1.000000000000000E+20
 30
1.000000000000000E+20
  9
$PEXTMAX
 10
-1.000000000000000E+20
 20
-1.000000000000000E+20
 30
-1.000000000000000E+20
  9
$PLIMMIN
 10
0.0
 20
0.0
  9
$PLIMMAX
 10
12.0
 20
9.0
  9
$UNITMODE
 70
     0
  9
$VISRETAIN
 70
     0
  9
$PLINEGEN
 70
     0
  9
$PSLTSCALE
 70
     0
  9
$TREEDEPTH
 70
  3020
  9
$CMLSTYLE
  2
Standard
  9
$CMLJUST
 70
     0
  9
$CMLSCALE
 40
1.0
  9
$PROXYGRAPHICS
 70
     1
  9
$MEASUREMENT
 70
     0
  9
$CELWEIGHT
370
    -1
  9
$ENDCAPS
280
     0
  9
$JOINSTYLE
280
     0
  9
$LWDISPLAY
290
     0
  9
$INSUNITS
 70
     0
  9
$HYPERLINKBASE
  1

  9
$STYLESHEET
  1

  9
$XEDIT
290
     1
  9
$CEPSNTYPE
380
     0
  9
$PSTYLEMODE
290
     1
  9
$FINGERPRINTGUID
  2
{F8131844-033C-4B06-AD95-BAF569FA8E3E}
  9
$VERSIONGUID
  2
{A5A55FA9-4890-4B95-B0A3-B7B2D4C154A1}
  9
$EXTNAMES
290
     1
  9
$PSVPSCALE
 40
0.0
  9
$OLESTARTUP
290
     0
  0
ENDSEC
  0
SECTION
  2
CLASSES
  0
CLASS
  1
ACDBDICTIONARYWDFLT
  2
AcDbDictionaryWithDefault
  3
ObjectDBX Classes
 90
        0
280
     0
281
     0
  0
CLASS
  1
TABLESTYLE
  2
AcDbTableStyle
  3
ObjectDBX Classes
 90
     2047
280
     0
281
     0
  0
CLASS
  1
DICTIONARYVAR
  2
AcDbDictionaryVar
  3
ObjectDBX Classes
 90
        0
280
     0
281
     0
  0
CLASS
  1
ACDBPLACEHOLDER
  2
AcDbPlaceHolder
  3
ObjectDBX Classes
 90
        0
280
     0
281
     0
  0
CLASS
  1
LAYOUT
  2
AcDbLayout
  3
ObjectDBX Classes
 90
        0
280
     0
281
     0
  0
ENDSEC
  0
SECTION
  2
TABLES
  0
TABLE
  2
VPORT
  5
14A80
330
0
100
AcDbSymbolTable
 70
     2
  0
VPORT
  5
14B44
330
14A80
100
AcDbSymbolTableRecord
100
AcDbViewportTableRecord
  2
*Active
 70
     0
 10
0.0
 20
0.0
 11
1.0
 21
1.0
 12
103.6308522897177
 22
339.6283912501552
 13
0.0
 23
0.0
 14
1.0
 24
1.0
 15
0.0
 25
0.0
 16
0.0
 26
0.0
 36
1.0
 17
0.0
 27
0.0
 37
0.0
 40
238.6365460580367
 41
1.386243386243386
 42
50.0
 43
0.0
 44
0.0
 50
0.0
 51
0.0
 71
     0
 72
  1000
 73
     1
 74
     1
 75
     0
 76
     0
 77
     0
 78
     1
281
     0
 65
     0
110
0.0
120
0.0
130
0.0
111
1.0
121
0.0
131
0.0
112
0.0
122
1.0
132
0.0
 79
     0
146
0.0
  0
ENDTAB
  0
TABLE
  2
LTYPE
  5
14A7D
330
0
100
AcDbSymbolTable
 70
     2
  0
LTYPE
  5
14A8B
330
14A7D
100
AcDbSymbolTableRecord
100
AcDbLinetypeTableRecord
  2
ByBlock
 70
     0
  3

 72
    65
 73
     0
 40
0.0
  0
LTYPE
  5
14A8C
330
14A7D
100
AcDbSymbolTableRecord
100
AcDbLinetypeTableRecord
  2
ByLayer
 70
     0
  3

 72
    65
 73
     0
 40
0.0
  0
LTYPE
  5
14A8D
330
14A7D
100
AcDbSymbolTableRecord
100
AcDbLinetypeTableRecord
  2
CONTINUOUS
 70
     0
  3
Solid line
 72
    65
 73
     0
 40
0.0
  0
LTYPE
  5
14AA1
330
14A7D
100
AcDbSymbolTableRecord
100
AcDbLinetypeTableRecord
  2
CENTER
 70
     0
  3
____ _ ____ _ ____ _ ____ _ ____ _ ____ _ ____ 
 72
    65
 73
     4
 40
2.0
 49
1.25
 74
     0
 49
-0.25
 74
     0
 49
0.25
 74
     0
 49
-0.25
 74
     0
  0
ENDTAB
  0
TABLE
  2
LAYER
  5
14A7A
330
0
100
AcDbSymbolTable
 70
     5
  0
LAYER
  5
14A88
330
14A7A
100
AcDbSymbolTableRecord
100
AcDbLayerTableRecord
  2
0
 70
     0
 62
     7
  6
CONTINUOUS
370
    -3
390
14A87
  0
LAYER
  5
14A9E
330
14A7A
100
AcDbSymbolTableRecord
100
AcDbLayerTableRecord
  2
2寸法線
 70
     0
 62
     2
  6
CONTINUOUS
370
    -3
390
14A87
  0
LAYER
  5
14AA8
330
14A7A
100
AcDbSymbolTableRecord
100
AcDbLayerTableRecord
  2
C2
 70
     0
 62
     1
  6
CONTINUOUS
370
    -3
390
14A87
  0
LAYER
  5
14AB4
330
14A7A
100
AcDbSymbolTableRecord
100
AcDbLayerTableRecord
  2
DEFPOINTS
 70
     0
 62
     7
  6
CONTINUOUS
290
     0
370
    -3
390
14A87
  0
LAYER
  5
14AB7
330
14A7A
100
AcDbSymbolTableRecord
100
AcDbLayerTableRecord
  2
1外形線
 70
     0
 62
     3
  6
CONTINUOUS
370
    -3
390
14A87
  0
ENDTAB
  0
TABLE
  2
STYLE
  5
14A7B
330
0
100
AcDbSymbolTable
 70
     2
  0
STYLE
  5
14A89
330
14A7B
100
AcDbSymbolTableRecord
100
AcDbTextStyleTableRecord
  2
STANDARD
 70
     0
 40
0.0
 41
1.0
 50
0.0
 71
     0
 42
0.2
  3
txt
  4

  0
STYLE
  5
14A9F
330
14A7B
100
AcDbSymbolTableRecord
100
AcDbTextStyleTableRecord
  2
KANJI
 70
     0
 40
0.0
 41
1.0
 50
0.0
 71
     0
 42
10.0
  3
simplex
  4
bigfont
  0
ENDTAB
  0
TABLE
  2
VIEW
  5
14A7E
330
0
100
AcDbSymbolTable
 70
     0
  0
ENDTAB
  0
TABLE
  2
UCS
  5
14A7F
330
0
100
AcDbSymbolTable
 70
     0
  0
ENDTAB
  0
TABLE
  2
APPID
  5
14A81
330
0
100
AcDbSymbolTable
 70
     2
  0
APPID
  5
14A8A
330
14A81
100
AcDbSymbolTableRecord
100
AcDbRegAppTableRecord
  2
ACAD
 70
     0
  0
APPID
  5
14AC0
330
14A81
100
AcDbSymbolTableRecord
100
AcDbRegAppTableRecord
  2
ACAD_PSEXT
 70
     0
  0
ENDTAB
  0
TABLE
  2
DIMSTYLE
  5
14A82
330
0
100
AcDbSymbolTable
 70
     1
100
AcDbDimStyleTable
 71
     0
  0
DIMSTYLE
105
14AC1
330
14A82
100
AcDbSymbolTableRecord
100
AcDbDimStyleTableRecord
  2
STANDARD
 70
     0
 41
1.0
 42
1.0
 43
6.0
 44
1.0
 73
     0
 74
     0
 77
     1
 78
     8
140
2.5
141
0.0
147
0.5
172
     1
173
     1
279
     2
284
     8
285
     8
286
     8
340
14A9F
  0
ENDTAB
  0
TABLE
  2
BLOCK_RECORD
  5
14A79
330
0
100
AcDbSymbolTable
 70
     1
  0
BLOCK_RECORD
  5
14A9A
330
14A79
100
AcDbSymbolTableRecord
100
AcDbBlockTableRecord
  2
*Model_Space
340
14A9D
  0
BLOCK_RECORD
  5
14A96
330
14A79
100
AcDbSymbolTableRecord
100
AcDbBlockTableRecord
  2
*Paper_Space
340
14A99
  0
BLOCK_RECORD
  5
14AD1
330
14A79
100
AcDbSymbolTableRecord
100
AcDbBlockTableRecord
  2
Y2
340
0
  0
ENDTAB
  0
ENDSEC
  0
SECTION
  2
BLOCKS
  0
BLOCK
  5
14A9B
330
14A9A
100
AcDbEntity
  8
0
100
AcDbBlockBegin
  2
*Model_Space
 70
     0
 10
0.0
 20
0.0
 30
0.0
  3
*Model_Space
  1

  0
ENDBLK
  5
14A9C
330
14A9A
100
AcDbEntity
  8
0
100
AcDbBlockEnd
  0
BLOCK
  5
14A97
330
14A96
100
AcDbEntity
 67
     1
  8
0
100
AcDbBlockBegin
  2
*Paper_Space
 70
     0
 10
0.0
 20
0.0
 30
0.0
  3
*Paper_Space
  1

  0
ENDBLK
  5
14A98
330
14A96
100
AcDbEntity
 67
     1
  8
0
100
AcDbBlockEnd
  0
BLOCK
  5
14AD2
330
14AD1
100
AcDbEntity
  8
0
100
AcDbBlockBegin
  2
Y2
 70
     0
 10
0.0
 20
0.0
 30
0.0
  3
Y2
  1

  0
SOLID
  5
39F8
330
14AD1
100
AcDbEntity
  8
0
  6
ByBlock
 62
     0
100
AcDbTrace
 10
-1.811110924292108
 20
0.485285709567151
 30
0.0
 11
-1.811110924292108
 21
-0.4852857095673784
 31
0.0
 12
-0.0000000000000568
 22
-0.0000000000000142
 32
0.0
 13
-0.0000000000000568
 23
-0.0000000000000142
 33
0.0
  0
ENDBLK
  5
39F9
330
14AD1
100
AcDbEntity
  8
0
100
AcDbBlockEnd
  0
ENDSEC
  0
SECTION
  2
ENTITIES
  0
ARC
  5
BE01
330
14A9A
100
AcDbEntity
  8
1外形線
100
AcDbCircle
 10
152.8361568567418
 20
268.2336256205074
 30
0.0
 40
32.20000000000001
100
AcDbArc
 50
117.2660444507242
 51
158.3918650553474
  0
ARC
  5
BE02
330
14A9A
100
AcDbEntity
  8
1外形線
100
AcDbCircle
 10
152.8361568567418
 20
268.2336256205074
 30
0.0
 40
27.36470000000001
100
AcDbArc
 50
126.8840589759976
 51
151.2876128981609
  0
ARC
  5
BE03
330
14A9A
100
AcDbEntity
  8
1外形線
100
AcDbCircle
 10
137.6123219729513
 20
288.5216234892248
 30
0.0
 40
2.0
100
AcDbArc
 50
84.44736535904587
 51
126.8840589759976
  0
LINE
  5
BE04
330
14A9A
100
AcDbEntity
  8
1外形線
100
AcDbLine
 10
122.0361677760902
 20
265.5336256205073
 30
0.0
 11
123.2440078400391
 21
265.5336256205073
 31
0.0
  0
ARC
  5
BE05
330
14A9A
100
AcDbEntity
  8
1外形線
100
AcDbCircle
 10
136.1011210836643
 20
274.8622437022656
 30
0.0
 40
14.2
100
AcDbArc
 50
158.3918650553474
 51
178.9999999999982
  0
LINE
  5
BE06
330
14A9A
100
AcDbEntity
  8
1外形線
100
AcDbLine
 10
121.7361263911332
 20
265.533625620506
 30
0.0
 11
121.9032838124433
 21
275.1100678736748
 31
0.0
  0
LINE
  5
BE07
330
14A9A
100
AcDbEntity
  8
1外形線
100
AcDbLine
 10
122.0361677760902
 20
265.533625620506
 30
0.0
 11
121.8361459373932
 21
265.533625620506
 31
0.0
  0
LINE
  5
BE08
330
14A9A
100
AcDbEntity
  8
1外形線
100
AcDbLine
 10
144.5899456055065
 20
296.2336256205074
 30
0.0
 11
168.8361568567418
 21
296.2336256205074
 31
0.0
  0
ARC
  5
BE09
330
14A9A
100
AcDbEntity
  8
1外形線
100
AcDbCircle
 10
136.9454180283803
 20
276.6884715380196
 30
0.0
 40
12.0
100
AcDbArc
 50
151.9842886717079
 51
178.9999999999982
  0
LINE
  5
BE0A
330
14A9A
100
AcDbEntity
  8
1外形線
100
AcDbLine
 10
123.343837112435
 20
265.7256320128376
 30
0.0
 11
123.516956217509
 21
270.0536096396817
 31
0.0
  0
ARC
  5
BE0B
330
14A9A
100
AcDbEntity
  8
1外形線
100
AcDbCircle
 10
123.1439969206906
 20
265.7336256205074
 30
0.0
 40
0.2
100
AcDbArc
 50
270.0
 51
357.7093899573605
  0
LINE
  5
BE0C
330
14A9A
100
AcDbEntity
  8
1外形線
100
AcDbLine
 10
124.8361568567418
 20
270.5336256205074
 30
0.0
 11
124.9472456865053
 21
276.897900415267
 31
0.0
  0
LINE
  5
BE0D
330
14A9A
100
AcDbEntity
  8
1外形線
100
AcDbLine
 10
124.0165566968701
 20
270.5336256205074
 30
0.0
 11
124.8361568567418
 21
270.5336256205074
 31
0.0
  0
ARC
  5
BE0E
330
14A9A
100
AcDbEntity
  8
1外形線
100
AcDbCircle
 10
124.0165566968701
 20
270.0336256205073
 30
0.0
 40
0.5
100
AcDbArc
 50
90.0
 51
177.7093899573604
  0
ARC
  5
BE0F
330
14A9A
100
AcDbEntity
  8
1外形線
100
AcDbCircle
 10
152.8361568567418
 20
268.2336256205074
 30
0.0
 40
30.0
100
AcDbArc
 50
117.2660444507242
 51
151.9842886717254
  0
ARC
  5
BE10
330
14A9A
100
AcDbEntity
  8
1外形線
100
AcDbCircle
 10
144.5899456055065
 20
284.2336256205074
 30
0.0
 40
12.0
100
AcDbArc
 50
90.0
 51
117.2660444507242
  0
LINE
  5
BE11
330
14A9A
100
AcDbEntity
  8
1外形線
100
AcDbLine
 10
137.869527309646
 20
294.2336256205074
 30
0.0
 11
168.8361568567418
 21
294.2336256205074
 31
0.0
  0
LINE
  5
BE12
330
14A9A
100
AcDbEntity
  8
1外形線
100
AcDbLine
 10
128.8361568567418
 20
266.0336256205074
 30
0.0
 11
128.8361568567418
 21
286.2336256205076
 31
0.0
  0
LINE
  5
BE13
330
14A9A
100
AcDbEntity
  8
1外形線
100
AcDbLine
 10
142.3361568567431
 20
267.498726123805
 30
0.0
 11
142.9310286553825
 21
284.5336256205076
 31
0.0
  0
LINE
  5
BE14
330
14A9A
100
AcDbEntity
  8
1外形線
100
AcDbLine
 10
137.010760332884
 20
266.5336256205073
 30
0.0
 11
141.3367660297241
 21
266.5336256205073
 31
0.0
  0
LINE
  5
BE15
330
14A9A
100
AcDbEntity
  8
1外形線
100
AcDbLine
 10
128.8361568567418
 20
270.5336256205074
 30
0.0
 11
136.010760332884
 21
270.5336256205074
 31
0.0
  0
ARC
  5
BE16
330
14A9A
100
AcDbEntity
  8
1外形線
100
AcDbCircle
 10
128.3361568567418
 20
266.0336256205074
 30
0.0
 40
0.5
100
AcDbArc
 50
270.0
 51
0.0
  0
ARC
  5
BE17
330
14A9A
100
AcDbEntity
  8
1外形線
100
AcDbCircle
 10
137.010760332884
 20
267.5336256205073
 30
0.0
 40
1.0
100
AcDbArc
 50
180.0
 51
270.0
  0
ARC
  5
BE18
330
14A9A
100
AcDbEntity
  8
1外形線
100
AcDbCircle
 10
141.3367660297241
 20
267.5336256205075
 30
0.0
 40
1.0
100
AcDbArc
 50
270.0
 51
357.9999999999965
  0
LINE
  5
BE19
330
14A9A
100
AcDbEntity
  8
1外形線
100
AcDbLine
 10
126.1979602556168
 20
265.8100188227574
 30
0.0
 11
124.8361568567418
 21
268.5336256205073
 31
0.0
  0
ARC
  5
BE1A
330
14A9A
100
AcDbEntity
  8
1外形線
100
AcDbCircle
 10
126.6451738511171
 20
266.0336256205074
 30
0.0
 40
0.5
100
AcDbArc
 50
206.5650511770751
 51
270.0
  0
LINE
  5
BE1B
330
14A9A
100
AcDbEntity
  8
1外形線
100
AcDbLine
 10
126.6451738511171
 20
265.5336256205073
 30
0.0
 11
128.3361568567418
 21
265.5336256205073
 31
0.0
  0
LINE
  5
BE1C
330
14A9A
100
AcDbEntity
  8
1外形線
100
AcDbLine
 10
124.8361568567418
 20
270.5336256205074
 30
0.0
 11
124.8361568567418
 21
268.5336256205073
 31
0.0
  0
ARC
  5
BE1D
330
14A9A
100
AcDbEntity
  8
1外形線
100
AcDbCircle
 10
184.8361568567418
 20
268.2336256205074
 30
0.0
 40
30.0
100
AcDbArc
 50
28.01571132827444
 51
62.73395554927581
  0
LINE
  5
BE1E
330
14A9A
100
AcDbEntity
  8
1外形線
100
AcDbLine
 10
199.8027864038373
 20
294.2336256205074
 30
0.0
 11
168.8361568567418
 21
294.2336256205074
 31
0.0
  0
ARC
  5
BE1F
330
14A9A
100
AcDbEntity
  8
1外形線
100
AcDbCircle
 10
184.8361568567418
 20
268.2336256205074
 30
0.0
 40
32.20000000000001
100
AcDbArc
 50
21.60813494465249
 51
62.73395554927581
  0
LINE
  5
BE20
330
14A9A
100
AcDbEntity
  8
1外形線
100
AcDbLine
 10
211.4743534578667
 20
265.8100188227574
 30
0.0
 11
212.8361568567418
 21
268.5336256205073
 31
0.0
  0
ARC
  5
BE21
330
14A9A
100
AcDbEntity
  8
1外形線
100
AcDbCircle
 10
209.3361568567418
 20
266.0336256205074
 30
0.0
 40
0.5
100
AcDbArc
 50
180.0
 51
270.0
  0
LINE
  5
BE22
330
14A9A
100
AcDbEntity
  8
1外形線
100
AcDbLine
 10
214.3284766010486
 20
265.7256320128376
 30
0.0
 11
214.1553574959746
 21
270.0536096396817
 31
0.0
  0
LINE
  5
BE23
330
14A9A
100
AcDbEntity
  8
1外形線
100
AcDbLine
 10
215.9361873223504
 20
265.533625620506
 30
0.0
 11
215.7690299010403
 21
275.1100678736748
 31
0.0
  0
ARC
  5
BE24
330
14A9A
100
AcDbEntity
  8
1外形線
100
AcDbCircle
 10
214.528316792793
 20
265.7336256205074
 30
0.0
 40
0.2
100
AcDbArc
 50
182.2906100426395
 51
270.0
  0
LINE
  5
BE25
330
14A9A
100
AcDbEntity
  8
1外形線
100
AcDbLine
 10
215.7361568567419
 20
265.533625620506
 30
0.0
 11
215.9361786954389
 21
265.533625620506
 31
0.0
  0
LINE
  5
BE26
330
14A9A
100
AcDbEntity
  8
1外形線
100
AcDbLine
 10
215.7361568567419
 20
265.5336256205073
 30
0.0
 11
214.528316792793
 21
265.5336256205073
 31
0.0
  0
LINE
  5
BE27
330
14A9A
100
AcDbEntity
  8
1外形線
100
AcDbLine
 10
211.0271398623666
 20
265.5336256205073
 30
0.0
 11
209.3361568567418
 21
265.5336256205073
 31
0.0
  0
ARC
  5
BE28
330
14A9A
100
AcDbEntity
  8
1外形線
100
AcDbCircle
 10
211.0271398623666
 20
266.0336256205074
 30
0.0
 40
0.5
100
AcDbArc
 50
270.0
 51
333.4349488229249
  0
ARC
  5
BE29
330
14A9A
100
AcDbEntity
  8
1外形線
100
AcDbCircle
 10
213.6557570166135
 20
270.0336256205073
 30
0.0
 40
0.5
100
AcDbArc
 50
2.290610042639571
 51
90.0
  0
ARC
  5
BE2A
330
14A9A
100
AcDbEntity
  8
1外形線
100
AcDbCircle
 10
201.5711926298193
 20
274.8622437022656
 30
0.0
 40
14.2
100
AcDbArc
 50
1.000000000001761
 51
21.60813494465249
  0
LINE
  5
BE2B
330
14A9A
100
AcDbEntity
  8
1外形線
100
AcDbLine
 10
212.8361568567418
 20
270.5336256205074
 30
0.0
 11
212.8361568567418
 21
268.5336256205073
 31
0.0
  0
LINE
  5
BE2C
330
14A9A
100
AcDbEntity
  8
1外形線
100
AcDbLine
 10
208.8361568567418
 20
266.0336256205074
 30
0.0
 11
208.8361568567418
 21
286.2336256205076
 31
0.0
  0
ARC
  5
BE2D
330
14A9A
100
AcDbEntity
  8
1外形線
100
AcDbCircle
 10
200.7268956851033
 20
276.6884715380196
 30
0.0
 40
12.0
100
AcDbArc
 50
1.000000000001761
 51
28.01571132829206
  0
LINE
  5
BE2E
330
14A9A
100
AcDbEntity
  8
1外形線
100
AcDbLine
 10
213.755767935962
 20
270.5336256205074
 30
0.0
 11
212.9361677760903
 21
270.5336256205074
 31
0.0
  0
LINE
  5
BE2F
330
14A9A
100
AcDbEntity
  8
1外形線
100
AcDbLine
 10
212.8361568567418
 20
270.5336256205074
 30
0.0
 11
212.7250680269783
 21
276.897900415267
 31
0.0
  0
ARC
  5
BE30
330
14A9A
100
AcDbEntity
  8
1外形線
100
AcDbCircle
 10
193.0823681079771
 20
284.2336256205074
 30
0.0
 40
12.0
100
AcDbArc
 50
62.73395554927581
 51
90.0
  0
LINE
  5
BE31
330
14A9A
100
AcDbEntity
  8
1外形線
100
AcDbLine
 10
193.0823681079771
 20
296.2336256205074
 30
0.0
 11
168.8361568567418
 21
296.2336256205074
 31
0.0
  0
LINE
  5
BE33
330
14A9A
100
AcDbEntity
  8
1外形線
100
AcDbLine
 10
193.0823681079771
 20
298.4336256205074
 30
0.0
 11
168.8361568567418
 21
298.4336256205074
 31
0.0
  0
ARC
  5
BE34
330
14A9A
100
AcDbEntity
  8
1外形線
100
AcDbCircle
 10
193.0823681079771
 20
284.2336256205074
 30
0.0
 40
14.19999999999999
100
AcDbArc
 50
62.73395554927581
 51
90.0
  0
LINE
  5
BE35
330
14A9A
100
AcDbEntity
  8
1外形線
100
AcDbLine
 10
144.5899456055065
 20
298.4336256205074
 30
0.0
 11
168.8361568567418
 21
298.4336256205074
 31
0.0
  0
ARC
  5
BE36
330
14A9A
100
AcDbEntity
  8
1外形線
100
AcDbCircle
 10
144.5899456055065
 20
284.2336256205074
 30
0.0
 40
14.19999999999999
100
AcDbArc
 50
90.0
 51
117.2660444507242
  0
LINE
  5
BE38
330
14A9A
100
AcDbEntity
  8
1外形線
100
AcDbLine
 10
160.8361568567421
 20
286.2336256205076
 30
0.0
 11
163.8361568567422
 21
286.9336256205074
 31
0.0
  0
LINE
  5
BE39
330
14A9A
100
AcDbEntity
  8
1外形線
100
AcDbLine
 10
147.956696024795
 20
284.2336256205076
 30
0.0
 11
168.8361568567422
 21
284.2336256205076
 31
0.0
  0
ARC
  5
BE46
330
14A9A
100
AcDbEntity
  8
1外形線
100
AcDbCircle
 10
162.8361568567418
 20
258.2336256205074
 30
0.0
 40
30.0
100
AcDbArc
 50
117.2660444507242
 51
131.9233412424367
  0
LINE
  5
BE48
330
14A9A
100
AcDbEntity
  8
1外形線
100
AcDbLine
 10
154.589945605506
 20
286.2336256205076
 30
0.0
 11
160.8361568567427
 21
286.2336256205076
 31
0.0
  0
ARC
  5
BE49
330
14A9A
100
AcDbEntity
  8
1外形線
100
AcDbCircle
 10
154.589945605506
 20
274.2336256205074
 30
0.0
 40
12.0
100
AcDbArc
 50
90.0
 51
117.2660444507242
  0
LINE
  5
BE4B
330
14A9A
100
AcDbEntity
  8
1外形線
100
AcDbLine
 10
163.8361568567418
 20
286.9336256205074
 30
0.0
 11
168.8361568567422
 21
286.9336256205072
 31
0.0
  0
LINE
  5
BE4C
330
14A9A
100
AcDbEntity
  8
1外形線
100
AcDbLine
 10
136.010760332884
 20
267.5336256205073
 30
0.0
 11
136.010760332884
 21
270.5336256205074
 31
0.0
  0
ARC
  5
BE4D
330
14A9A
100
AcDbEntity
  8
1外形線
100
AcDbCircle
 10
137.2558316340885
 20
284.8546421798544
 30
0.0
 40
5.684268894227713
100
AcDbArc
 50
356.7625238391005
 51
84.44736535904587
  0
ARC
  5
BE4E
330
14A9A
100
AcDbEntity
  8
1外形線
100
AcDbCircle
 10
184.8361568567418
 20
268.2336256205074
 30
0.0
 40
27.36470000000001
100
AcDbArc
 50
28.7123871018539
 51
53.11594102398419
  0
ARC
  5
BE4F
330
14A9A
100
AcDbEntity
  8
1外形線
100
AcDbCircle
 10
200.0599917405323
 20
288.5216234892248
 30
0.0
 40
2.0
100
AcDbArc
 50
53.11594102398419
 51
95.55263464095414
  0
LINE
  5
BE50
330
14A9A
100
AcDbEntity
  8
1外形線
100
AcDbLine
 10
195.3361568567404
 20
267.498726123805
 30
0.0
 11
194.7412850581011
 21
284.5336256205076
 31
0.0
  0
LINE
  5
BE51
330
14A9A
100
AcDbEntity
  8
1外形線
100
AcDbLine
 10
200.6615533805996
 20
266.5336256205073
 30
0.0
 11
196.3355476837594
 21
266.5336256205073
 31
0.0
  0
LINE
  5
BE52
330
14A9A
100
AcDbEntity
  8
1外形線
100
AcDbLine
 10
208.8361568567418
 20
270.5336256205074
 30
0.0
 11
201.6615533805996
 21
270.5336256205074
 31
0.0
  0
ARC
  5
BE53
330
14A9A
100
AcDbEntity
  8
1外形線
100
AcDbCircle
 10
200.6615533805996
 20
267.5336256205073
 30
0.0
 40
1.0
100
AcDbArc
 50
270.0
 51
0.0
  0
ARC
  5
BE54
330
14A9A
100
AcDbEntity
  8
1外形線
100
AcDbCircle
 10
196.3355476837594
 20
267.5336256205075
 30
0.0
 40
1.0
100
AcDbArc
 50
182.0000000000034
 51
270.0
  0
LINE
  5
BE55
330
14A9A
100
AcDbEntity
  8
1外形線
100
AcDbLine
 10
176.8361568567413
 20
286.2336256205076
 30
0.0
 11
173.8361568567413
 21
286.9336256205074
 31
0.0
  0
LINE
  5
BE56
330
14A9A
100
AcDbEntity
  8
1外形線
100
AcDbLine
 10
189.7156176886885
 20
284.2336256205076
 30
0.0
 11
168.8361568567413
 21
284.2336256205076
 31
0.0
  0
LINE
  5
BE57
330
14A9A
100
AcDbEntity
  8
1外形線
 62
     3
100
AcDbLine
 10
199.1361677760897
 20
266.5336256205073
 30
0.0
 11
199.1361677760901
 21
261.5336256205073
 31
0.0
  0
ARC
  5
BE63
330
14A9A
100
AcDbEntity
  8
1外形線
100
AcDbCircle
 10
174.8361568567418
 20
258.2336256205074
 30
0.0
 40
30.0
100
AcDbArc
 50
48.07665875754054
 51
62.73395554927581
  0
LINE
  5
BE65
330
14A9A
100
AcDbEntity
  8
1外形線
100
AcDbLine
 10
183.0823681079776
 20
286.2336256205076
 30
0.0
 11
176.8361568567409
 21
286.2336256205076
 31
0.0
  0
ARC
  5
BE66
330
14A9A
100
AcDbEntity
  8
1外形線
100
AcDbCircle
 10
183.0823681079776
 20
274.2336256205074
 30
0.0
 40
12.0
100
AcDbArc
 50
62.73395554927581
 51
90.0
  0
LINE
  5
BE67
330
14A9A
100
AcDbEntity
  8
1外形線
100
AcDbLine
 10
173.8361568567418
 20
286.9336256205074
 30
0.0
 11
168.8361568567413
 21
286.9336256205072
 31
0.0
  0
LINE
  5
BE68
330
14A9A
100
AcDbEntity
  8
1外形線
100
AcDbLine
 10
201.6615533805996
 20
267.5336256205073
 30
0.0
 11
201.6615533805996
 21
270.5336256205074
 31
0.0
  0
ARC
  5
BE69
330
14A9A
100
AcDbEntity
  8
1外形線
100
AcDbCircle
 10
200.4164820793951
 20
284.8546421798544
 30
0.0
 40
5.684268894227713
100
AcDbArc
 50
95.55263464095414
 51
183.2374761608995
  0
LINE
  5
BEAA
330
14A9A
100
AcDbEntity
  8
1外形線
100
AcDbLine
 10
215.9361786954389
 20
265.533625620506
 30
0.0
 11
215.7077413099098
 21
250.0760291997244
 31
0.0
  0
LINE
  5
BEAB
330
14A9A
100
AcDbEntity
  8
1外形線
100
AcDbLine
 10
212.8361568567418
 20
270.5336256205058
 30
0.0
 11
212.5361568567416
 21
250.233625620506
 31
0.0
  0
LINE
  5
BEAC
330
14A9A
100
AcDbEntity
  8
1外形線
100
AcDbLine
 10
208.8361568567418
 20
263.5336256205057
 30
0.0
 11
208.8361568567418
 21
238.0225650605057
 31
0.0
  0
LINE
  5
BEAD
330
14A9A
100
AcDbEntity
  8
1外形線
100
AcDbLine
 10
121.7361350180447
 20
265.5336256205062
 30
0.0
 11
121.9645724035738
 21
250.0760291997246
 31
0.0
  0
LINE
  5
BEAE
330
14A9A
100
AcDbEntity
  8
1外形線
100
AcDbLine
 10
124.8361568567409
 20
270.533625620506
 30
0.0
 11
125.136156856742
 21
250.2336256205063
 31
0.0
  0
LINE
  5
BEAF
330
14A9A
100
AcDbEntity
  8
1外形線
100
AcDbLine
 10
138.5361568567434
 20
230.233625620506
 30
0.0
 11
138.5361568567434
 21
266.5336256205073
 31
0.0
  0
LINE
  5
BEB0
330
14A9A
100
AcDbEntity
  8
1外形線
100
AcDbLine
 10
128.8361568567409
 20
263.533625620506
 30
0.0
 11
128.8361568567409
 21
238.0225650605059
 31
0.0
  0
LINE
  5
BEB4
330
14A9A
100
AcDbEntity
  8
1外形線
100
AcDbLine
 10
199.7013082466521
 20
230.2336256205057
 30
0.0
 11
168.8361568567409
 21
230.233625620506
 31
0.0
  0
LINE
  5
BEB5
330
14A9A
100
AcDbEntity
  8
1外形線
100
AcDbLine
 10
190.5361568567416
 20
228.233625620506
 30
0.0
 11
168.8361568567409
 21
228.233625620506
 31
0.0
  0
LINE
  5
BEB6
330
14A9A
100
AcDbEntity
  8
1外形線
100
AcDbLine
 10
191.5103835037382
 20
226.233625620506
 30
0.0
 11
168.8361568567409
 21
226.233625620506
 31
0.0
  0
ARC
  5
BEB7
330
14A9A
100
AcDbEntity
  8
1外形線
100
AcDbCircle
 10
147.136156856742
 20
250.2336256205063
 30
0.0
 40
22.0
100
AcDbArc
 50
180.0
 51
270.0
  0
ARC
  5
BEB8
330
14A9A
100
AcDbEntity
  8
1外形線
100
AcDbCircle
 10
146.1619302097444
 20
250.4336256205061
 30
0.0
 40
24.19999999999999
100
AcDbArc
 50
180.8466740238611
 51
270.0
  0
LINE
  5
BEB9
330
14A9A
100
AcDbEntity
  8
1外形線
100
AcDbLine
 10
147.136156856742
 20
228.233625620506
 30
0.0
 11
168.8361568567418
 21
228.233625620506
 31
0.0
  0
LINE
  5
BEBA
330
14A9A
100
AcDbEntity
  8
1外形線
100
AcDbLine
 10
146.1619302097444
 20
226.233625620506
 30
0.0
 11
168.8361568567418
 21
226.233625620506
 31
0.0
  0
LINE
  5
BEC0
330
14A9A
100
AcDbEntity
  8
1外形線
100
AcDbLine
 10
137.9710054668305
 20
230.233625620506
 30
0.0
 11
168.8361568567418
 21
230.233625620506
 31
0.0
  0
ARC
  5
BEC1
330
14A9A
100
AcDbEntity
  8
1外形線
100
AcDbCircle
 10
190.5361568567416
 20
250.233625620506
 30
0.0
 40
22.0
100
AcDbArc
 50
270.0
 51
0.0
  0
ARC
  5
BEC2
330
14A9A
100
AcDbEntity
  8
1外形線
100
AcDbCircle
 10
191.5103835037382
 20
250.4336256205058
 30
0.0
 40
24.19999999999999
100
AcDbArc
 50
270.0
 51
359.1533259761388
  0
LINE
  5
BEC8
330
14A9A
100
AcDbEntity
  8
1外形線
100
AcDbLine
 10
124.92482680748
 20
264.533625620506
 30
0.0
 11
127.8361568567409
 21
264.533625620506
 31
0.0
  0
LINE
  5
BEC9
330
14A9A
100
AcDbEntity
  8
1外形線
100
AcDbLine
 10
123.5361568567416
 20
270.533625620506
 30
0.0
 11
124.8361568567409
 21
270.533625620506
 31
0.0
  0
LINE
  5
BECA
330
14A9A
100
AcDbEntity
  8
1外形線
100
AcDbLine
 10
121.7361350180447
 20
265.5336256205062
 30
0.0
 11
123.3361568567418
 21
265.533625620506
 31
0.0
  0
LINE
  5
BECB
330
14A9A
100
AcDbEntity
  8
1外形線
100
AcDbLine
 10
123.3361568567418
 20
265.533625620506
 30
0.0
 11
123.5361568567416
 21
270.533625620506
 31
0.0
  0
ARC
  5
BECC
330
14A9A
100
AcDbEntity
  8
1外形線
100
AcDbCircle
 10
127.8361568567409
 20
263.533625620506
 30
0.0
 40
1.0
100
AcDbArc
 50
0.0
 51
90.0
  0
LINE
  5
BED3
330
14A9A
100
AcDbEntity
  8
1外形線
100
AcDbLine
 10
214.136156856742
 20
270.5336256205058
 30
0.0
 11
212.8361568567418
 21
270.5336256205058
 31
0.0
  0
ARC
  5
BED4
330
14A9A
100
AcDbEntity
  8
1外形線
100
AcDbCircle
 10
209.8361568567419
 20
263.5336256205057
 30
0.0
 40
1.0
100
AcDbArc
 50
90.0
 51
180.0
  0
LINE
  5
BED5
330
14A9A
100
AcDbEntity
  8
1外形線
100
AcDbLine
 10
215.9361786954389
 20
265.533625620506
 30
0.0
 11
214.3361568567418
 21
265.5336256205057
 31
0.0
  0
LINE
  5
BED6
330
14A9A
100
AcDbEntity
  8
1外形線
100
AcDbLine
 10
212.7474869060027
 20
264.5336256205057
 30
0.0
 11
209.8361568567419
 21
264.5336256205057
 31
0.0
  0
LINE
  5
BED7
330
14A9A
100
AcDbEntity
  8
1外形線
100
AcDbLine
 10
214.3361568567418
 20
265.5336256205057
 30
0.0
 11
214.136156856742
 21
270.5336256205058
 31
0.0
  0
LINE
  5
BED8
330
14A9A
100
AcDbEntity
  8
1外形線
100
AcDbLine
 10
131.5361568567434
 20
270.533625620506
 30
0.0
 11
130.7987907652816
 21
270.533625620506
 31
0.0
  0
LINE
  5
BED9
330
14A9A
100
AcDbEntity
  8
1外形線
100
AcDbLine
 10
130.7987907652816
 20
270.533625620506
 30
0.0
 11
130.7987907652816
 21
235.4996353533175
 31
0.0
  0
LINE
  5
BEDA
330
14A9A
100
AcDbEntity
  8
1外形線
100
AcDbLine
 10
131.5361568567434
 20
270.533625620506
 30
0.0
 11
131.5361568567434
 21
234.7210500767726
 31
0.0
  0
LINE
  5
BEDD
330
14A9A
100
AcDbEntity
  8
1外形線
100
AcDbLine
 10
199.1361568567402
 20
230.233625620506
 30
0.0
 11
199.1361568567402
 21
266.5336256205073
 31
0.0
  0
LINE
  5
BEDE
330
14A9A
100
AcDbEntity
  8
1外形線
100
AcDbLine
 10
206.1361568567402
 20
270.533625620506
 30
0.0
 11
206.873522948202
 21
270.533625620506
 31
0.0
  0
LINE
  5
BEDF
330
14A9A
100
AcDbEntity
  8
1外形線
100
AcDbLine
 10
206.873522948202
 20
270.533625620506
 30
0.0
 11
206.873522948202
 21
235.4996353533175
 31
0.0
  0
LINE
  5
BEE0
330
14A9A
100
AcDbEntity
  8
1外形線
100
AcDbLine
 10
206.1361568567402
 20
270.533625620506
 30
0.0
 11
206.1361568567402
 21
234.7210500767726
 31
0.0
  0
LINE
  5
BEE1
330
14A9A
100
AcDbEntity
  8
1外形線
100
AcDbLine
 10
201.6615533805996
 20
270.533625620506
 30
0..0
 11
206.0361459373917
 21
270.533625620506
 31
0.0
  0
LINE
  5
BEE2
330
14A9A
100
AcDbEntity
  8
1外形線
100
AcDbLine
 10
206.873522948202
 20
270.533625620506
 30
0.0
 11
208.9361677760903
 21
270.5336256205074
 31
0.0
  0
LINE
  5
BEF8
330
14A9A
100
AcDbEntity
  8
1外形線
100
AcDbLine
 10
49.88261411080066
 20
226.2336256205076
 30
0.0
 11
-8.11738588919934
 21
226.2336256205078
 31
0.0
  0
LINE
  5
BEF9
330
14A9A
100
AcDbEntity
  8
1外形線
100
AcDbLine
 10
50.88261411080066
 20
227.2336256205076
 30
0.0
 11
50.88261411080066
 21
270.5336256205076
 31
0.0
  0
ARC
  5
BEFA
330
14A9A
100
AcDbEntity
  8
1外形線
100
AcDbCircle
 10
49.88261411080066
 20
227.2336256205076
 30
0.0
 40
1.0
100
AcDbArc
 50
270.0
 51
0.000000000000007
  0
LINE
  5
BEFB
330
14A9A
100
AcDbEntity
  8
1外形線
100
AcDbLine
 10
45.88261411080066
 20
226.2336256205076
 30
0.0
 11
45.88261411080066
 21
265.5336256205077
 31
0.0
  0
LINE
  5
BEFC
330
14A9A
100
AcDbEntity
  8
1外形線
100
AcDbLine
 10
-9.11738588919934
 20
227.2336256205079
 30
0.0
 11
-9.11738588919934
 21
266.0336256205076
 31
0.0
  0
ARC
  5
BEFD
330
14A9A
100
AcDbEntity
  8
1外形線
100
AcDbCircle
 10
-8.11738588919934
 20
227.2336256205079
 30
0.0
 40
1.0
100
AcDbArc
 50
180.0
 51
270.0
  0
LINE
  5
BEFE
330
14A9A
100
AcDbEntity
  8
1外形線
100
AcDbLine
 10
-4.117385889199339
 20
226.2336256205076
 30
0.0
 11
-4.117385889199339
 21
261.0336256205073
 31
0.0
  0
LINE
  5
BF00
330
14A9A
100
AcDbEntity
  8
1外形線
100
AcDbLine
 10
50.88261411080066
 20
265.5336256205075
 30
0.0
 11
33.1048363330242
 21
265.533625620508
 31
0.0
  0
ARC
  5
BF01
330
14A9A
100
AcDbEntity
  8
1外形線
100
AcDbCircle
 10
33.10483633302329
 20
245.533625620508
 30
0.0
 40
20.0
100
AcDbArc
 50
90.0
 51
102.680383491808
  0
LINE
  5
BF03
330
14A9A
100
AcDbEntity
  8
1外形線
100
AcDbLine
 10
28.71459243058371
 20
265.045820742459
 30
0.0
 11
13.05063579101761
 21
261.5214304985563
 31
0.0
  0
LINE
  5
BF06
330
14A9A
100
AcDbEntity
  8
1外形線
100
AcDbLine
 10
8.660391888578033
 20
261.0336256205076
 30
0.0
 11
-9.11738588919934
 21
261.0336256205076
 31
0.0
  0
ARC
  5
BF07
330
14A9A
100
AcDbEntity
  8
1外形線
100
AcDbCircle
 10
8.660391888578033
 20
281.0336256205076
 30
0.0
 40
20.0
100
AcDbArc
 50
270.0
 51
282.680383491808
  0
LINE
  5
C053
330
14A9A
100
AcDbEntity
  8
1外形線
100
AcDbLine
 10
-9.117385889198882
 20
261.0336256205062
 30
0.0
 11
8.660391888569844
 21
261.0336256205053
 31
0.0
  0
ARC
  5
C054
330
14A9A
100
AcDbEntity
  8
1外形線
100
AcDbCircle
 10
8.660391888570758
 20
281.0336256205053
 30
0.0
 40
20.0
100
AcDbArc
 50
270.0
 51
282.680383491821
  0
LINE
  5
C055
330
14A9A
100
AcDbEntity
  8
1外形線
100
AcDbLine
 10
33.10483633302738
 20
265.5336256205077
 30
0.0
 11
50.88261411080066
 21
265.5336256205077
 31
0.0
  0
ARC
  5
C056
330
14A9A
100
AcDbEntity
  8
1外形線
100
AcDbCircle
 10
33.10483633302738
 20
245.5336256205076
 30
0.0
 40
20.0
100
AcDbArc
 50
90.00000000000005
 51
102.6803834918211
  0
LINE
  5
C057
330
14A9A
100
AcDbEntity
  8
1外形線
100
AcDbLine
 10
-9.117385889198882
 20
261.0336256205062
 30
0.0
 11
-9.117385889198882
 21
287.4336256205067
 31
0.0
  0
LINE
  5
C058
330
14A9A
100
AcDbEntity
  8
1外形線
100
AcDbLine
 10
-4.117385889198883
 20
261.0336256205062
 30
0.0
 11
-4.117385889198883
 21
288.233625620506
 31
0.0
  0
ARC
  5
C059
330
14A9A
100
AcDbEntity
  8
1外形線
100
AcDbCircle
 10
-4.317385889198701
 20
288.233625620506
 30
0.0
 40
0.2
100
AcDbArc
 50
0.000000000000007
 51
90.00000000000005
  0
LINE
  5
C05A
330
14A9A
100
AcDbEntity
  8
1外形線
100
AcDbLine
 10
50.88261411080066
 20
265.5336256205077
 30
0.0
 11
50.88261411080043
 21
297.4336256205074
 31
0.0
  0
LINE
  5
C05B
330
14A9A
100
AcDbEntity
  8
1外形線
100
AcDbLine
 10
45.88261411080066
 20
265.5336256205077
 30
0.0
 11
45.88261411080066
 21
298.2336256205081
 31
0.0
  0
LINE
  5
C05C
330
14A9A
100
AcDbEntity
  8
1外形線
100
AcDbLine
 10
49.88261411080042
 20
298.4336256205078
 30
0.0
 11
46.08261411080046
 21
298.4336256205079
 31
0.0
  0
ARC
  5
C05D
330
14A9A
100
AcDbEntity
  8
1外形線
100
AcDbCircle
 10
49.88261411080042
 20
297.4336256205072
 30
0.0
 40
1.0
100
AcDbArc
 50
0.000000000000007
 51
90.00000000000005
  0
ARC
  5
C05E
330
14A9A
100
AcDbEntity
  8
1外形線
100
AcDbCircle
 10
46.08261411080023
 20
298.2336256205077
 30
0.0
 40
0.2
100
AcDbArc
 50
90.00000000000005
 51
180.0
  0
LINE
  5
C05F
330
14A9A
100
AcDbEntity
  8
1外形線
100
AcDbLine
 10
45.88261411080066
 20
298.2336256205081
 30
0.0
 11
34.42363377329366
 21
298.2336256205067
 31
0.0
  0
ARC
  5
C060
330
14A9A
100
AcDbEntity
  8
1外形線
100
AcDbCircle
 10
34.42363377329594
 20
283.2336256205065
 30
0.0
 40
15.0
100
AcDbArc
 50
90.00000000001305
 51
116.5650511770751
  0
LINE
  5
C061
330
14A9A
100
AcDbEntity
  8
1外形線
100
AcDbLine
 10
-8.117385889198882
 20
288.4336256205068
 30
0.0
 11
-4.317385889198931
 21
288.4336256205058
 31
0.0
  0
ARC
  5
C062
330
14A9A
100
AcDbEntity
  8
1外形線
100
AcDbCircle
 10
-8.117385889198882
 20
287.4336256205067
 30
0.0
 40
1.0
100
AcDbArc
 50
90.00000000000005
 51
180.0
  0
LINE
  5
C063
330
14A9A
100
AcDbEntity
  8
1外形線
100
AcDbLine
 10
-4.117385889198883
 20
288.2336256205065
 30
0.0
 11
7.341594448302657
 21
288.233625620506
 31
0.0
  0
ARC
  5
C064
330
14A9A
100
AcDbEntity
  8
1外形線
100
AcDbCircle
 10
7.341594448302885
 20
303.233625620506
 30
0.0
 40
15.0
100
AcDbArc
 50
270.0
 51
296.5650511770751
  0
LINE
  5
C065
330
14A9A
100
AcDbEntity
  8
1外形線
100
AcDbLine
 10
14.04979838080271
 20
289.8172177555072
 30
0.0
 11
27.71542984079633
 21
296.6500334855052
 31
0.0
  0
LINE
  5
C067
330
14A9A
100
AcDbEntity
  8
1外形線
100
AcDbLine
 10
13.05063579101033
 20
261.5214304985541
 30
0.0
 11
28.71459243058827
 21
265.045820742459
 31
0.0
  0
LINE
  5
C068
330
14A9A
100
AcDbEntity
  8
1外形線
100
AcDbLine
 10
16.38261411079884
 20
270.2836256205066
 30
0.0
 11
20.88261411079884
 21
270.2836256205066
 31
0.0
  0
LINE
  5
C069
330
14A9A
100
AcDbEntity
  8
1外形線
100
AcDbLine
 10
16.38261411079884
 20
270.2836256205066
 30
0.0
 11
15.85736238164145
 21
286.3248671739532
 31
0.0
  0
LINE
  5
C06A
330
14A9A
100
AcDbEntity
  8
1外形線
100
AcDbLine
 10
25.38261411079884
 20
270.2836256205066
 30
0.0
 11
25.90786583995669
 21
286.3248671739532
 31
0.0
  0
LINE
  5
C06B
330
14A9A
100
AcDbEntity
  8
1外形線
100
AcDbLine
 10
25.38261411079884
 20
270.2836256205066
 30
0.0
 11
20.88261411079884
 21
270.2836256205066
 31
0.0
  0
POLYLINE
  5
C06C
330
14A9A
100
AcDbEntity
  8
1外形線
100
AcDb3dPolyline
 66
     1
 10
0.0
 20
0.0
 30
0.0
 70
     8
  0
VERTEX
  5
149F7
330
C06C
100
AcDbEntity
  8
1外形線
100
AcDbVertex
100
AcDb3dPolylineVertex
 10
15.8574
 20
286.325
 30
0.0
 70
    32
  0
VERTEX
  5
149F8
330
C06C
100
AcDbEntity
  8
1外形線
100
AcDbVertex
100
AcDb3dPolylineVertex
 10
15.8589
 20
286.453
 30
0.0
 70
    32
  0
VERTEX
  5
149F9
330
C06C
100
AcDbEntity
  8
1外形線
100
AcDbVertex
100
AcDb3dPolylineVertex
 10
15.8634
 20
286.58
 30
0.0
 70
    32
  0
VERTEX
  5
149FA
330
C06C
100
AcDbEntity
  8
1外形線
100
AcDbVertex
100
AcDb3dPolylineVertex
 10
15.871
 20
286.7079999999999
 30
0.0
 70
    32
  0
VERTEX
  5
149FB
330
C06C
100
AcDbEntity
  8
1外形線
100
AcDbVertex
100
AcDb3dPolylineVertex
 10
15.8816
 20
286.835
 30
0.0
 70
    32
  0
VERTEX
  5
149FC
330
C06C
100
AcDbEntity
  8
1外形線
100
AcDbVertex
100
AcDb3dPolylineVertex
 10
15.8952
 20
286.962
 30
0.0
 70
    32
  0
VERTEX
  5
149FD
330
C06C
100
AcDbEntity
  8
1外形線
100
AcDbVertex
100
AcDb3dPolylineVertex
 10
15.9118
 20
287.089
 30
0.0
 70
    32
  0
VERTEX
  5
149FE
330
C06C
100
AcDbEntity
  8
1外形線
100
AcDbVertex
100
AcDb3dPolylineVertex
 10
15.9313
 20
287.215
 30
0.0
 70
    32
  0
VERTEX
  5
149FF
330
C06C
100
AcDbEntity
  8
1外形線
100
AcDbVertex
100
AcDb3dPolylineVertex
 10
15.9539
 20
287.34
 30
0.0
 70
    32
  0
VERTEX
  5
14A00
330
C06C
100
AcDbEntity
  8
1外形線
100
AcDbVertex
100
AcDb3dPolylineVertex
 10
15.9795
 20
287.465
 30
0.0
 70
    32
  0
VERTEX
  5
14A01
330
C06C
100
AcDbEntity
  8
1外形線
100
AcDbVertex
100
AcDb3dPolylineVertex
 10
16.008
 20
287.589
 30
0.0
 70
    32
  0
VERTEX
  5
14A02
330
C06C
100
AcDbEntity
  8
1外形線
100
AcDbVertex
100
AcDb3dPolylineVertex
 10
16.0394
 20
287.713
 30
0.0
 70
    32
  0
VERTEX
  5
14A03
330
C06C
100
AcDbEntity
  8
1外形線
100
AcDbVertex
100
AcDb3dPolylineVertex
 10
16.0737
 20
287.836
 30
0.0
 70
    32
  0
VERTEX
  5
14A04
330
C06C
100
AcDbEntity
  8
1外形線
100
AcDbVertex
100
AcDb3dPolylineVertex
 10
16.111
 20
287.957
 30
0.0
 70
    32
  0
VERTEX
  5
14A05
330
C06C
100
AcDbEntity
  8
1外形線
100
AcDbVertex
100
AcDb3dPolylineVertex
 10
16.1511
 20
288.078
 30
0.0
 70
    32
  0
VERTEX
  5
14A06
330
C06C
100
AcDbEntity
  8
1外形線
100
AcDbVertex
100
AcDb3dPolylineVertex
 10
16.1941
 20
288.198
 30
0.0
 70
    32
  0
VERTEX
  5
14A07
330
C06C
100
AcDbEntity
  8
1外形線
100
AcDbVertex
100
AcDb3dPolylineVertex
 10
16.2399
 20
288.317
 30
0.0
 70
    32
  0
VERTEX
  5
14A08
330
C06C
100
AcDbEntity
  8
1外形線
100
AcDbVertex
100
AcDb3dPolylineVertex
 10
16.2885
 20
288.434
 30
0.0
 70
    32
  0
VERTEX
  5
14A09
330
C06C
100
AcDbEntity
  8
1外形線
100
AcDbVertex
100
AcDb3dPolylineVertex
 10
16.3398
 20
288.55
 30
0.0
 70
    32
  0
VERTEX
  5
14A0A
330
C06C
100
AcDbEntity
  8
1外形線
100
AcDbVertex
100
AcDb3dPolylineVertex
 10
16.3939
 20
288.665
 30
0.0
 70
    32
  0
VERTEX
  5
14A0B
330
C06C
100
AcDbEntity
  8
1外形線
100
AcDbVertex
100
AcDb3dPolylineVertex
 10
16.4507
 20
288.778
 30
0.0
 70
    32
  0
VERTEX
  5
14A0C
330
C06C
100
AcDbEntity
  8
1外形線
100
AcDbVertex
100
AcDb3dPolylineVertex
 10
16.5102
 20
288.89
 30
0.0
 70
    32
  0
VERTEX
  5
14A0D
330
C06C
100
AcDbEntity
  8
1外形線
100
AcDbVertex
100
AcDb3dPolylineVertex
 10
16.5723
 20
289.001
 30
0.0
 70
    32
  0
VERTEX
  5
14A0E
330
C06C
100
AcDbEntity
  8
1外形線
100
AcDbVertex
100
AcDb3dPolylineVertex
 10
16.637
 20
289.1090000000001
 30
0.0
 70
    32
  0
VERTEX
  5
14A0F
330
C06C
100
AcDbEntity
  8
1外形線
100
AcDbVertex
100
AcDb3dPolylineVertex
 10
16.7043
 20
289.216
 30
0.0
 70
    32
  0
VERTEX
  5
14A10
330
C06C
100
AcDbEntity
  8
1外形線
100
AcDbVertex
100
AcDb3dPolylineVertex
 10
16.774
 20
289.322
 30
0.0
 70
    32
  0
VERTEX
  5
14A11
330
C06C
100
AcDbEntity
  8
1外形線
100
AcDbVertex
100
AcDb3dPolylineVertex
 10
16.8463
 20
289.425
 30
0.0
 70
    32
  0
VERTEX
  5
14A12
330
C06C
100
AcDbEntity
  8
1外形線
100
AcDbVertex
100
AcDb3dPolylineVertex
 10
16.921
 20
289.527
 30
0.0
 70
    32
  0
VERTEX
  5
14A13
330
C06C
100
AcDbEntity
  8
1外形線
100
AcDbVertex
100
AcDb3dPolylineVertex
 10
16.998
 20
289.627
 30
0.0
 70
    32
  0
VERTEX
  5
14A14
330
C06C
100
AcDbEntity
  8
1外形線
100
AcDbVertex
100
AcDb3dPolylineVertex
 10
17.0774
 20
289.724
 30
0.0
 70
    32
  0
VERTEX
  5
14A15
330
C06C
100
AcDbEntity
  8
1外形線
100
AcDbVertex
100
AcDb3dPolylineVertex
 10
17.1591
 20
289.82
 30
0.0
 70
    32
  0
VERTEX
  5
14A16
330
C06C
100
AcDbEntity
  8
1外形線
100
AcDbVertex
100
AcDb3dPolylineVertex
 10
17.2431
 20
289.914
 30
0.0
 70
    32
  0
VERTEX
  5
14A17
330
C06C
100
AcDbEntity
  8
1外形線
100
AcDbVertex
100
AcDb3dPolylineVertex
 10
17.3292
 20
290.005
 30
0.0
 70
    32
  0
VERTEX
  5
14A18
330
C06C
100
AcDbEntity
  8
1外形線
100
AcDbVertex
100
AcDb3dPolylineVertex
 10
17.4175
 20
290.094
 30
0.0
 70
    32
  0
VERTEX
  5
14A19
330
C06C
100
AcDbEntity
  8
1外形線
100
AcDbVertex
100
AcDb3dPolylineVertex
 10
17.5079
 20
290.181
 30
0.0
 70
    32
  0
VERTEX
  5
14A1A
330
C06C
100
AcDbEntity
  8
1外形線
100
AcDbVertex
100
AcDb3dPolylineVertex
 10
17.6003
 20
290.266
 30
0.0
 70
    32
  0
VERTEX
  5
14A1B
330
C06C
100
AcDbEntity
  8
1外形線
100
AcDbVertex
100
AcDb3dPolylineVertex
 10
17.6946
 20
290.348
 30
0.0
 70
    32
  0
VERTEX
  5
14A1C
330
C06C
100
AcDbEntity
  8
1外形線
100
AcDbVertex
100
AcDb3dPolylineVertex
 10
17.7909
 20
290.428
 30
0.0
 70
    32
  0
VERTEX
  5
14A1D
330
C06C
100
AcDbEntity
  8
1外形線
100
AcDbVertex
100
AcDb3dPolylineVertex
 10
17.8891
 20
290.505
 30
0.0
 70
    32
  0
VERTEX
  5
14A1E
330
C06C
100
AcDbEntity
  8
1外形線
100
AcDbVertex
100
AcDb3dPolylineVertex
 10
17.989
 20
290.58
 30
0.0
 70
    32
  0
VERTEX
  5
14A1F
330
C06C
100
AcDbEntity
  8
1外形線
100
AcDbVertex
100
AcDb3dPolylineVertex
 10
18.0907
 20
290.652
 30
0.0
 70
    32
  0
VERTEX
  5
14A20
330
C06C
100
AcDbEntity
  8
1外形線
100
AcDbVertex
100
AcDb3dPolylineVertex
 10
18.1941
 20
290.722
 30
0.0
 70
    32
  0
VERTEX
  5
14A21
330
C06C
100
AcDbEntity
  8
1外形線
100
AcDbVertex
100
AcDb3dPolylineVertex
 10
18.2991
 20
290.789
 30
0.0
 70
    32
  0
VERTEX
  5
14A22
330
C06C
100
AcDbEntity
  8
1外形線
100
AcDbVertex
100
AcDb3dPolylineVertex
 10
18.4057
 20
290.853
 30
0.0
 70
    32
  0
VERTEX
  5
14A23
330
C06C
100
AcDbEntity
  8
1外形線
100
AcDbVertex
100
AcDb3dPolylineVertex
 10
18.5137
 20
290.915
 30
0.0
 70
    32
  0
VERTEX
  5
14A24
330
C06C
100
AcDbEntity
  8
1外形線
100
AcDbVertex
100
AcDb3dPolylineVertex
 10
18.6232
 20
290.974
 30
0.0
 70
    32
  0
VERTEX
  5
14A25
330
C06C
100
AcDbEntity
  8
1外形線
100
AcDbVertex
100
AcDb3dPolylineVertex
 10
18.734
 20
291.03
 30
0.0
 70
    32
  0
VERTEX
  5
14A26
330
C06C
100
AcDbEntity
  8
1外形線
100
AcDbVertex
100
AcDb3dPolylineVertex
 10
18.8462
 20
291.083
 30
0.0
 70
    32
  0
VERTEX
  5
14A27
330
C06C
100
AcDbEntity
  8
1外形線
100
AcDbVertex
100
AcDb3dPolylineVertex
 10
18.9595
 20
291.133
 30
0.0
 70
    32
  0
VERTEX
  5
14A28
330
C06C
100
AcDbEntity
  8
1外形線
100
AcDbVertex
100
AcDb3dPolylineVertex
 10
19.0741
 20
291.181
 30
0.0
 70
    32
  0
VERTEX
  5
14A29
330
C06C
100
AcDbEntity
  8
1外形線
100
AcDbVertex
100
AcDb3dPolylineVertex
 10
19.1897
 20
291.225
 30
0.0
 70
    32
  0
VERTEX
  5
14A2A
330
C06C
100
AcDbEntity
  8
1外形線
100
AcDbVertex
100
AcDb3dPolylineVertex
 10
19.3063
 20
291.267
 30
0.0
 70
    32
  0
VERTEX
  5
14A2B
330
C06C
100
AcDbEntity
  8
1外形線
100
AcDbVertex
100
AcDb3dPolylineVertex
 10
19.4239
 20
291.305
 30
0.0
 70
    32
  0
VERTEX
  5
14A2C
330
C06C
100
AcDbEntity
  8
1外形線
100
AcDbVertex
100
AcDb3dPolylineVertex
 10
19.5423
 20
291.341
 30
0.0
 70
    32
  0
VERTEX
  5
14A2D
330
C06C
100
AcDbEntity
  8
1外形線
100
AcDbVertex
100
AcDb3dPolylineVertex
 10
19.6616
 20
291.373
 30
0.0
 70
    32
  0
VERTEX
  5
14A2E
330
C06C
100
AcDbEntity
  8
1外形線
100
AcDbVertex
100
AcDb3dPolylineVertex
 10
19.7816
 20
291.403
 30
0.0
 70
    32
  0
VERTEX
  5
14A2F
330
C06C
100
AcDbEntity
  8
1外形線
100
AcDbVertex
100
AcDb3dPolylineVertex
 10
19.9022
 20
291.429
 30
0.0
 70
    32
  0
VERTEX
  5
14A30
330
C06C
100
AcDbEntity
  8
1外形線
100
AcDbVertex
100
AcDb3dPolylineVertex
 10
20.0235
 20
291.453
 30
0.0
 70
    32
  0
VERTEX
  5
14A31
330
C06C
100
AcDbEntity
  8
1外形線
100
AcDbVertex
100
AcDb3dPolylineVertex
 10
20.1453
 20
291.473
 30
0.0
 70
    32
  0
VERTEX
  5
14A32
330
C06C
100
AcDbEntity
  8
1外形線
100
AcDbVertex
100
AcDb3dPolylineVertex
 10
20.2675
 20
291.49
 30
0.0
 70
    32
  0
VERTEX
  5
14A33
330
C06C
100
AcDbEntity
  8
1外形線
100
AcDbVertex
100
AcDb3dPolylineVertex
 10
20.3901
 20
291.504
 30
0.0
 70
    32
  0
VERTEX
  5
14A34
330
C06C
100
AcDbEntity
  8
1外形線
100
AcDbVertex
100
AcDb3dPolylineVertex
 10
20.5129
 20
291.515
 30
0.0
 70
    32
  0
VERTEX
  5
14A35
330
C06C
100
AcDbEntity
  8
1外形線
100
AcDbVertex
100
AcDb3dPolylineVertex
 10
20.636
 20
291.523
 30
0.0
 70
    32
  0
VERTEX
  5
14A36
330
C06C
100
AcDbEntity
  8
1外形線
100
AcDbVertex
100
AcDb3dPolylineVertex
 10
20.7593
 20
291.528
 30
0.0
 70
    32
  0
VERTEX
  5
14A37
330
C06C
100
AcDbEntity
  8
1外形線
100
AcDbVertex
100
AcDb3dPolylineVertex
 10
20.8826
 20
291.529
 30
0.0
 70
    32
  0
VERTEX
  5
14A38
330
C06C
100
AcDbEntity
  8
1外形線
100
AcDbVertex
100
AcDb3dPolylineVertex
 10
21.0059
 20
291.528
 30
0.0
 70
    32
  0
VERTEX
  5
14A39
330
C06C
100
AcDbEntity
  8
1外形線
100
AcDbVertex
100
AcDb3dPolylineVertex
 10
21.1292
 20
291.523
 30
0.0
 70
    32
  0
VERTEX
  5
14A3A
330
C06C
100
AcDbEntity
  8
1外形線
100
AcDbVertex
100
AcDb3dPolylineVertex
 10
21.2523
 20
291.515
 30
0.0
 70
    32
  0
VERTEX
  5
14A3B
330
C06C
100
AcDbEntity
  8
1外形線
100
AcDbVertex
100
AcDb3dPolylineVertex
 10
21.3752
 20
291.504
 30
0.0
 70
    32
  0
VERTEX
  5
14A3C
330
C06C
100
AcDbEntity
  8
1外形線
100
AcDbVertex
100
AcDb3dPolylineVertex
 10
21.4978
 20
291.49
 30
0.0
 70
    32
  0
VERTEX
  5
14A3D
330
C06C
100
AcDbEntity
  8
1外形線
100
AcDbVertex
100
AcDb3dPolylineVertex
 10
21.62
 20
291.473
 30
0.0
 70
    32
  0
VERTEX
  5
14A3E
330
C06C
100
AcDbEntity
  8
1外形線
100
AcDbVertex
100
AcDb3dPolylineVertex
 10
21.7417
 20
291.453
 30
0.0
 70
    32
  0
VERTEX
  5
14A3F
330
C06C
100
AcDbEntity
  8
1外形線
100
AcDbVertex
100
AcDb3dPolylineVertex
 10
21.86300000000001
 20
291.429
 30
0.0
 70
    32
  0
VERTEX
  5
14A40
330
C06C
100
AcDbEntity
  8
1外形線
100
AcDbVertex
100
AcDb3dPolylineVertex
 10
21.9837
 20
291.403
 30
0.0
 70
    32
  0
VERTEX
  5
14A41
330
C06C
100
AcDbEntity
  8
1外形線
100
AcDbVertex
100
AcDb3dPolylineVertex
 10
22.1037
 20
291.373
 30
0.0
 70
    32
  0
VERTEX
  5
14A42
330
C06C
100
AcDbEntity
  8
1外形線
100
AcDbVertex
100
AcDb3dPolylineVertex
 10
22.2229
 20
291.341
 30
0.0
 70
    32
  0
VERTEX
  5
14A43
330
C06C
100
AcDbEntity
  8
1外形線
100
AcDbVertex
100
AcDb3dPolylineVertex
 10
22.3414
 20
291.305
 30
0.0
 70
    32
  0
VERTEX
  5
14A44
330
C06C
100
AcDbEntity
  8
1外形線
100
AcDbVertex
100
AcDb3dPolylineVertex
 10
22.4589
 20
291.267
 30
0.0
 70
    32
  0
VERTEX
  5
14A45
330
C06C
100
AcDbEntity
  8
1外形線
100
AcDbVertex
100
AcDb3dPolylineVertex
 10
22.5756
 20
291.225
 30
0.0
 70
    32
  0
VERTEX
  5
14A46
330
C06C
100
AcDbEntity
  8
1外形線
100
AcDbVertex
100
AcDb3dPolylineVertex
 10
22.6912
 20
291.181
 30
0.0
 70
    32
  0
VERTEX
  5
14A47
330
C06C
100
AcDbEntity
  8
1外形線
100
AcDbVertex
100
AcDb3dPolylineVertex
 10
22.8057
 20
291.133
 30
0.0
 70
    32
  0
VERTEX
  5
14A48
330
C06C
100
AcDbEntity
  8
1外形線
100
AcDbVertex
100
AcDb3dPolylineVertex
 10
22.9191
 20
291.083
 30
0.0
 70
    32
  0
VERTEX
  5
14A49
330
C06C
100
AcDbEntity
  8
1外形線
100
AcDbVertex
100
AcDb3dPolylineVertex
 10
23.0312
 20
291.03
 30
0.0
 70
    32
  0
VERTEX
  5
14A4A
330
C06C
100
AcDbEntity
  8
1外形線
100
AcDbVertex
100
AcDb3dPolylineVertex
 10
23.142
 20
290.974
 30
0.0
 70
    32
  0
VERTEX
  5
14A4B
330
C06C
100
AcDbEntity
  8
1外形線
100
AcDbVertex
100
AcDb3dPolylineVertex
 10
23.2515
 20
290.915
 30
0.0
 70
    32
  0
VERTEX
  5
14A4C
330
C06C
100
AcDbEntity
  8
1外形線
100
AcDbVertex
100
AcDb3dPolylineVertex
 10
23.3596
 20
290.853
 30
0.0
 70
    32
  0
VERTEX
  5
14A4D
330
C06C
100
AcDbEntity
  8
1外形線
100
AcDbVertex
100
AcDb3dPolylineVertex
 10
23.4661
 20
290.789
 30
0.0
 70
    32
  0
VERTEX
  5
14A4E
330
C06C
100
AcDbEntity
  8
1外形線
100
AcDbVertex
100
AcDb3dPolylineVertex
 10
23.5711
 20
290.722
 30
0.0
 70
    32
  0
VERTEX
  5
14A4F
330
C06C
100
AcDbEntity
  8
1外形線
100
AcDbVertex
100
AcDb3dPolylineVertex
 10
23.6745
 20
290.652
 30
0.0
 70
    32
  0
VERTEX
  5
14A50
330
C06C
100
AcDbEntity
  8
1外形線
100
AcDbVertex
100
AcDb3dPolylineVertex
 10
23.7762
 20
290.58
 30
0.0
 70
    32
  0
VERTEX
  5
14A51
330
C06C
100
AcDbEntity
  8
1外形線
100
AcDbVertex
100
AcDb3dPolylineVertex
 10
23.8762
 20
290.505
 30
0.0
 70
    32
  0
VERTEX
  5
14A52
330
C06C
100
AcDbEntity
  8
1外形線
100
AcDbVertex
100
AcDb3dPolylineVertex
 10
23.9743
 20
290.428
 30
0.0
 70
    32
  0
VERTEX
  5
14A53
330
C06C
100
AcDbEntity
  8
1外形線
100
AcDbVertex
100
AcDb3dPolylineVertex
 10
24.0706
 20
290.348
 30
0.0
 70
    32
  0
VERTEX
  5
14A54
330
C06C
100
AcDbEntity
  8
1外形線
100
AcDbVertex
100
AcDb3dPolylineVertex
 10
24.165
 20
290.266
 30
0.0
 70
    32
  0
VERTEX
  5
14A55
330
C06C
100
AcDbEntity
  8
1外形線
100
AcDbVertex
100
AcDb3dPolylineVertex
 10
24.2574
 20
290.181
 30
0.0
 70
    32
  0
VERTEX
  5
14A56
330
C06C
100
AcDbEntity
  8
1外形線
100
AcDbVertex
100
AcDb3dPolylineVertex
 10
24.3477
 20
290.094
 30
0.0
 70
    32
  0
VERTEX
  5
14A57
330
C06C
100
AcDbEntity
  8
1外形線
100
AcDbVertex
100
AcDb3dPolylineVertex
 10
24.436
 20
290.005
 30
0.0
 70
    32
  0
VERTEX
  5
14A58
330
C06C
100
AcDbEntity
  8
1外形線
100
AcDbVertex
100
AcDb3dPolylineVertex
 10
24.5221
 20
289.914
 30
0.0
 70
    32
  0
VERTEX
  5
14A59
330
C06C
100
AcDbEntity
  8
1外形線
100
AcDbVertex
100
AcDb3dPolylineVertex
 10
24.6061
 20
289.82
 30
0.0
 70
    32
  0
VERTEX
  5
14A5A
330
C06C
100
AcDbEntity
  8
1外形線
100
AcDbVertex
100
AcDb3dPolylineVertex
 10
24.6878
 20
289.724
 30
0.0
 70
    32
  0
VERTEX
  5
14A5B
330
C06C
100
AcDbEntity
  8
1外形線
100
AcDbVertex
100
AcDb3dPolylineVertex
 10
24.7672
 20
289.627
 30
0.0
 70
    32
  0
VERTEX
  5
14A5C
330
C06C
100
AcDbEntity
  8
1外形線
100
AcDbVertex
100
AcDb3dPolylineVertex
 10
24.8443
 20
289.527
 30
0.0
 70
    32
  0
VERTEX
  5
14A5D
330
C06C
100
AcDbEntity
  8
1外形線
100
AcDbVertex
100
AcDb3dPolylineVertex
 10
24.9189
 20
289.425
 30
0.0
 70
    32
  0
VERTEX
  5
14A5E
330
C06C
100
AcDbEntity
  8
1外形線
100
AcDbVertex
100
AcDb3dPolylineVertex
 10
24.9912
 20
289.322
 30
0.0
 70
    32
  0
VERTEX
  5
14A5F
330
C06C
100
AcDbEntity
  8
1外形線
100
AcDbVertex
100
AcDb3dPolylineVertex
 10
25.061
 20
289.216
 30
0.0
 70
    32
  0
VERTEX
  5
14A60
330
C06C
100
AcDbEntity
  8
1外形線
100
AcDbVertex
100
AcDb3dPolylineVertex
 10
25.1282
 20
289.1090000000001
 30
0.0
 70
    32
  0
VERTEX
  5
14A61
330
C06C
100
AcDbEntity
  8
1外形線
100
AcDbVertex
100
AcDb3dPolylineVertex
 10
25.1929
 20
289.001
 30
0.0
 70
    32
  0
VERTEX
  5
14A62
330
C06C
100
AcDbEntity
  8
1外形線
100
AcDbVertex
100
AcDb3dPolylineVertex
 10
25.255
 20
288.89
 30
0.0
 70
    32
  0
VERTEX
  5
14A63
330
C06C
100
AcDbEntity
  8
1外形線
100
AcDbVertex
100
AcDb3dPolylineVertex
 10
25.3145
 20
288.778
 30
0.0
 70
    32
  0
VERTEX
  5
14A64
330
C06C
100
AcDbEntity
  8
1外形線
100
AcDbVertex
100
AcDb3dPolylineVertex
 10
25.3713
 20
288.665
 30
0.0
 70
    32
  0
VERTEX
  5
14A65
330
C06C
100
AcDbEntity
  8
1外形線
100
AcDbVertex
100
AcDb3dPolylineVertex
 10
25.4254
 20
288.55
 30
0.0
 70
    32
  0
VERTEX
  5
14A66
330
C06C
100
AcDbEntity
  8
1外形線
100
AcDbVertex
100
AcDb3dPolylineVertex
 10
25.4767
 20
288.434
 30
0.0
 70
    32
  0
VERTEX
  5
14A67
330
C06C
100
AcDbEntity
  8
1外形線
100
AcDbVertex
100
AcDb3dPolylineVertex
 10
25.5253
 20
288.317
 30
0.0
 70
    32
  0
VERTEX
  5
14A68
330
C06C
100
AcDbEntity
  8
1外形線
100
AcDbVertex
100
AcDb3dPolylineVertex
 10
25.5711
 20
288.198
 30
0.0
 70
    32
  0
VERTEX
  5
14A69
330
C06C
100
AcDbEntity
  8
1外形線
100
AcDbVertex
100
AcDb3dPolylineVertex
 10
25.6141
 20
288.078
 30
0.0
 70
    32
  0
VERTEX
  5
14A6A
330
C06C
100
AcDbEntity
  8
1外形線
100
AcDbVertex
100
AcDb3dPolylineVertex
 10
25.6542
 20
287.957
 30
0.0
 70
    32
  0
VERTEX
  5
14A6B
330
C06C
100
AcDbEntity
  8
1外形線
100
AcDbVertex
100
AcDb3dPolylineVertex
 10
25.6915
 20
287.836
 30
0.0
 70
    32
  0
VERTEX
  5
14A6C
330
C06C
100
AcDbEntity
  8
1外形線
100
AcDbVertex
100
AcDb3dPolylineVertex
 10
25.7258
 20
287.713
 30
0.0
 70
    32
  0
VERTEX
  5
14A6D
330
C06C
100
AcDbEntity
  8
1外形線
100
AcDbVertex
100
AcDb3dPolylineVertex
 10
25.7573
 20
287.589
 30
0.0
 70
    32
  0
VERTEX
  5
14A6E
330
C06C
100
AcDbEntity
  8
1外形線
100
AcDbVertex
100
AcDb3dPolylineVertex
 10
25.7858
 20
287.465
 30
0.0
 70
    32
  0
VERTEX
  5
14A6F
330
C06C
100
AcDbEntity
  8
1外形線
100
AcDbVertex
100
AcDb3dPolylineVertex
 10
25.8113
 20
287.34
 30
0.0
 70
    32
  0
VERTEX
  5
14A70
330
C06C
100
AcDbEntity
  8
1外形線
100
AcDbVertex
100
AcDb3dPolylineVertex
 10
25.8339
 20
287.215
 30
0.0
 70
    32
  0
VERTEX
  5
14A71
330
C06C
100
AcDbEntity
  8
1外形線
100
AcDbVertex
100
AcDb3dPolylineVertex
 10
25.8535
 20
287.089
 30
0.0
 70
    32
  0
VERTEX
  5
14A72
330
C06C
100
AcDbEntity
  8
1外形線
100
AcDbVertex
100
AcDb3dPolylineVertex
 10
25.8701
 20
286.962
 30
0.0
 70
    32
  0
VERTEX
  5
14A73
330
C06C
100
AcDbEntity
  8
1外形線
100
AcDbVertex
100
AcDb3dPolylineVertex
 10
25.8837
 20
286.835
 30
0.0
 70
    32
  0
VERTEX
  5
14A74
330
C06C
100
AcDbEntity
  8
1外形線
100
AcDbVertex
100
AcDb3dPolylineVertex
 10
25.8942
 20
286.7079999999999
 30
0.0
 70
    32
  0
VERTEX
  5
14A75
330
C06C
100
AcDbEntity
  8
1外形線
100
AcDbVertex
100
AcDb3dPolylineVertex
 10
25.9018
 20
286.58
 30
0.0
 70
    32
  0
VERTEX
  5
14A76
330
C06C
100
AcDbEntity
  8
1外形線
100
AcDbVertex
100
AcDb3dPolylineVertex
 10
25.9064
 20
286.453
 30
0.0
 70
    32
  0
VERTEX
  5
14A77
330
C06C
100
AcDbEntity
  8
1外形線
100
AcDbVertex
100
AcDb3dPolylineVertex
 10
25.9079
 20
286.325
 30
0.0
 70
    32
  0
SEQEND
  5
14A78
330
C06C
100
AcDbEntity
  8
1外形線
  0
LINE
  5
115EA
330
14A9A
100
AcDbEntity
  8
C2
  6
CENTER
100
AcDbLine
 10
55.09548984235493
 20
410.6656927211798
 30
0.0
 11
-13.33026162075475
 21
410.6656927211798
 31
0.0
  0
LINE
  5
1161A
330
14A9A
100
AcDbEntity
  8
1外形線
100
AcDbLine
 10
-9.117385889200022
 20
410.6656927211798
 30
0.0
 11
-9.117385889199113
 21
374.4656927211801
 31
0.0
  0
ARC
  5
1161B
330
14A9A
100
AcDbEntity
  8
1外形線
100
AcDbCircle
 10
-8.117385889199113
 20
374.4656927211801
 30
0.0
 40
1.0
100
AcDbArc
 50
180.0
 51
270.0
  0
LINE
  5
1161C
330
14A9A
100
AcDbEntity
  8
1外形線
100
AcDbLine
 10
50.88261411080043
 20
364.5656927211804
 30
0.0
 11
50.88261411079997
 21
410.6656927211798
 31
0.0
  0
LINE
  5
1161D
330
14A9A
100
AcDbEntity
  8
1外形線
100
AcDbLine
 10
-8.117385889199113
 20
373.4656927211801
 30
0.0
 11
-4.317385889199838
 21
373.4656927211805
 31
0.0
  0
ARC
  5
1161E
330
14A9A
100
AcDbEntity
  8
1外形線
100
AcDbCircle
 10
-4.317385889199838
 20
373.6656927211803
 30
0.0
 40
0.2
100
AcDbArc
 50
270.0
 51
0.000000000000007
  0
LINE
  5
1161F
330
14A9A
100
AcDbEntity
  8
1外形線
100
AcDbLine
 10
-4.117385889200021
 20
373.6656927211803
 30
0.0
 11
-4.117385889200021
 21
373.6656927211803
 31
0.0
  0
LINE
  5
11620
330
14A9A
100
AcDbEntity
  8
1外形線
100
AcDbLine
 10
45.88261411079996
 20
363.8656927211802
 30
0.0
 11
45.88261411080043
 21
363.8656927211802
 31
0.0
  0
LINE
  5
11621
330
14A9A
100
AcDbEntity
  8
1外形線
100
AcDbLine
 10
-4.117385889200021
 20
410.6656927211798
 30
0.0
 11
-4.117385889200021
 21
373.6656927211803
 31
0.0
  0
LINE
  5
11622
330
14A9A
100
AcDbEntity
  8
1外形線
100
AcDbLine
 10
45.88261411079996
 20
410.6656927211798
 30
0.0
 11
45.88261411079996
 21
363.7656927211804
 31
0.0
  0
LINE
  5
11623
330
14A9A
100
AcDbEntity
  8
1外形線
100
AcDbLine
 10
16.38261411079998
 20
376.8656927211811
 30
0.0
 11
16.3826141108002
 21
370.9431927211809
 31
0.0
  0
LINE
  5
11624
330
14A9A
100
AcDbEntity
  8
1外形線
100
AcDbLine
 10
25.38261411079998
 20
376.8656927211811
 30
0.0
 11
25.38261411079953
 21
366.4881927211809
 31
0.0
  0
ARC
  5
11625
330
14A9A
100
AcDbEntity
  8
1外形線
100
AcDbCircle
 10
20.88261411079998
 20
376.8656927211811
 30
0.0
 40
4.5
100
AcDbArc
 50
0.000000000000007
 51
180.0
  0
LINE
  5
11626
330
14A9A
100
AcDbEntity
  8
1外形線
100
AcDbLine
 10
-4.117385889200021
 20
373.6656927211803
 30
0.0
 11
7.373314627991019
 21
373.6656927211803
 31
0.0
  0
ARC
  5
11627
330
14A9A
100
AcDbEntity
  8
1外形線
100
AcDbCircle
 10
49.88261411080042
 20
364.5656927211804
 30
0.0
 40
1.0
100
AcDbArc
 50
270.0
 51
0.000000000000007
  0
LINE
  5
11628
330
14A9A
100
AcDbEntity
  8
1外形線
100
AcDbLine
 10
45.88261411080043
 20
363.7656927211804
 30
0.0
 11
34.39191359360916
 21
363.7656927211804
 31
0.0
  0
LINE
  5
11629
330
14A9A
100
AcDbEntity
  8
1外形線
100
AcDbLine
 10
45.88261411079996
 20
363.7656927211804
 30
0.0
 11
45.88261411080043
 21
363.7656927211804
 31
0.0
  0
ARC
  5
1162A
330
14A9A
100
AcDbEntity
  8
1外形線
100
AcDbCircle
 10
46.08261411080023
 20
363.7656927211804
 30
0.0
 40
0.2
100
AcDbArc
 50
180.0
 51
270.0
  0
LINE
  5
1162B
330
14A9A
100
AcDbEntity
  8
1外形線
100
AcDbLine
 10
46.08261411080023
 20
363.5656927211804
 30
0.0
 11
49.88261411080042
 21
363.5656927211804
 31
0.0
  0
ARC
  5
1162C
330
14A9A
100
AcDbEntity
  8
1外形線
100
AcDbCircle
 10
7.373314627991019
 20
358.6656927211799
 30
0.0
 40
15.0
100
AcDbArc
 50
63.664589996119
 51
90.00000000000005
  0
ARC
  5
1162D
330
14A9A
100
AcDbEntity
  8
1外形線
100
AcDbCircle
 10
34.39191359360916
 20
378.7656927211803
 30
0.0
 40
15.0
100
AcDbArc
 50
243.6645899961189
 51
270.0
  0
LINE
  5
1162E
330
14A9A
100
AcDbEntity
  8
1外形線
100
AcDbLine
 10
27.73753628730947
 20
365.3225062438079
 30
0.0
 11
14.02769193429071
 21
372.1088791985522
 31
0.0
  0
ARC
  5
1162F
330
14A9A
100
AcDbEntity
  8
1外形線
100
AcDbCircle
 10
20.88261411079861
 20
376.8656927211811
 30
0.0
 40
1.7
100
AcDbArc
 50
110.3284972434228
 51
159.6715027565513
  0
ARC
  5
11630
330
14A9A
100
AcDbEntity
  8
1外形線
100
AcDbCircle
 10
20.88261411079861
 20
376.8656927211811
 30
0.0
 40
1.7
100
AcDbArc
 50
20.32849724344868
 51
69.67150275652544
  0
ARC
  5
11631
330
14A9A
100
AcDbEntity
  8
1外形線
100
AcDbCircle
 10
20.88261411079861
 20
376.8656927211811
 30
0.0
 40
1.7
100
AcDbArc
 50
290.3284972434487
 51
339.6715027565513
  0
ARC
  5
11632
330
14A9A
100
AcDbEntity
  8
1外形線
100
AcDbCircle
 10
20.88261411079861
 20
376.8656927211811
 30
0.0
 40
1.7
100
AcDbArc
 50
200.3284972434487
 51
249.6715027565513
  0
ARC
  5
11633
330
14A9A
100
AcDbEntity
  8
1外形線
100
AcDbCircle
 10
19.18261411079857
 20
376.8656927211811
 30
0.0
 40
0.6
100
AcDbArc
 50
280.1642486217281
 51
79.83575137827191
  0
ARC
  5
11634
330
14A9A
100
AcDbEntity
  8
1外形線
100
AcDbCircle
 10
20.88261411079952
 20
378.5656927211813
 30
0.0
 40
0.6
100
AcDbArc
 50
190.1642486216879
 51
349.8357513782328
  0
ARC
  5
11635
330
14A9A
100
AcDbEntity
  8
1外形線
100
AcDbCircle
 10
20.88261411079861
 20
375.1656927211808
 30
0.0
 40
0.6
100
AcDbArc
 50
10.16424862174036
 51
169.8357513782596
  0
ARC
  5
11636
330
14A9A
100
AcDbEntity
  8
1外形線
100
AcDbCircle
 10
22.58261411079866
 20
376.8656927211811
 30
0.0
 40
0.6
100
AcDbArc
 50
100.1642486217281
 51
259.8357513782719
  0
LINE
  5
1163B
330
14A9A
100
AcDbEntity
  8
C2
  6
CENTER
100
AcDbLine
 10
55.09548984235493
 20
410.6656927211798
 30
0.0
 11
-13.33026162075475
 21
410.6656927211798
 31
0.0
  0
LINE
  5
1163C
330
14A9A
100
AcDbEntity
  8
1外形線
100
AcDbLine
 10
-9.117385889200022
 20
410.6656927211798
 30
0.0
 11
-9.117385889199113
 21
446.8656927211796
 31
0.0
  0
ARC
  5
1163D
330
14A9A
100
AcDbEntity
  8
1外形線
100
AcDbCircle
 10
-8.117385889199113
 20
446.8656927211796
 30
0.0
 40
1.0
100
AcDbArc
 50
90.00000000000005
 51
180.0
  0
LINE
  5
1163E
330
14A9A
100
AcDbEntity
  8
1外形線
100
AcDbLine
 10
50.88261411080043
 20
456.7656927211793
 30
0.0
 11
50.88261411079997
 21
410.6656927211798
 31
0.0
  0
LINE
  5
1163F
330
14A9A
100
AcDbEntity
  8
1外形線
100
AcDbLine
 10
-8.117385889199113
 20
447.8656927211796
 30
0.0
 11
-4.317385889199838
 21
447.8656927211791
 31
0.0
  0
ARC
  5
11640
330
14A9A
100
AcDbEntity
  8
1外形線
100
AcDbCircle
 10
-4.317385889199838
 20
447.6656927211792
 30
0.0
 40
0.2
100
AcDbArc
 50
0.0
 51
90.00000000000005
  0
LINE
  5
11641
330
14A9A
100
AcDbEntity
  8
1外形線
100
AcDbLine
 10
-4.117385889200021
 20
447.6656927211792
 30
0.0
 11
-4.117385889200021
 21
447.6656927211792
 31
0.0
  0
LINE
  5
11642
330
14A9A
100
AcDbEntity
  8
1外形線
100
AcDbLine
 10
45.88261411079996
 20
457.4656927211797
 30
0.0
 11
45.88261411080043
 21
457.4656927211797
 31
0.0
  0
LINE
  5
11643
330
14A9A
100
AcDbEntity
  8
1外形線
100
AcDbLine
 10
-4.117385889200021
 20
410.6656927211798
 30
0.0
 11
-4.117385889200021
 21
447.6656927211792
 31
0.0
  0
LINE
  5
11644
330
14A9A
100
AcDbEntity
  8
1外形線
100
AcDbLine
 10
45.88261411079996
 20
410.6656927211798
 30
0.0
 11
45.88261411079996
 21
457.5656927211793
 31
0.0
  0
LINE
  5
11645
330
14A9A
100
AcDbEntity
  8
1外形線
100
AcDbLine
 10
16.38261411079998
 20
444.4656927211785
 30
0.0
 11
16.3826141108002
 21
450.3881927211788
 31
0.0
  0
LINE
  5
11646
330
14A9A
100
AcDbEntity
  8
1外形線
100
AcDbLine
 10
25.38261411079998
 20
444.4656927211785
 30
0.0
 11
25.38261411079953
 21
454.8431927211786
 31
0.0
  0
ARC
  5
11647
330
14A9A
100
AcDbEntity
  8
1外形線
100
AcDbCircle
 10
20.88261411079998
 20
444.4656927211785
 30
0.0
 40
4.5
100
AcDbArc
 50
180.0
 51
0.0
  0
LINE
  5
11648
330
14A9A
100
AcDbEntity
  8
1外形線
100
AcDbLine
 10
-4.117385889200021
 20
447.6656927211792
 30
0.0
 11
7.373314627991019
 21
447.6656927211792
 31
0.0
  0
ARC
  5
11649
330
14A9A
100
AcDbEntity
  8
1外形線
100
AcDbCircle
 10
49.88261411080042
 20
456.7656927211793
 30
0.0
 40
1.0
100
AcDbArc
 50
0.0
 51
90.00000000000005
  0
LINE
  5
1164A
330
14A9A
100
AcDbEntity
  8
1外形線
100
AcDbLine
 10
45.88261411080043
 20
457.5656927211793
 30
0.0
 11
34.39191359360916
 21
457.5656927211793
 31
0.0
  0
LINE
  5
1164B
330
14A9A
100
AcDbEntity
  8
1外形線
100
AcDbLine
 10
45.88261411079996
 20
457.5656927211793
 30
0.0
 11
45.88261411080043
 21
457.5656927211793
 31
0.0
  0
ARC
  5
1164C
330
14A9A
100
AcDbEntity
  8
1外形線
100
AcDbCircle
 10
46.08261411080023
 20
457.5656927211793
 30
0.0
 40
0.2
100
AcDbArc
 50
90.00000000000005
 51
180.0
  0
LINE
  5
1164D
330
14A9A
100
AcDbEntity
  8
1外形線
100
AcDbLine
 10
46.08261411080023
 20
457.7656927211791
 30
0.0
 11
49.88261411080042
 21
457.7656927211791
 31
0.0
  0
ARC
  5
1164E
330
14A9A
100
AcDbEntity
  8
1外形線
100
AcDbCircle
 10
7.373314627991019
 20
462.6656927211798
 30
0.0
 40
15.0
100
AcDbArc
 50
270.0
 51
296.335410003881
  0
ARC
  5
1164F
330
14A9A
100
AcDbEntity
  8
1外形線
100
AcDbCircle
 10
34.39191359360916
 20
442.5656927211795
 30
0.0
 40
15.0
100
AcDbArc
 50
90.00000000000005
 51
116.335410003881
  0
LINE
  5
11650
330
14A9A
100
AcDbEntity
  8
1外形線
100
AcDbLine
 10
27.73753628730947
 20
456.0088791985519
 30
0.0
 11
14.02769193429071
 21
449.2225062438075
 31
0.0
  0
ARC
  5
11651
330
14A9A
100
AcDbEntity
  8
1外形線
100
AcDbCircle
 10
20.88261411079861
 20
444.4656927211785
 30
0.0
 40
1.7
100
AcDbArc
 50
200.3284972434487
 51
249.6715027565772
  0
ARC
  5
11652
330
14A9A
100
AcDbEntity
  8
1外形線
100
AcDbCircle
 10
20.88261411079861
 20
444.4656927211785
 30
0.0
 40
1.7
100
AcDbArc
 50
290.3284972434745
 51
339.6715027565513
  0
ARC
  5
11653
330
14A9A
100
AcDbEntity
  8
1外形線
100
AcDbCircle
 10
20.88261411079861
 20
444.4656927211785
 30
0.0
 40
1.7
100
AcDbArc
 50
20.32849724344868
 51
69.67150275655136
  0
ARC
  5
11654
330
14A9A
100
AcDbEntity
  8
1外形線
100
AcDbCircle
 10
20.88261411079861
 20
444.4656927211785
 30
0.0
 40
1.7
100
AcDbArc
 50
110.3284972434487
 51
159.6715027565513
  0
ARC
  5
11655
330
14A9A
100
AcDbEntity
  8
1外形線
100
AcDbCircle
 10
19.18261411079857
 20
444.4656927211785
 30
0.0
 40
0.6
100
AcDbArc
 50
280.1642486217281
 51
79.83575137827185
  0
ARC
  5
11656
330
14A9A
100
AcDbEntity
  8
1外形線
100
AcDbCircle
 10
20.88261411079952
 20
442.7656927211783
 30
0.0
 40
0.6
100
AcDbArc
 50
10.16424862176719
 51
169.835751378312
  0
ARC
  5
11657
330
14A9A
100
AcDbEntity
  8
1外形線
100
AcDbCircle
 10
20.88261411079861
 20
446.1656927211789
 30
0.0
 40
0.6
100
AcDbArc
 50
190.1642486217403
 51
349.8357513782597
  0
ARC
  5
11658
330
14A9A
100
AcDbEntity
  8
1外形線
100
AcDbCircle
 10
22.58261411079866
 20
444.4656927211785
 30
0.0
 40
0.6
100
AcDbArc
 50
100.1642486217281
 51
259.8357513782719
  0
ENDSEC
  0
SECTION
  2
OBJECTS
  0
DICTIONARY
  5
14A84
330
0
100
AcDbDictionary
281
     1
  3
ACAD_COLOR
350
14A93
  3
ACAD_GROUP
350
14A85
  3
ACAD_LAYOUT
350
14A91
  3
ACAD_MATERIAL
350
14A92
  3
ACAD_MLINESTYLE
350
14A8E
  3
ACAD_PLOTSETTINGS
350
14A90
  3
ACAD_PLOTSTYLENAME
350
14A86
  3
ACAD_TABLESTYLE
350
14A94
  3
ACDBHEADERROUNDTRIPXREC
350
14B45
  3
AcDbVariableDictionary
350
14B27
  0
DICTIONARY
  5
14A93
102
{ACAD_REACTORS
330
14A84
102
}
330
14A84
100
AcDbDictionary
281
     1
  0
DICTIONARY
  5
14A85
102
{ACAD_REACTORS
330
14A84
102
}
330
14A84
100
AcDbDictionary
281
     1
  0
DICTIONARY
  5
14A91
102
{ACAD_REACTORS
330
14A84
102
}
330
14A84
100
AcDbDictionary
281
     1
  3
Model
350
14A9D
  3
レイアウト1
350
14A99
  0
DICTIONARY
  5
14A92
102
{ACAD_REACTORS
330
14A84
102
}
330
14A84
100
AcDbDictionary
281
     1
  0
DICTIONARY
  5
14A8E
102
{ACAD_REACTORS
330
14A84
102
}
330
14A84
100
AcDbDictionary
281
     1
  3
Standard
350
14A8F
  0
DICTIONARY
  5
14A90
102
{ACAD_REACTORS
330
14A84
102
}
330
14A84
100
AcDbDictionary
281
     1
  0
ACDBDICTIONARYWDFLT
  5
14A86
102
{ACAD_REACTORS
330
14A84
102
}
330
14A84
100
AcDbDictionary
281
     1
  3
Normal
350
14A87
100
AcDbDictionaryWithDefault
340
14A87
  0
DICTIONARY
  5
14A94
102
{ACAD_REACTORS
330
14A84
102
}
330
14A84
100
AcDbDictionary
281
     1
  3
Standard
350
14A95
  0
DICTIONARY
  5
14B45
102
{ACAD_REACTORS
330
14A84
102
}
330
14A84
100
AcDbDictionary
281
     1
  0
DICTIONARY
  5
14B27
102
{ACAD_REACTORS
330
14A84
102
}
330
14A84
100
AcDbDictionary
281
     1
  3
CTABLESTYLE
350
14B28
  3
DIMASSOC
350
14B29
  3
PROJECTNAME
350
14B2A
  0
LAYOUT
  5
14A9D
102
{ACAD_XDICTIONARY
360
14B48
102
}
102
{ACAD_REACTORS
330
14A91
102
}
330
14A91
100
AcDbPlotSettings
  1

  2
Canon LBP3920/3970 LIPSLX
  4

  6

 40
0.0
 41
0.0
 42
0.0
 43
0.0
 44
0.0
 45
0.0
 46
0.0
 47
0.0
 48
0.0
 49
0.0
140
0.0
141
0.0
142
1.0
143
1.0
 70
  1712
 72
     0
 73
     0
 74
     0
  7
INABA-CAD-Canon.ctb
 75
     0
147
1.0
148
0.0
149
0.0
100
AcDbLayout
  1
Model
 70
     1
 71
     0
 10
0.0
 20
0.0
 11
12.0
 21
9.0
 12
0.0
 22
0.0
 32
0.0
 14
0.0
 24
0.0
 34
0.0
 15
0.0
 25
0.0
 35
0.0
146
0.0
 13
0.0
 23
0.0
 33
0.0
 16
1.0
 26
0.0
 36
0.0
 17
0.0
 27
1.0
 37
0.0
 76
     0
330
14A9A
  0
LAYOUT
  5
14A99
102
{ACAD_XDICTIONARY
360
14B46
102
}
102
{ACAD_REACTORS
330
14A91
102
}
330
14A91
100
AcDbPlotSettings
  1

  2
Canon LBP3920/3970 LIPSLX
  4

  6

 40
0.0
 41
0.0
 42
0.0
 43
0.0
 44
0.0
 45
0.0
 46
0.0
 47
0.0
 48
0.0
 49
0.0
140
0.0
141
0.0
142
1.0
143
1.0
 70
   688
 72
     0
 73
     0
 74
     5
  7
INABA-CAD-Canon.ctb
 75
    16
147
1.0
148
0.0
149
0.0
100
AcDbLayout
  1
レイアウト1
 70
     0
 71
     1
 10
0.0
 20
0.0
 11
12.0
 21
9.0
 12
0.0
 22
0.0
 32
0.0
 14
1.000000000000000E+20
 24
1.000000000000000E+20
 34
1.000000000000000E+20
 15
-1.000000000000000E+20
 25
-1.000000000000000E+20
 35
-1.000000000000000E+20
146
0.0
 13
0.0
 23
0.0
 33
0.0
 16
1.0
 26
0.0
 36
0.0
 17
0.0
 27
1.0
 37
0.0
 76
     0
330
14A96
  0
MLINESTYLE
  5
14A8F
102
{ACAD_REACTORS
330
14A8E
102
}
330
14A8E
100
AcDbMlineStyle
  2
STANDARD
 70
     0
  3

 62
   256
 51
90.0
 52
90.0
 71
     2
 49
0.5
 62
   256
  6
BYLAYER
 49
-0.5
 62
   256
  6
BYLAYER
  0
ACDBPLACEHOLDER
  5
14A87
102
{ACAD_REACTORS
330
14A86
102
}
330
14A86
  0
TABLESTYLE
  5
14A95
102
{ACAD_REACTORS
330
14A94
102
}
330
14A94
100
AcDbTableStyle
  3
Standard
 70
     0
 71
     0
 40
0.06
 41
0.06
280
     0
281
     0
  7
STANDARD
140
0.18
170
     2
 62
     0
 63
     7
283
     0
274
    -2
284
     1
 64
     0
275
    -2
285
     1
 65
     0
276
    -2
286
     1
 66
     0
277
    -2
287
     1
 67
     0
278
    -2
288
     1
 68
     0
279
    -2
289
     1
 69
     0
  7
STANDARD
140
0.25
170
     5
 62
     0
 63
     7
283
     0
274
    -2
284
     1
 64
     0
275
    -2
285
     1
 65
     0
276
    -2
286
     1
 66
     0
277
    -2
287
     1
 67
     0
278
    -2
288
     1
 68
     0
279
    -2
289
     1
 69
     0
  7
STANDARD
140
0.18
170
     5
 62
     0
 63
     7
283
     0
274
    -2
284
     1
 64
     0
275
    -2
285
     1
 65
     0
276
    -2
286
     1
 66
     0
277
    -2
287
     1
 67
     0
278
    -2
288
     1
 68
     0
279
    -2
289
     1
 69
     0
  0
DICTIONARYVAR
  5
14B28
102
{ACAD_REACTORS
330
14B27
102
}
330
14B27
100
DictionaryVariables
280
     0
  1
STANDARD
  0
DICTIONARYVAR
  5
14B29
102
{ACAD_REACTORS
330
14B27
102
}
330
14B27
100
DictionaryVariables
280
     0
  1
1
  0
DICTIONARYVAR
  5
14B2A
102
{ACAD_REACTORS
330
14B27
102
}
330
14B27
100
DictionaryVariables
280
     0
  1

  0
DICTIONARY
  5
14B48
330
14A9D
100
AcDbDictionary
280
     1
281
     1
  3
ACAD_XREC_ROUNDTRIP
360
14B49
  0
DICTIONARY
  5
14B46
330
14A99
100
AcDbDictionary
280
     1
281
     1
  3
ACAD_XREC_ROUNDTRIP
360
14B47
  0
XRECORD
  5
14B49
102
{ACAD_REACTORS
330
14B48
102
}
330
14B48
100
AcDbXrecord
280
     1
102
SHADEPLOT
 70
     0
102
SHADEPLOTRESLEVEL
 70
     2
102
SHADEPLOTCUSTOMDPI
 70
   300
  0
XRECORD
  5
14B47
102
{ACAD_REACTORS
330
14B46
102
}
330
14B46
100
AcDbXrecord
280
     1
102
SHADEPLOT
 70
     0
102
SHADEPLOTRESLEVEL
 70
     2
102
SHADEPLOTCUSTOMDPI
 70
   300
  0
ENDSEC
  0
EOF
