  0
SECTION
  2
HEADER
  9
$ACADVER
  1
AC1009
  9
$INSBASE
 10
0.0
 20
0.0
 30
0.0
  9
$EXTMIN
 10
6.4920053799776261
 20
-877.63351303608454
 30
-0.0015258207003583
  9
$EXTMAX
 10
553.76220816485852
 20
-376.68492236451078
 30
0.0000000349246037
  9
$LIMMIN
 10
0.0
 20
0.0
  9
$LIMMAX
 10
420.0
 20
297.0
  9
$ORTHOMODE
 70
     1
  9
$REGENMODE
 70
     1
  9
$FILLMODE
 70
     1
  9
$QTEXTMODE
 70
     0
  9
$MIRRTEXT
 70
     1
  9
$DRAGMODE
 70
     2
  9
$LTSCALE
 40
1.0
  9
$OSMODE
 70
    37
  9
$ATTMODE
 70
     1
  9
$TEXTSIZE
 40
2.5
  9
$TRACEWID
 40
1.0
  9
$TEXTSTYLE
  7
KANJI
  9
$CLAYER
  8
1外形線
  9
$CELTYPE
  6
BYLAYER
  9
$CECOLOR
 62
   256
  9
$DIMSCALE
 40
0.0
  9
$DIMASZ
 40
1.8
  9
$DIMEXO
 40
1.0
  9
$DIMDLI
 40
0.0
  9
$DIMRND
 40
0.0
  9
$DIMDLE
 40
0.0
  9
$DIMEXE
 40
1.0
  9
$DIMTP
 40
0.0
  9
$DIMTM
 40
0.0
  9
$DIMTXT
 40
2.5
  9
$DIMCEN
 40
0.0
  9
$DIMTSZ
 40
0.0
  9
$DIMTOL
 70
     0
  9
$DIMLIM
 70
     0
  9
$DIMTIH
 70
     0
  9
$DIMTOH
 70
     0
  9
$DIMSE1
 70
     0
  9
$DIMSE2
 70
     0
  9
$DIMTAD
 70
     1
  9
$DIMZIN
 70
     8
  9
$DIMBLK
  1

  9
$DIMASO
 70
     1
  9
$DIMSHO
 70
     1
  9
$DIMPOST
  1

  9
$DIMAPOST
  1

  9
$DIMALT
 70
     0
  9
$DIMALTD
 70
     2
  9
$DIMALTF
 40
25.399999999999999
  9
$DIMLFAC
 40
1.0
  9
$DIMTOFL
 70
     1
  9
$DIMTVP
 40
0.0
  9
$DIMTIX
 70
     0
  9
$DIMSOXD
 70
     0
  9
$DIMSAH
 70
     1
  9
$DIMBLK1
  1
2
  9
$DIMBLK2
  1
2
  9
$DIMSTYLE
  2
M
  9
$DIMCLRD
 70
     0
  9
$DIMCLRE
 70
     0
  9
$DIMCLRT
 70
     0
  9
$DIMTFAC
 40
1.0
  9
$DIMGAP
 40
0.5
  9
$LUNITS
 70
     2
  9
$LUPREC
 70
     3
  9
$SKETCHINC
 40
1.0
  9
$FILLETRAD
 40
0.0
  9
$AUNITS
 70
     0
  9
$AUPREC
 70
     1
  9
$MENU
  1
.
  9
$ELEVATION
 40
0.0
  9
$PELEVATION
 40
0.0
  9
$THICKNESS
 40
0.0
  9
$LIMCHECK
 70
     0
  9
$BLIPMODE
 70
     0
  9
$CHAMFERA
 40
10.0
  9
$CHAMFERB
 40
10.0
  9
$SKPOLY
 70
     0
  9
$TDCREATE
 40
2454393.806994895
  9
$TDUPDATE
 40
2454396.4332284369
  9
$TDINDWG
 40
0.0254119792
  9
$TDUSRTIMER
 40
0.0254116088
  9
$USRTIMER
 70
     1
  9
$ANGBASE
 50
0.0
  9
$ANGDIR
 70
     0
  9
$PDMODE
 70
     0
  9
$PDSIZE
 40
0.0
  9
$PLINEWID
 40
0.0
  9
$COORDS
 70
     0
  9
$SPLFRAME
 70
     0
  9
$SPLINETYPE
 70
     6
  9
$SPLINESEGS
 70
     8
  9
$ATTDIA
 70
     1
  9
$ATTREQ
 70
     1
  9
$HANDLING
 70
     1
  9
$HANDSEED
  5
B30
  9
$SURFTAB1
 70
     6
  9
$SURFTAB2
 70
     6
  9
$SURFTYPE
 70
     6
  9
$SURFU
 70
     6
  9
$SURFV
 70
     6
  9
$UCSNAME
  2

  9
$UCSORG
 10
0.0
 20
0.0
 30
0.0
  9
$UCSXDIR
 10
1.0
 20
0.0
 30
0.0
  9
$UCSYDIR
 10
0.0
 20
1.0
 30
0.0
  9
$PUCSNAME
  2

  9
$PUCSORG
 10
0.0
 20
0.0
 30
0.0
  9
$PUCSXDIR
 10
1.0
 20
0.0
 30
0.0
  9
$PUCSYDIR
 10
0.0
 20
1.0
 30
0.0
  9
$USERI1
 70
     0
  9
$USERI2
 70
     0
  9
$USERI3
 70
     0
  9
$USERI4
 70
     0
  9
$USERI5
 70
     0
  9
$USERR1
 40
0.0
  9
$USERR2
 40
0.0
  9
$USERR3
 40
0.0
  9
$USERR4
 40
0.0
  9
$USERR5
 40
0.0
  9
$WORLDVIEW
 70
     1
  9
$SHADEDGE
 70
     3
  9
$SHADEDIF
 70
    70
  9
$TILEMODE
 70
     1
  9
$MAXACTVP
 70
    48
  9
$PLIMCHECK
 70
     0
  9
$PEXTMIN
 10
1.0000000000000000E+020
 20
1.0000000000000000E+020
 30
1.0000000000000000E+020
  9
$PEXTMAX
 10
-1.0000000000000000E+020
 20
-1.0000000000000000E+020
 30
-1.0000000000000000E+020
  9
$PLIMMIN
 10
0.0
 20
0.0
  9
$PLIMMAX
 10
420.0
 20
297.0
  9
$UNITMODE
 70
     0
  9
$VISRETAIN
 70
     1
  9
$PLINEGEN
 70
     0
  9
$PSLTSCALE
 70
     1
  0
ENDSEC
  0
SECTION
  2
TABLES
  0
TABLE
  2
VPORT
 70
     3
  0
VPORT
  2
*ACTIVE
 70
     0
 10
0.0
 20
0.0
 11
1.0
 21
1.0
 12
280.12710677241807
 22
-627.15921770029763
 13
0.0
 23
0.0
 14
10.0
 24
10.0
 15
10.0
 25
10.0
 16
0.0
 26
0.0
 36
1.0
 17
0.0
 27
0.0
 37
0.0
 40
631.03989134985045
 41
1.5937904269081491
 42
50.0
 43
0.0
 44
0.0
 50
0.0
 51
0.0
 71
     0
 72
   100
 73
     1
 74
     1
 75
     0
 76
     0
 77
     0
 78
     0
  0
ENDTAB
  0
TABLE
  2
LTYPE
 70
     1
  0
LTYPE
  2
CONTINUOUS
 70
     0
  3
Solid line
 72
    65
 73
     0
 40
0.0
  0
ENDTAB
  0
TABLE
  2
LAYER
 70
     3
  0
LAYER
  2
0
 70
     0
 62
     7
  6
CONTINUOUS
  0
LAYER
  2
1外形線
 70
     0
 62
     3
  6
CONTINUOUS
  0
LAYER
  2
DEFPOINTS
 70
     0
 62
     7
  6
CONTINUOUS
  0
ENDTAB
  0
TABLE
  2
STYLE
 70
     2
  0
STYLE
  2
STANDARD
 70
     0
 40
0.0
 41
1.0
 50
0.0
 71
     0
 42
2.5
  3
txt
  4

  0
STYLE
  2
KANJI
 70
     0
 40
0.0
 41
1.0
 50
0.0
 71
     0
 42
2.5
  3
simplex.shx
  4
bigfont.shx
  0
ENDTAB
  0
TABLE
  2
VIEW
 70
     0
  0
ENDTAB
  0
TABLE
  2
UCS
 70
     0
  0
ENDTAB
  0
TABLE
  2
APPID
 70
     1
  0
APPID
  2
ACAD
 70
     0
  0
ENDTAB
  0
TABLE
  2
DIMSTYLE
 70
     2
  0
DIMSTYLE
  2
STANDARD
 70
     0
  3

  4

  5

  6

  7

 40
1.0
 41
0.18
 42
0.0625
 43
0.38
 44
0.18
 45
0.0
 46
0.0
 47
0.0
 48
0.0
140
0.18
141
0.09
142
0.0
143
25.399999999999999
144
1.0
145
0.0
146
1.0
147
0.09
 71
     0
 72
     0
 73
     0
 74
     0
 75
     0
 76
     0
 77
     0
 78
     0
170
     0
171
     2
172
     1
173
     0
174
     0
175
     0
176
     0
177
     0
178
     0
  0
DIMSTYLE
  2
M
 70
     0
  3

  4

  5

  6

  7

 40
0.0
 41
2.0
 42
1.0
 43
0.0
 44
1.0
 45
0.0
 46
0.0
 47
0.0
 48
0.0
140
2.5
141
0.0
142
0.0
143
25.399999999999999
144
1.0
145
0.0
146
1.0
147
0.5
 71
     0
 72
     0
 73
     0
 74
     0
 75
     0
 76
     0
 77
     1
 78
     8
170
     0
171
     2
172
     1
173
     1
174
     0
175
     0
176
     0
177
     0
178
     0
  0
ENDTAB
  0
ENDSEC
  0
SECTION
  2
BLOCKS
  0
BLOCK
  8
0
  2
$MODEL_SPACE
 70
     0
 10
0.0
 20
0.0
 30
0.0
  3
$MODEL_SPACE
  1

  0
ENDBLK
  5
A0C
  8
0
  0
BLOCK
 67
     1
  8
0
  2
$PAPER_SPACE
 70
     0
 10
0.0
 20
0.0
 30
0.0
  3
$PAPER_SPACE
  1

  0
ENDBLK
  5
A08
 67
     1
  8
0
  0
BLOCK
  8
0
  2
2
 70
     0
 10
0.0
 20
0.0
 30
0.0
  3
2
  1

  0
INSERT
  5
131
  8
0
  6
CONTINUOUS
 62
     0
  2
*U3
 10
0.0
 20
0.0
 30
0.0
1001
ACAD
1002
{
1000
R14_HATCH_DATA
1000
131
1011
1.0
1021
0.0
1031
0.0
1021
0.0
1031
0.0
1011
0.0
1021
0.0
1031
0.0
1021
1.0
1031
0.0
1011
0.0
1021
0.0
1031
0.0
1021
0.0
1031
1.0
1040
0.0
1010
0.0
1020
0.0
1030
1.0
1000
SOLID
1070
     1
1070
     0
1071
        1
1071
        1
1071
        3
1070
     1
1040
-0.9999999999983517
1040
0.2679491924306774
1040
0.0
1040
0.0
1070
     1
1040
0.0
1040
0.0
1040
-0.9999999999983517
1040
-0.2679491924306765
1070
     1
1040
-0.9999999999983524
1040
-0.267949192430676
1040
-0.9999999999983524
1040
0.2679491924306774
1071
        0
1070
     0
1070
     1
1071
        1
1040
2.9957451172313361
1040
-4.1249460962632014
1040
0.0
1002
}
  0
ENDBLK
  5
132
  8
0
  0
BLOCK
  8
0
  2
*U3
 70
     1
 10
0.0
 20
0.0
 30
0.0
  3
*U3
  1

  0
SOLID
  5
8CD
  8
0
  6
CONTINUOUS
 62
     0
 10
0.666666666665568
 20
0.0000000000000004
 30
0.0
 11
0.9999999999983517
 21
0.2679491924306774
 31
0.0
 12
0.0
 22
0.0
 32
0.0
 13
0.0
 23
0.0
 33
0.0
210
0.0
220
0.0
230
-1.0
  0
SOLID
  5
8CE
  8
0
  6
CONTINUOUS
 62
     0
 10
0.666666666665568
 20
0.0000000000000004
 30
0.0
 11
0.0
 21
0.0
 31
0.0
 12
0.9999999999983524
 22
-0.267949192430676
 32
0.0
 13
0.9999999999983524
 23
-0.267949192430676
 33
0.0
210
0.0
220
0.0
230
-1.0
  0
SOLID
  5
8CF
  8
0
  6
CONTINUOUS
 62
     0
 10
0.666666666665568
 20
0.0000000000000004
 30
0.0
 11
0.9999999999983524
 21
-0.267949192430676
 31
0.0
 12
0.9999999999983517
 22
0.2679491924306774
 32
0.0
 13
0.9999999999983517
 23
0.2679491924306774
 33
0.0
210
0.0
220
0.0
230
-1.0
  0
ENDBLK
  5
8D1
  8
0
  0
BLOCK
  8
0
  2
*D4
 70
     1
 10
0.0
 20
0.0
 30
0.0
  3
*D4
  1

  0
LINE
  5
A21
  8
1外形線
 62
     0
 10
111.7780809673522
 20
-755.19692411841754
 30
0.0
 11
111.7780809673522
 21
-730.48207077638097
 31
0.0
  0
LINE
  5
A22
  8
1外形線
 62
     0
 10
148.7780809673518
 20
-755.19692411841845
 30
0.0
 11
148.7780809673518
 21
-730.48207077638097
 31
0.0
  0
LINE
  5
A23
  8
1外形線
 62
     0
 10
113.57808096735219
 20
-731.48207077638108
 30
0.0
 11
146.97808096735179
 21
-731.48207077638108
 31
0.0
  0
INSERT
  5
A24
  8
1外形線
 62
     0
  2
2
 10
111.7780809673522
 20
-731.48207077638108
 30
0.0
 41
1.8
 42
1.8
 43
1.8
 50
180.0
  0
INSERT
  5
A25
  8
1外形線
 62
     0
  2
2
 10
148.7780809673518
 20
-731.48207077638108
 30
0.0
 41
1.8
 42
1.8
 43
1.8
  0
TEXT
  5
A26
  8
1外形線
 62
     0
 10
128.1947476340186
 20
-730.98207077638108
 30
0.0
 40
2.5
  1
37
  0
POINT
  5
A27
  8
DEFPOINTS
 62
     0
 10
111.7780809673522
 20
-756.19692411841754
 30
0.0
  0
POINT
  5
A28
  8
DEFPOINTS
 62
     0
 10
148.7780809673518
 20
-756.19692411841845
 30
0.0
  0
POINT
  5
A29
  8
DEFPOINTS
 62
     0
 10
148.7780809673518
 20
-731.48207077638108
 30
0.0
  0
ENDBLK
  5
A2B
  8
0
  0
BLOCK
  8
0
  2
*D5
 70
     1
 10
0.0
 20
0.0
 30
0.0
  3
*D5
  1

  0
LINE
  5
A2E
  8
1外形線
 62
     0
 10
27.392947169981539
 20
-815.95874260353582
 30
0.0
 11
27.392947169981539
 21
-771.59503773573579
 31
0.0
  0
LINE
  5
A2F
  8
1外形線
 62
     0
 10
101.3929471699807
 20
-815.95874260353764
 30
0.0
 11
101.3929471699807
 21
-771.59503773573579
 31
0.0
  0
LINE
  5
A30
  8
1外形線
 62
     0
 10
29.19294716998154
 20
-772.59503773573567
 30
0.0
 11
99.592947169980803
 21
-772.59503773573567
 31
0.0
  0
INSERT
  5
A31
  8
1外形線
 62
     0
  2
2
 10
27.392947169981539
 20
-772.59503773573567
 30
0.0
 41
1.8
 42
1.8
 43
1.8
 50
180.0
  0
INSERT
  5
A32
  8
1外形線
 62
     0
  2
2
 10
101.3929471699807
 20
-772.59503773573567
 30
0.0
 41
1.8
 42
1.8
 43
1.8
  0
TEXT
  5
A33
  8
1外形線
 62
     0
 10
62.309613836647841
 20
-772.09503773573579
 30
0.0
 40
2.5
  1
74
  0
POINT
  5
A34
  8
DEFPOINTS
 62
     0
 10
27.392947169981539
 20
-816.95874260353582
 30
0.0
  0
POINT
  5
A35
  8
DEFPOINTS
 62
     0
 10
101.3929471699807
 20
-816.95874260353753
 30
0.0
  0
POINT
  5
A36
  8
DEFPOINTS
 62
     0
 10
101.3929471699807
 20
-772.59503773573567
 30
0.0
  0
ENDBLK
  5
A38
  8
0
  0
BLOCK
  8
0
  2
*D6
 70
     1
 10
0.0
 20
0.0
 30
0.0
  3
*D6
  1

  0
LINE
  5
A3B
  8
1外形線
 62
     0
 10
115.3929471699808
 20
-869.8748223866379
 30
0.0
 11
148.221146533325
 21
-869.8748223866379
 31
0.0
  0
LINE
  5
A3C
  8
1外形線
 62
     0
 10
79.639158421216337
 20
-807.27482238663754
 30
0.0
 11
148.221146533325
 21
-807.27482238663754
 31
0.0
  0
LINE
  5
A3D
  8
1外形線
 62
     0
 10
147.221146533325
 20
-868.07482238663795
 30
0.0
 11
147.221146533325
 21
-809.07482238663749
 31
0.0
  0
INSERT
  5
A3E
  8
1外形線
 62
     0
  2
2
 10
147.221146533325
 20
-869.8748223866379
 30
0.0
 41
1.8
 42
1.8
 43
1.8
 50
270.0
  0
INSERT
  5
A3F
  8
1外形線
 62
     0
  2
2
 10
147.221146533325
 20
-807.27482238663754
 30
0.0
 41
1.8
 42
1.8
 43
1.8
 50
90.0
  0
TEXT
  5
A40
  8
1外形線
 62
     0
 10
146.72114653332511
 20
-842.32482238663772
 30
0.0
 40
2.5
  1
62.6
 50
90.0
  0
POINT
  5
A41
  8
DEFPOINTS
 62
     0
 10
114.3929471699808
 20
-869.8748223866379
 30
0.0
  0
POINT
  5
A42
  8
DEFPOINTS
 62
     0
 10
78.639158421216337
 20
-807.27482238663754
 30
0.0
  0
POINT
  5
A43
  8
DEFPOINTS
 62
     0
 10
147.221146533325
 20
-807.27482238663754
 30
0.0
  0
ENDBLK
  5
A45
  8
0
  0
BLOCK
  8
0
  2
*D7
 70
     1
 10
0.0
 20
0.0
 30
0.0
  3
*D7
  1

  0
LINE
  5
A53
  8
1外形線
 62
     0
 10
49.14673591874498
 20
-807.37482238663779
 30
0.0
 11
2.724937064820101
 21
-807.37482238663779
 31
0.0
  0
LINE
  5
A54
  8
1外形線
 62
     0
 10
13.392947169981531
 20
-869.8748223866379
 30
0.0
 11
2.724937064820089
 21
-869.8748223866379
 31
0.0
  0
LINE
  5
A55
  8
1外形線
 62
     0
 10
3.7249370648201019
 20
-809.17482238663763
 30
0.0
 11
3.724937064820089
 21
-868.07482238663795
 31
0.0
  0
INSERT
  5
A56
  8
1外形線
 62
     0
  2
2
 10
3.7249370648201028
 20
-807.37482238663779
 30
0.0
 41
1.8
 42
1.8
 43
1.8
 50
90.0
  0
INSERT
  5
A57
  8
1外形線
 62
     0
  2
2
 10
3.724937064820089
 20
-869.8748223866379
 30
0.0
 41
1.8
 42
1.8
 43
1.8
 50
270.0
  0
TEXT
  5
A58
  8
1外形線
 62
     0
 10
3.2249370648202298
 20
-842.37482238663767
 30
0.0
 40
2.5
  1
62.5
 50
90.0
  0
POINT
  5
A59
  8
DEFPOINTS
 62
     0
 10
50.14673591874498
 20
-807.37482238663779
 30
0.0
  0
POINT
  5
A5A
  8
DEFPOINTS
 62
     0
 10
14.392947169981539
 20
-869.8748223866379
 30
0.0
  0
POINT
  5
A5B
  8
DEFPOINTS
 62
     0
 10
3.724937064820089
 20
-869.8748223866379
 30
0.0
  0
ENDBLK
  5
A52
  8
0
  0
BLOCK
  8
0
  2
*D8
 70
     1
 10
0.0
 20
0.0
 30
0.0
  3
*D8
  1

  0
LINE
  5
A5E
  8
1外形線
 62
     0
 10
14.392947169981539
 20
-870.8748223866379
 30
0.0
 11
14.392947169981539
 21
-882.66202620239744
 31
0.0
  0
LINE
  5
A5F
  8
1外形線
 62
     0
 10
114.3929471699808
 20
-870.8748223866379
 30
0.0
 11
114.3929471699808
 21
-882.66202620239744
 31
0.0
  0
LINE
  5
A60
  8
1外形線
 62
     0
 10
16.19294716998154
 20
-881.66202620239721
 30
0.0
 11
112.5929471699808
 21
-881.66202620239721
 31
0.0
  0
INSERT
  5
A61
  8
1外形線
 62
     0
  2
2
 10
14.392947169981539
 20
-881.66202620239721
 30
0.0
 41
1.8
 42
1.8
 43
1.8
 50
180.0
  0
INSERT
  5
A62
  8
1外形線
 62
     0
  2
2
 10
114.3929471699808
 20
-881.66202620239721
 30
0.0
 41
1.8
 42
1.8
 43
1.8
  0
TEXT
  5
A63
  8
1外形線
 62
     0
 10
61.89294716998117
 20
-881.16202620239733
 30
0.0
 40
2.5
  1
100
  0
POINT
  5
A64
  8
DEFPOINTS
 62
     0
 10
14.392947169981539
 20
-869.8748223866379
 30
0.0
  0
POINT
  5
A65
  8
DEFPOINTS
 62
     0
 10
114.3929471699808
 20
-869.8748223866379
 30
0.0
  0
POINT
  5
A66
  8
DEFPOINTS
 62
     0
 10
114.3929471699808
 20
-881.66202620239721
 30
0.0
  0
ENDBLK
  5
A68
  8
0
  0
BLOCK
  8
0
  2
*D9
 70
     1
 10
0.0
 20
0.0
 30
0.0
  3
*D9
  1

  0
LINE
  5
A6B
  8
1外形線
 62
     0
 10
51.39294716998117
 20
-531.21773388962879
 30
0.0
 11
-69.057787713733404
 21
-531.21773388962879
 31
0.0
  0
LINE
  5
A6C
  8
1外形線
 62
     0
 10
27.19294716998175
 20
-719.21773388962879
 30
0.0
 11
-69.057787713733433
 21
-719.21773388962879
 31
0.0
  0
LINE
  5
A6D
  8
1外形線
 62
     0
 10
-68.05778771373339
 20
-533.01773388962874
 30
0.0
 11
-68.057787713733433
 21
-717.41773388962895
 31
0.0
  0
INSERT
  5
A6E
  8
1外形線
 62
     0
  2
2
 10
-68.05778771373339
 20
-531.21773388962879
 30
0.0
 41
1.8
 42
1.8
 43
1.8
 50
90.0
  0
INSERT
  5
A6F
  8
1外形線
 62
     0
  2
2
 10
-68.057787713733433
 20
-719.21773388962879
 30
0.0
 41
1.8
 42
1.8
 43
1.8
 50
270.0
  0
TEXT
  5
A70
  8
1外形線
 62
     0
 10
-68.557787713733319
 20
-628.13440055629553
 30
0.0
 40
2.5
  1
188
 50
90.0
  0
POINT
  5
A71
  8
DEFPOINTS
 62
     0
 10
52.392947169981163
 20
-531.21773388962879
 30
0.0
  0
POINT
  5
A72
  8
DEFPOINTS
 62
     0
 10
28.19294716998175
 20
-719.21773388962879
 30
0.0
  0
POINT
  5
A73
  8
DEFPOINTS
 62
     0
 10
-68.057787713733433
 20
-719.21773388962879
 30
0.0
  0
ENDBLK
  5
A75
  8
0
  0
BLOCK
  8
0
  2
*D10
 70
     1
 10
0.0
 20
0.0
 30
0.0
  3
*D10
  1

  0
LINE
  5
A78
  8
1外形線
 62
     0
 10
244.91085627180749
 20
-582.71773388962765
 30
0.0
 11
244.91085627180749
 21
-493.80877546648497
 31
0.0
  0
LINE
  5
A79
  8
1外形線
 62
     0
 10
321.91085627180792
 20
-530.21773388962799
 30
0.0
 11
321.91085627180792
 21
-493.80877546648497
 31
0.0
  0
LINE
  5
A7A
  8
1外形線
 62
     0
 10
246.7108562718075
 20
-494.80877546648497
 30
0.0
 11
320.1108562718079
 21
-494.80877546648497
 31
0.0
  0
INSERT
  5
A7B
  8
1外形線
 62
     0
  2
2
 10
244.91085627180749
 20
-494.80877546648497
 30
0.0
 41
1.8
 42
1.8
 43
1.8
 50
180.0
  0
INSERT
  5
A7C
  8
1外形線
 62
     0
  2
2
 10
321.91085627180792
 20
-494.80877546648497
 30
0.0
 41
1.8
 42
1.8
 43
1.8
  0
TEXT
  5
A7D
  8
1外形線
 62
     0
 10
281.32752293847432
 20
-494.30877546648497
 30
0.0
 40
2.5
  1
77
  0
POINT
  5
A7E
  8
DEFPOINTS
 62
     0
 10
244.91085627180749
 20
-583.71773388962765
 30
0.0
  0
POINT
  5
A7F
  8
DEFPOINTS
 62
     0
 10
321.91085627180792
 20
-531.21773388962799
 30
0.0
  0
POINT
  5
A80
  8
DEFPOINTS
 62
     0
 10
321.91085627180792
 20
-494.80877546648497
 30
0.0
  0
ENDBLK
  5
A82
  8
0
  0
BLOCK
  8
0
  2
*D11
 70
     1
 10
0.0
 20
0.0
 30
0.0
  3
*D11
  1

  0
LINE
  5
A85
  8
1外形線
 62
     0
 10
496.89013702920738
 20
-719.21773388962879
 30
0.0
 11
629.90599540814333
 21
-719.21773388962879
 31
0.0
  0
LINE
  5
A86
  8
1外形線
 62
     0
 10
496.89013702920738
 20
-651.71773388962868
 30
0.0
 11
629.90599540814333
 21
-651.71773388962868
 31
0.0
  0
LINE
  5
A87
  8
1外形線
 62
     0
 10
628.90599540814333
 20
-717.41773388962895
 30
0.0
 11
628.90599540814333
 21
-653.51773388962863
 31
0.0
  0
INSERT
  5
A88
  8
1外形線
 62
     0
  2
2
 10
628.90599540814333
 20
-719.21773388962879
 30
0.0
 41
1.8
 42
1.8
 43
1.8
 50
270.0
  0
INSERT
  5
A89
  8
1外形線
 62
     0
  2
2
 10
628.90599540814333
 20
-651.71773388962868
 30
0.0
 41
1.8
 42
1.8
 43
1.8
 50
90.0
  0
TEXT
  5
A8A
  8
1外形線
 62
     0
 10
628.40599540814344
 20
-689.21773388962868
 30
0.0
 40
2.5
  1
67.5
 50
90.0
  0
POINT
  5
A8B
  8
DEFPOINTS
 62
     0
 10
495.89013702920738
 20
-719.21773388962879
 30
0.0
  0
POINT
  5
A8C
  8
DEFPOINTS
 62
     0
 10
495.89013702920738
 20
-651.71773388962868
 30
0.0
  0
POINT
  5
A8D
  8
DEFPOINTS
 62
     0
 10
628.90599540814333
 20
-651.71773388962868
 30
0.0
  0
ENDBLK
  5
A8F
  8
0
  0
BLOCK
  8
0
  2
*D12
 70
     1
 10
0.0
 20
0.0
 30
0.0
  3
*D12
  1

  0
LINE
  5
A92
  8
1外形線
 62
     0
 10
496.89013702920738
 20
-651.71773388962868
 30
0.0
 11
613.01522164772598
 21
-651.71773388962868
 31
0.0
  0
LINE
  5
A93
  8
1外形線
 62
     0
 10
508.89013702920658
 20
-555.71773388962799
 30
0.0
 11
613.01522164772598
 21
-555.71773388962799
 31
0.0
  0
LINE
  5
A94
  8
1外形線
 62
     0
 10
612.01522164772609
 20
-649.91773388962872
 30
0.0
 11
612.01522164772609
 21
-557.51773388962795
 31
0.0
  0
INSERT
  5
A95
  8
1外形線
 62
     0
  2
2
 10
612.01522164772609
 20
-651.71773388962868
 30
0.0
 41
1.8
 42
1.8
 43
1.8
 50
270.0
  0
INSERT
  5
A96
  8
1外形線
 62
     0
  2
2
 10
612.01522164772609
 20
-555.71773388962799
 30
0.0
 41
1.8
 42
1.8
 43
1.8
 50
90.0
  0
TEXT
  5
A97
  8
1外形線
 62
     0
 10
611.51522164772621
 20
-605.80106722296159
 30
0.0
 40
2.5
  1
96
 50
90.0
  0
POINT
  5
A98
  8
DEFPOINTS
 62
     0
 10
495.89013702920738
 20
-651.71773388962868
 30
0.0
  0
POINT
  5
A99
  8
DEFPOINTS
 62
     0
 10
507.89013702920653
 20
-555.71773388962799
 30
0.0
  0
POINT
  5
A9A
  8
DEFPOINTS
 62
     0
 10
612.01522164772609
 20
-555.71773388962799
 30
0.0
  0
ENDBLK
  5
A9C
  8
0
  0
BLOCK
  8
0
  2
*D13
 70
     1
 10
0.0
 20
0.0
 30
0.0
  3
*D13
  1

  0
LINE
  5
A9F
  8
1外形線
 62
     0
 10
460.89013702920693
 20
-579.71773388962799
 30
0.0
 11
460.89013702920693
 21
-599.02906015893927
 31
0.0
  0
LINE
  5
AA0
  8
1外形線
 62
     0
 10
530.89013702920727
 20
-579.71773388962799
 30
0.0
 11
530.89013702920727
 21
-599.02906015893927
 31
0.0
  0
LINE
  5
AA1
  8
1外形線
 62
     0
 10
462.69013702920688
 20
-598.02906015893916
 30
0.0
 11
529.09013702920743
 21
-598.02906015893916
 31
0.0
  0
INSERT
  5
AA2
  8
1外形線
 62
     0
  2
2
 10
460.89013702920693
 20
-598.02906015893916
 30
0.0
 41
1.8
 42
1.8
 43
1.8
 50
180.0
  0
INSERT
  5
AA3
  8
1外形線
 62
     0
  2
2
 10
530.89013702920727
 20
-598.02906015893916
 30
0.0
 41
1.8
 42
1.8
 43
1.8
  0
TEXT
  5
AA4
  8
1外形線
 62
     0
 10
494.0151370292071
 20
-597.52906015893916
 30
0.0
 40
2.5
  1
70
  0
POINT
  5
AA5
  8
DEFPOINTS
 62
     0
 10
460.89013702920693
 20
-578.71773388962788
 30
0.0
  0
POINT
  5
AA6
  8
DEFPOINTS
 62
     0
 10
530.89013702920727
 20
-578.71773388962788
 30
0.0
  0
POINT
  5
AA7
  8
DEFPOINTS
 62
     0
 10
530.89013702920727
 20
-598.02906015893916
 30
0.0
  0
ENDBLK
  5
AA9
  8
0
  0
BLOCK
  8
0
  2
*D14
 70
     1
 10
0.0
 20
0.0
 30
0.0
  3
*D14
  1

  0
LINE
  5
AAC
  8
1外形線
 62
     0
 10
115.3929471699808
 20
-869.8748223866379
 30
0.0
 11
157.5273805817059
 21
-869.8748223866379
 31
0.0
  0
LINE
  5
AAD
  8
1外形線
 62
     0
 10
79.639158421216337
 20
-792.8748223866379
 30
0.0
 11
157.5273805817059
 21
-792.8748223866379
 31
0.0
  0
LINE
  5
AAE
  8
1外形線
 62
     0
 10
156.5273805817059
 20
-868.07482238663795
 30
0.0
 11
156.5273805817059
 21
-794.67482238663786
 31
0.0
  0
INSERT
  5
AAF
  8
1外形線
 62
     0
  2
2
 10
156.5273805817059
 20
-869.8748223866379
 30
0.0
 41
1.8
 42
1.8
 43
1.8
 50
270.0
  0
INSERT
  5
AB0
  8
1外形線
 62
     0
  2
2
 10
156.5273805817059
 20
-792.8748223866379
 30
0.0
 41
1.8
 42
1.8
 43
1.8
 50
90.0
  0
TEXT
  5
AB1
  8
1外形線
 62
     0
 10
156.0273805817061
 20
-833.45815571997116
 30
0.0
 40
2.5
  1
77
 50
90.0
  0
POINT
  5
AB2
  8
DEFPOINTS
 62
     0
 10
114.3929471699808
 20
-869.8748223866379
 30
0.0
  0
POINT
  5
AB3
  8
DEFPOINTS
 62
     0
 10
78.639158421216337
 20
-792.8748223866379
 30
0.0
  0
POINT
  5
AB4
  8
DEFPOINTS
 62
     0
 10
156.5273805817059
 20
-792.8748223866379
 30
0.0
  0
ENDBLK
  5
AB6
  8
0
  0
BLOCK
  8
0
  2
*D15
 70
     1
 10
0.0
 20
0.0
 30
0.0
  3
*D15
  1

  0
LINE
  5
ABF
  8
1外形線
 62
     0
 10
45.781291852167257
 20
-849.16184498580731
 30
0.0
 11
32.366974349553452
 21
-857.49735841899474
 31
0.0
  0
TEXT
  5
AC0
  8
1外形線
 62
     0
 10
36.598971199012801
 20
-854.27897185766153
 30
0.0
 40
2.5
  1
R24.2
 50
31.856375842938501
  0
INSERT
  5
AC1
  8
1外形線
 62
     0
  2
2
 10
30.838101533626279
 20
-858.44738363588067
 30
0.0
 41
1.8
 42
1.8
 43
1.8
 50
211.85637584293849
  0
POINT
  5
AC2
  8
DEFPOINTS
 62
     0
 10
30.838101533626279
 20
-858.44738363588067
 30
0.0
  0
POINT
  5
AC3
  8
DEFPOINTS
 62
     0
 10
51.392947169980459
 20
-845.67482238663797
 30
0.0
  0
ENDBLK
  5
AC5
  8
0
  0
BLOCK
  8
0
  2
*D16
 70
     1
 10
0.0
 20
0.0
 30
0.0
  3
*D16
  1

  0
LINE
  5
AD0
  8
1外形線
 62
     0
 10
6.3786820960899027
 20
-779.72083111067343
 30
0.0
 11
31.827647786062869
 21
-801.02830978125894
 31
0.0
  0
TEXT
  5
AD1
  8
1外形線
 62
     0
 10
7.0830312325880547
 20
-779.65844285926084
 30
0.0
 40
2.5
  1
R26
 50
320.06180635091312
  0
LINE
  5
AD2
  8
1外形線
 62
     0
 10
53.142947169980459
 20
-818.87482238663813
 30
0.0
 11
33.207775084302106
 21
-802.18383937441286
 31
0.0
  0
INSERT
  5
AD3
  8
1外形線
 62
     0
  2
2
 10
33.207775084302106
 20
-802.18383937441286
 30
0.0
 41
1.8
 42
1.8
 43
1.8
 50
320.06180635091312
  0
POINT
  5
AD4
  8
DEFPOINTS
 62
     0
 10
33.207775084302106
 20
-802.18383937441286
 30
0.0
  0
POINT
  5
AD5
  8
DEFPOINTS
 62
     0
 10
53.142947169980459
 20
-818.87482238663813
 30
0.0
  0
ENDBLK
  5
AD7
  8
0
  0
BLOCK
  8
0
  2
*D17
 70
     1
 10
0.0
 20
0.0
 30
0.0
  3
*D17
  1

  0
LINE
  5
AE2
  8
1外形線
 62
     0
 10
238.09825814833891
 20
-529.87410041490148
 30
0.0
 11
256.96313496727339
 21
-557.46665200764096
 31
0.0
  0
TEXT
  5
AE3
  8
1外形線
 62
     0
 10
238.79320788397609
 20
-530.00465639882384
 30
0.0
 40
2.5
  1
R30
 50
304.3602029324403
  0
LINE
  5
AE4
  8
1外形線
 62
     0
 10
274.91085627180712
 20
-583.71773388962833
 30
0.0
 11
257.97904372036021
 21
-558.9525623028477
 31
0.0
  0
INSERT
  5
AE5
  8
1外形線
 62
     0
  2
2
 10
257.97904372036021
 20
-558.9525623028477
 30
0.0
 41
1.8
 42
1.8
 43
1.8
 50
304.3602029324403
  0
POINT
  5
AE6
  8
DEFPOINTS
 62
     0
 10
257.97904372036021
 20
-558.9525623028477
 30
0.0
  0
POINT
  5
AE7
  8
DEFPOINTS
 62
     0
 10
274.91085627180712
 20
-583.71773388962833
 30
0.0
  0
ENDBLK
  5
AE9
  8
0
  0
BLOCK
  8
0
  2
*D18
 70
     1
 10
0.0
 20
0.0
 30
0.0
  3
*D18
  1

  0
LINE
  5
AEE
  8
1外形線
 62
     0
 10
321.91085627180792
 20
-720.2177338896289
 30
0.0
 11
321.91085627180792
 21
-747.77549357316468
 31
0.0
  0
LINE
  5
AEF
  8
1外形線
 62
     0
 10
259.31085627180647
 20
-719.21773388962879
 30
0.0
 11
259.31085627180647
 21
-747.77549357316468
 31
0.0
  0
LINE
  5
AF0
  8
1外形線
 62
     0
 10
320.1108562718079
 20
-746.77549357316468
 30
0.0
 11
261.11085627180648
 21
-746.77549357316468
 31
0.0
  0
INSERT
  5
AF1
  8
1外形線
 62
     0
  2
2
 10
321.91085627180792
 20
-746.77549357316468
 30
0.0
 41
1.8
 42
1.8
 43
1.8
  0
INSERT
  5
AF2
  8
1外形線
 62
     0
  2
2
 10
259.31085627180647
 20
-746.77549357316468
 30
0.0
 41
1.8
 42
1.8
 43
1.8
 50
180.0
  0
TEXT
  5
AF3
  8
1外形線
 62
     0
 10
286.86085627180722
 20
-746.27549357316479
 30
0.0
 40
2.5
  1
62.6
  0
POINT
  5
AF4
  8
DEFPOINTS
 62
     0
 10
321.91085627180792
 20
-719.21773388962879
 30
0.0
  0
POINT
  5
AF5
  8
DEFPOINTS
 62
     0
 10
259.31085627180647
 20
-718.2177338896289
 30
0.0
  0
POINT
  5
AF6
  8
DEFPOINTS
 62
     0
 10
259.31085627180647
 20
-746.77549357316468
 30
0.0
  0
ENDBLK
  5
AF8
  8
0
  0
BLOCK
  8
0
  2
*D19
 70
     1
 10
0.0
 20
0.0
 30
0.0
  3
*D19
  1

  0
LINE
  5
AFB
  8
1外形線
 62
     0
 10
244.14483734698541
 20
-695.73697177609552
 30
0.0
 11
257.71085627180747
 21
-695.73697177609574
 31
0.0
  0
TEXT
  5
AFC
  8
1外形線
 62
     0
 10
244.64483734698541
 20
-695.23697177609529
 30
0.0
 40
2.5
  1
R15
 50
359.99999999999869
  0
INSERT
  5
AFD
  8
1外形線
 62
     0
  2
2
 10
259.51085627180748
 20
-695.73697177609586
 30
0.0
 41
1.8
 42
1.8
 43
1.8
 50
359.99999999999869
  0
POINT
  5
AFE
  8
DEFPOINTS
 62
     0
 10
259.51085627180748
 20
-695.73697177609586
 30
0.0
  0
POINT
  5
AFF
  8
DEFPOINTS
 62
     0
 10
244.51085627180751
 20
-695.73697177609552
 30
0.0
  0
ENDBLK
  5
B01
  8
0
  0
BLOCK
  8
0
  2
*D20
 70
     1
 10
0.0
 20
0.0
 30
0.0
  3
*D20
  1

  0
LINE
  5
B05
  8
1外形線
 62
     0
 10
322.91085627180792
 20
-531.21773388962799
 30
0.0
 11
390.89694401851631
 21
-531.21773388962799
 31
0.0
  0
LINE
  5
B06
  8
1外形線
 62
     0
 10
322.91085627180792
 20
-719.21773388962879
 30
0.0
 11
390.89694401851619
 21
-719.21773388962879
 31
0.0
  0
LINE
  5
B07
  8
1外形線
 62
     0
 10
389.89694401851631
 20
-533.01773388962795
 30
0.0
 11
389.89694401851619
 21
-717.41773388962895
 31
0.0
  0
INSERT
  5
B08
  8
1外形線
 62
     0
  2
2
 10
389.89694401851631
 20
-531.21773388962799
 30
0.0
 41
1.8
 42
1.8
 43
1.8
 50
90.0
  0
INSERT
  5
B09
  8
1外形線
 62
     0
  2
2
 10
389.89694401851619
 20
-719.21773388962879
 30
0.0
 41
1.8
 42
1.8
 43
1.8
 50
270.0
  0
TEXT
  5
B0A
  8
1外形線
 62
     0
 10
389.39694401851631
 20
-628.13440055629485
 30
0.0
 40
2.5
  1
188
 50
90.0
  0
POINT
  5
B0B
  8
DEFPOINTS
 62
     0
 10
321.91085627180792
 20
-531.21773388962799
 30
0.0
  0
POINT
  5
B0C
  8
DEFPOINTS
 62
     0
 10
321.91085627180792
 20
-719.21773388962879
 30
0.0
  0
POINT
  5
B0D
  8
DEFPOINTS
 62
     0
 10
389.89694401851619
 20
-719.21773388962879
 30
0.0
  0
ENDBLK
  5
B0F
  8
0
  0
BLOCK
  8
0
  2
*D21
 70
     1
 10
0.0
 20
0.0
 30
0.0
  3
*D21
  1

  0
LINE
  5
B1C
  8
1外形線
 62
     0
 10
5.1153439637434408
 20
-527.78894656847876
 30
0.0
 11
34.266962141324591
 21
-559.30849115017395
 31
0.0
  0
TEXT
  5
B1D
  8
1外形線
 62
     0
 10
5.8219128084936651
 20
-527.81652314601104
 30
0.0
 40
2.5
  1
R26
 50
312.76494535077097
  0
LINE
  5
B1E
  8
1外形線
 62
     0
 10
53.142947169980857
 20
-579.71773388962811
 30
0.0
 11
35.489148222316707
 21
-560.62995291028244
 31
0.0
  0
INSERT
  5
B1F
  8
1外形線
 62
     0
  2
2
 10
35.489148222316707
 20
-560.62995291028244
 30
0.0
 41
1.8
 42
1.8
 43
1.8
 50
312.76494535077097
  0
POINT
  5
B20
  8
DEFPOINTS
 62
     0
 10
35.489148222316707
 20
-560.62995291028244
 30
0.0
  0
POINT
  5
B21
  8
DEFPOINTS
 62
     0
 10
53.142947169980857
 20
-579.71773388962811
 30
0.0
  0
ENDBLK
  5
B23
  8
0
  0
ENDSEC
  0
SECTION
  2
ENTITIES
  0
LINE
  5
64F
  8
1外形線
 10
321.91085627180792
 20
-719.21773388962879
 30
0.0
 11
259.41085627180752
 21
-719.21773388962879
 31
0.0
  0
LINE
  5
651
  8
1外形線
 10
313.91085627180769
 20
-553.71773388962788
 30
0.0
 11
270.91085627180752
 21
-553.71773388962788
 31
0.0
  0
LINE
  5
657
  8
1外形線
 10
27.142947169980658
 20
-818.87482238663779
 30
0.0
 11
27.14294716998052
 21
-869.87482238663756
 31
0.0
  0
ARC
  5
65A
  8
1外形線
 10
495.89013702920658
 20
-616.71773388962856
 30
0.0
 40
35.0
 50
210.0000000000008
 51
329.99999999999898
  0
LINE
  5
65B
  8
1外形線
 10
321.91085627180792
 20
-719.21773388962879
 30
0.0
 11
321.91085627180792
 21
-531.21773388962799
 31
0.0
  0
LINE
  5
65C
  8
1外形線
 10
445.89013702920738
 20
-569.21773388962913
 30
0.0
 11
445.89013702920738
 21
-602.59955784711997
 31
0.0
  0
LINE
  5
65E
  8
1外形線
  6
CONTINUOUS
 10
460.89013702920732
 20
-634.21773388962913
 30
0.0
 11
460.89013702920732
 21
-578.71773388962788
 31
0.0
  0
LINE
  5
662
  8
1外形線
 10
318.91085627180769
 20
-631.21773388962799
 30
0.0
 11
318.91085627180769
 21
-531.21773388962799
 31
0.0
  0
ARC
  5
664
  8
1外形線
 10
483.89013702920693
 20
-578.71773388962788
 30
0.0
 40
23.0
 50
90.0
 51
180.0
  0
ARC
  5
665
  8
1外形線
 10
483.8901370292063
 20
-569.21773388962913
 30
0.0
 40
38.000000000000242
 50
90.0
 51
180.0
  0
LINE
  5
66A
  8
1外形線
 10
507.89013702920158
 20
-531.21773388962504
 30
0.0
 11
483.8901370292055
 21
-531.21773388962845
 31
0.0
  0
LINE
  5
672
  8
1外形線
 10
507.89013702920732
 20
-555.71773388962799
 30
0.0
 11
483.89013702920738
 21
-555.71773388962799
 31
0.0
  0
ARC
  5
67B
  8
1外形線
 10
313.91085627180701
 20
-548.71773388962788
 30
0.0
 40
5.0
 50
270.0
 51
0.0
  0
LINE
  5
67C
  8
1外形線
 10
321.91085627180792
 20
-531.21773388962799
 30
0.0
 11
318.91085627180769
 21
-531.21773388962799
 31
0.0
  0
ARC
  5
687
  8
1外形線
 10
483.89013702920738
 20
-602.59955784711997
 30
0.0
 40
38.000000000000242
 50
180.0
 51
228.3580394573718
  0
LINE
  5
689
  8
1外形線
 10
458.89013702920738
 20
-634.21773388962799
 30
0.0
 11
460.89013702920732
 21
-634.21773388962799
 31
0.0
  0
LINE
  5
68B
  8
1外形線
 10
465.5792478967515
 20
-634.21773388962913
 30
0.0
 11
458.64013702920721
 21
-634.21773388962902
 31
0.0
  0
LINE
  5
68E
  8
1外形線
 10
321.91085627180792
 20
-631.21773388962799
 30
0.0
 11
318.91085627180769
 21
-631.21773388962799
 31
0.0
  0
LINE
  5
691
  8
1外形線
 10
533.14013702920761
 20
-719.21773388962879
 30
0.0
 11
458.64013702920721
 21
-719.21773388962879
 31
0.0
  0
LINE
  5
692
  8
1外形線
 10
458.64013702920721
 20
-714.2177338896297
 30
0.0
 11
482.89013702920732
 21
-714.21773388962868
 31
0.0
  0
LINE
  5
69B
  8
1外形線
 10
14.392947169981531
 20
-869.87482238663779
 30
0.0
 11
114.3929471699808
 21
-869.8748223866379
 31
0.0
  0
LINE
  5
69D
  8
1外形線
 10
14.392947169981539
 20
-866.87482238663824
 30
0.0
 11
27.14294716998053
 21
-866.87482238663779
 31
0.0
  0
LINE
  5
69F
  8
1外形線
 10
14.392947169981531
 20
-869.87482238663779
 30
0.0
 11
14.392947169981539
 21
-866.87482238663824
 31
0.0
  0
LINE
  5
6A7
  8
1外形線
 10
244.91085627180701
 20
-658.39131632618853
 30
0.0
 11
244.91085627180749
 21
-579.71773388962765
 31
0.0
  0
LINE
  5
6AC
  8
1外形線
 10
14.392947169981539
 20
-569.21773388962913
 30
0.0
 11
14.392947169981539
 21
-602.59955784711997
 31
0.0
  0
ARC
  5
6B1
  8
1外形線
 10
52.392947169981163
 20
-569.21773388962913
 30
0.0
 40
38.000000000000242
 50
90.0
 51
180.0
  0
LINE
  5
6B2
  8
1外形線
 10
52.392947169986961
 20
-531.21773388962504
 30
0.0
 11
76.392947169983415
 21
-531.21773388962845
 31
0.0
  0
LINE
  5
6B4
  8
1外形線
 10
76.392947169981355
 20
-553.71773388962788
 30
0.0
 11
53.142947169980658
 21
-553.71773388962788
 31
0.0
  0
ARC
  5
6B5
  8
1外形線
 10
52.392947169982108
 20
-602.59955784711997
 30
0.0
 40
38.000000000000242
 50
180.0
 51
228.35803945736961
  0
LINE
  5
6B9
  8
1外形線
 10
101.64294716998241
 20
-719.21773388962902
 30
0.0
 11
27.142947169980658
 21
-719.21773388962879
 31
0.0
  0
LINE
  5
6BA
  8
1外形線
 10
101.64294716998241
 20
-714.21773388962868
 30
0.0
 11
27.142947169980658
 21
-714.21773388962868
 31
0.0
  0
ARC
  5
6C0
  8
1外形線
 10
274.91085627180701
 20
-658.39131632618898
 30
0.0
 40
30.0
 50
180.0
 51
209.9999999999994
  0
LINE
  5
6C4
  8
1外形線
 10
257.40123732857438
 20
-688.06376669533984
 30
0.0
 11
248.9300941582739
 21
-673.39131632618796
 31
0.0
  0
LINE
  5
6C7
  8
1外形線
 10
321.91085627180792
 20
-714.21773388962799
 30
0.0
 11
259.41085627180752
 21
-714.21773388962811
 31
0.0
  0
LINE
  5
6CB
  8
1外形線
 10
259.41085627180752
 20
-719.21773388962879
 30
0.0
 11
259.41085627180752
 21
-695.56376669533938
 31
0.0
  0
LINE
  5
6CE
  8
1外形線
 10
262.01085627180731
 20
-719.21773388962879
 30
0.0
 11
260.41085627180729
 21
-719.21773388962879
 31
0.0
  0
LINE
  5
6D9
  8
1外形線
 10
53.142947169980658
 20
-792.8748223866379
 30
0.0
 11
75.642947169980957
 21
-792.87482238663802
 31
0.0
  0
LINE
  5
6DB
  8
1外形線
 10
53.142947169980417
 20
-807.37482238663756
 30
0.0
 11
75.642947169980744
 21
-807.37482238663756
 31
0.0
  0
LINE
  5
894
  8
1外形線
 10
14.392947169981539
 20
-385.47049805638301
 30
0.0
 11
114.3929471699808
 21
-385.47049805638301
 31
0.0
  0
LINE
  5
899
  8
1外形線
 10
14.392947169981539
 20
-385.47049805638301
 30
0.0
 11
14.392947169981539
 21
-388.4704980563825
 31
0.0
  0
LINE
  5
8A2
  8
1外形線
 10
27.392947169981291
 20
-436.47049805638392
 30
0.0
 11
27.392947169979742
 21
-388.47049805638301
 31
0.0
  0
LINE
  5
8A8
  8
1外形線
 10
114.3929471699808
 20
-385.47049805638301
 30
0.0
 11
114.3929471699808
 21
-388.47049805638301
 31
0.0
  0
LINE
  5
8A9
  8
1外形線
 10
114.3929471699808
 20
-388.47049805638301
 30
0.0
 11
14.392947169981539
 21
-388.47049805638301
 31
0.0
  0
LINE
  5
8B7
  8
1外形線
 10
101.39294716997929
 20
-436.47049805638369
 30
0.0
 11
101.3929471699813
 21
-388.47049805638301
 31
0.0
  0
LINE
  5
8BC
  8
1外形線
 10
53.39294716998171
 20
-462.47049805638301
 30
0.0
 11
75.392947169979792
 21
-462.47049805638261
 31
0.0
  0
LINE
  5
8BD
  8
1外形線
 62
     2
 10
64.392947169981539
 20
-727.31363818563193
 30
0.0
 11
64.392947169981539
 21
-516.69939056437613
 31
0.0
  0
LINE
  5
8BE
  8
1外形線
 62
     2
 10
64.392947169980744
 20
-473.7126947334778
 30
0.0
 11
64.392947169980744
 21
-376.72611609092979
 31
0.0
  0
LINE
  5
8BF
  8
1外形線
 62
     2
 10
64.392947169980744
 20
-877.57260939625178
 30
0.0
 11
64.392947169980744
 21
-782.55309103512934
 31
0.0
  0
LINE
  5
8C0
  8
1外形線
 62
     2
 10
495.89013702920738
 20
-731.44974743124055
 30
0.0
 11
495.89013702920738
 21
-515.86164712513198
 31
0.0
  0
ARC
  5
ABA
  8
1外形線
 10
53.142947169980658
 20
-818.87482238663802
 30
0.0
 40
26.0
 50
90.0
 51
179.9999999999998
  0
ARC
  5
ABC
  8
1外形線
 10
53.142947169980623
 20
-833.37482238663756
 30
0.0
 40
26.0
 50
90.000000000000455
 51
179.9999999999998
  0
ARC
  5
AC6
  8
1外形線
 10
51.142947169980587
 20
-845.87482238663767
 30
0.0
 40
24.0
 50
179.9999999999998
 51
270.0
  0
ARC
  5
AC7
  8
1外形線
 10
77.6429471699809
 20
-845.87482238663767
 30
0.0
 40
24.0
 50
270.0
 51
0.0000000000001342
  0
ARC
  5
AC8
  8
1外形線
 10
75.642947169980857
 20
-833.37482238663756
 30
0.0
 40
26.0
 50
0.0000000000001342
 51
89.999999999999545
  0
ARC
  5
AC9
  8
1外形線
 10
75.642947169980829
 20
-818.87482238663802
 30
0.0
 40
26.0
 50
0.0000000000001342
 51
89.999999999999716
  0
LINE
  5
ACA
  8
1外形線
 10
101.6429471699808
 20
-818.87482238663779
 30
0.0
 11
101.6429471699809
 21
-869.87482238663756
 31
0.0
  0
LINE
  5
ACB
  8
1外形線
 10
114.39294716997991
 20
-866.87482238663824
 30
0.0
 11
101.6429471699809
 21
-866.87482238663779
 31
0.0
  0
LINE
  5
ACC
  8
1外形線
 10
114.39294716997991
 20
-869.87482238663779
 30
0.0
 11
114.39294716997991
 21
-866.87482238663824
 31
0.0
  0
LINE
  5
ACD
  8
1外形線
 10
27.142947169980658
 20
-719.21773388962879
 30
0.0
 11
27.142947169980658
 21
-579.71773388962799
 31
0.0
  0
ARC
  5
AD8
  8
1外形線
 10
53.142947169980573
 20
-579.71773388962777
 30
0.0
 40
26.0
 50
89.999999999999815
 51
180.0000000000002
  0
LINE
  5
AD9
  8
1外形線
 10
101.64294716998241
 20
-719.21773388962879
 30
0.0
 11
101.64294716998241
 21
-579.71773388962799
 31
0.0
  0
LINE
  5
ADA
  8
1外形線
 10
114.3929471699815
 20
-569.21773388962913
 30
0.0
 11
114.3929471699815
 21
-602.59955784711997
 31
0.0
  0
ARC
  5
ADB
  8
1外形線
 10
76.392947169980971
 20
-602.59955784711997
 30
0.0
 40
38.000000000000242
 50
311.64196054263027
 51
0.000000000000007
  0
ARC
  5
ADC
  8
1外形線
 10
76.392947169981909
 20
-569.21773388962913
 30
0.0
 40
38.000000000000242
 50
0.000000000000007
 51
90.0
  0
ARC
  5
ADD
  8
1外形線
 10
75.642947169982506
 20
-579.71773388962777
 30
0.0
 40
26.0
 50
359.99999999999972
 51
90.000000000000185
  0
ARC
  5
ADE
  8
1外形線
 10
53.392947169981291
 20
-436.47049805638301
 30
0.0
 40
26.0
 50
180.00000000000179
 51
270.00000000000091
  0
ARC
  5
ADF
  8
1外形線
 10
75.392947169979379
 20
-436.47049805638272
 30
0.0
 40
26.0
 50
270.00000000000091
 51
359.99999999999761
  0
ARC
  5
AEA
  8
1外形線
 10
270.91085627180752
 20
-579.71773388962799
 30
0.0
 40
26.0
 50
90.0
 51
179.9999999999996
  0
ARC
  5
B02
  8
1外形線
 10
244.41085627180749
 20
-695.56376669533938
 30
0.0
 40
15.0
 50
0.0
 51
29.999999999997979
  0
LINE
  5
B10
  8
1外形線
 10
458.64013702920721
 20
-630.99740107508342
 30
0.0
 11
458.64013702920721
 21
-719.21773388962879
 31
0.0
  0
LINE
  5
B11
  8
1外形線
 10
533.14013702920761
 20
-714.2177338896297
 30
0.0
 11
508.89013702920738
 21
-714.21773388962868
 31
0.0
  0
ARC
  5
B12
  8
1外形線
 10
507.89013702920778
 20
-578.71773388962788
 30
0.0
 40
23.0
 50
0.000000000000007
 51
90.0
  0
ARC
  5
B13
  8
1外形線
 10
507.8901370292084
 20
-569.21773388962913
 30
0.0
 40
38.000000000000242
 50
0.000000000000007
 51
90.0
  0
LINE
  5
B14
  8
1外形線
  6
CONTINUOUS
 10
530.89013702920727
 20
-634.21773388962913
 30
0.0
 11
530.89013702920727
 21
-578.71773388962788
 31
0.0
  0
LINE
  5
B15
  8
1外形線
 10
545.89013702920738
 20
-569.21773388962913
 30
0.0
 11
545.89013702920738
 21
-602.59955784711997
 31
0.0
  0
LINE
  5
B16
  8
1外形線
 10
533.14013702920761
 20
-630.99740107508342
 30
0.0
 11
533.14013702920761
 21
-719.21773388962879
 31
0.0
  0
ARC
  5
B17
  8
1外形線
 10
507.89013702920732
 20
-602.59955784711997
 30
0.0
 40
38.000000000000242
 50
311.64196054262811
 51
0.000000000000007
  0
LINE
  5
B18
  8
1外形線
 10
526.20102616166162
 20
-634.21773388962913
 30
0.0
 11
533.14013702920761
 21
-634.21773388962902
 31
0.0
  0
LINE
  5
B19
  8
1外形線
 10
532.89013702920727
 20
-634.21773388962799
 30
0.0
 11
530.89013702920727
 21
-634.21773388962799
 31
0.0
  0
ENDSEC
  0
EOF
