  0
SECTION
  2
HEADER
  9
$ACADVER
  1
AC1009
  9
$INSBASE
 10
0.0
 20
0.0
 30
0.0
  9
$EXTMIN
 10
14.3929471699809106
 20
-950.119893826554744
 30
0.0
  9
$EXTMAX
 10
2339.5505104028848109
 20
-148.3968911340795955
 30
0.0
  9
$LIMMIN
 10
0.0
 20
0.0
  9
$LIMMAX
 10
420.0
 20
297.0
  9
$ORTHOMODE
 70
     0
  9
$REGENMODE
 70
     1
  9
$FILLMODE
 70
     1
  9
$QTEXTMODE
 70
     0
  9
$MIRRTEXT
 70
     1
  9
$DRAGMODE
 70
     2
  9
$LTSCALE
 40
1.0
  9
$OSMODE
 70
   439
  9
$ATTMODE
 70
     1
  9
$TEXTSIZE
 40
2.5
  9
$TRACEWID
 40
1.0
  9
$TEXTSTYLE
  7
KANJI
  9
$CLAYER
  8
1外形線
  9
$CELTYPE
  6
BYLAYER
  9
$CECOLOR
 62
   256
  9
$DIMSCALE
 40
0.0
  9
$DIMASZ
 40
1.8
  9
$DIMEXO
 40
1.0
  9
$DIMDLI
 40
0.0
  9
$DIMRND
 40
0.0
  9
$DIMDLE
 40
0.0
  9
$DIMEXE
 40
1.0
  9
$DIMTP
 40
0.0
  9
$DIMTM
 40
0.0
  9
$DIMTXT
 40
2.5
  9
$DIMCEN
 40
0.0
  9
$DIMTSZ
 40
0.0
  9
$DIMTOL
 70
     0
  9
$DIMLIM
 70
     0
  9
$DIMTIH
 70
     0
  9
$DIMTOH
 70
     0
  9
$DIMSE1
 70
     0
  9
$DIMSE2
 70
     0
  9
$DIMTAD
 70
     1
  9
$DIMZIN
 70
     8
  9
$DIMBLK
  1

  9
$DIMASO
 70
     1
  9
$DIMSHO
 70
     1
  9
$DIMPOST
  1

  9
$DIMAPOST
  1

  9
$DIMALT
 70
     0
  9
$DIMALTD
 70
     2
  9
$DIMALTF
 40
25.3999999999999986
  9
$DIMLFAC
 40
1.0
  9
$DIMTOFL
 70
     1
  9
$DIMTVP
 40
0.0
  9
$DIMTIX
 70
     0
  9
$DIMSOXD
 70
     0
  9
$DIMSAH
 70
     1
  9
$DIMBLK1
  1
2
  9
$DIMBLK2
  1
2
  9
$DIMSTYLE
  2
M
  9
$DIMCLRD
 70
     0
  9
$DIMCLRE
 70
     0
  9
$DIMCLRT
 70
     0
  9
$DIMTFAC
 40
1.0
  9
$DIMGAP
 40
0.5
  9
$LUNITS
 70
     2
  9
$LUPREC
 70
     3
  9
$SKETCHINC
 40
1.0
  9
$FILLETRAD
 40
5.0
  9
$AUNITS
 70
     0
  9
$AUPREC
 70
     1
  9
$MENU
  1
.
  9
$ELEVATION
 40
0.0
  9
$PELEVATION
 40
0.0
  9
$THICKNESS
 40
0.0
  9
$LIMCHECK
 70
     0
  9
$BLIPMODE
 70
     0
  9
$CHAMFERA
 40
10.0
  9
$CHAMFERB
 40
10.0
  9
$SKPOLY
 70
     0
  9
$TDCREATE
 40
2454393.8069907408207655
  9
$TDUPDATE
 40
2460271.5748263890855014
  9
$TDINDWG
 40
0.0350416088
  9
$TDUSRTIMER
 40
0.0350412384
  9
$USRTIMER
 70
     1
  9
$ANGBASE
 50
0.0
  9
$ANGDIR
 70
     0
  9
$PDMODE
 70
     0
  9
$PDSIZE
 40
0.0
  9
$PLINEWID
 40
0.0
  9
$COORDS
 70
     1
  9
$SPLFRAME
 70
     0
  9
$SPLINETYPE
 70
     6
  9
$SPLINESEGS
 70
     8
  9
$ATTDIA
 70
     1
  9
$ATTREQ
 70
     1
  9
$HANDLING
 70
     1
  9
$HANDSEED
  5
1A04
  9
$SURFTAB1
 70
     6
  9
$SURFTAB2
 70
     6
  9
$SURFTYPE
 70
     6
  9
$SURFU
 70
     6
  9
$SURFV
 70
     6
  9
$UCSNAME
  2

  9
$UCSORG
 10
0.0
 20
0.0
 30
0.0
  9
$UCSXDIR
 10
1.0
 20
0.0
 30
0.0
  9
$UCSYDIR
 10
0.0
 20
1.0
 30
0.0
  9
$PUCSNAME
  2

  9
$PUCSORG
 10
0.0
 20
0.0
 30
0.0
  9
$PUCSXDIR
 10
1.0
 20
0.0
 30
0.0
  9
$PUCSYDIR
 10
0.0
 20
1.0
 30
0.0
  9
$USERI1
 70
     0
  9
$USERI2
 70
     0
  9
$USERI3
 70
     0
  9
$USERI4
 70
     0
  9
$USERI5
 70
     0
  9
$USERR1
 40
0.0
  9
$USERR2
 40
0.0
  9
$USERR3
 40
0.0
  9
$USERR4
 40
0.0
  9
$USERR5
 40
0.0
  9
$WORLDVIEW
 70
     1
  9
$SHADEDGE
 70
     3
  9
$SHADEDIF
 70
    70
  9
$TILEMODE
 70
     1
  9
$MAXACTVP
 70
    48
  9
$PLIMCHECK
 70
     0
  9
$PEXTMIN
 10
1.0000000000000000E+20
 20
1.0000000000000000E+20
 30
1.0000000000000000E+20
  9
$PEXTMAX
 10
-1.0000000000000000E+20
 20
-1.0000000000000000E+20
 30
-1.0000000000000000E+20
  9
$PLIMMIN
 10
0.0
 20
0.0
  9
$PLIMMAX
 10
420.0
 20
297.0
  9
$UNITMODE
 70
     0
  9
$VISRETAIN
 70
     1
  9
$PLINEGEN
 70
     0
  9
$PSLTSCALE
 70
     1
  0
ENDSEC
  0
SECTION
  2
TABLES
  0
TABLE
  2
VPORT
 70
     1
  0
VPORT
  2
*ACTIVE
 70
     0
 10
0.0
 20
0.0
 11
1.0
 21
1.0
 12
1024.1035316515640261
 22
-691.8083426492215722
 13
0.0
 23
0.0
 14
10.0
 24
10.0
 15
10.0
 25
10.0
 16
0.0
 26
0.0
 36
1.0
 17
0.0
 27
0.0
 37
0.0
 40
618.0003983418746429
 41
2.0042735042735038
 42
50.0
 43
0.0
 44
0.0
 50
0.0
 51
0.0
 71
     0
 72
   100
 73
     1
 74
     1
 75
     0
 76
     0
 77
     0
 78
     0
  0
ENDTAB
  0
TABLE
  2
LTYPE
 70
     3
  0
LTYPE
  2
CONTINUOUS
 70
     0
  3
Solid line
 72
    65
 73
     0
 40
0.0
  0
LTYPE
  2
CENTER
 70
     0
  3
____ _ ____ _ ____ _ ____ _ ____ _ ____ _ ____ 
 72
    65
 73
     4
 40
2.0
 49
1.25
 49
-0.25
 49
0.25
 49
-0.25
  0
ENDTAB
  0
TABLE
  2
LAYER
 70
     5
  0
LAYER
  2
0
 70
     0
 62
     7
  6
CONTINUOUS
  0
LAYER
  2
1外形線
 70
     0
 62
     3
  6
CONTINUOUS
  0
LAYER
  2
DEFPOINTS
 70
     0
 62
     7
  6
CONTINUOUS
  0
LAYER
  2
SUNPOU
 70
     0
 62
     2
  6
CONTINUOUS
  0
LAYER
  2
2寸法線
 70
     0
 62
     2
  6
CONTINUOUS
  0
ENDTAB
  0
TABLE
  2
STYLE
 70
     3
  0
STYLE
  2
STANDARD
 70
     0
 40
0.0
 41
1.0
 50
0.0
 71
     0
 42
2.5
  3
txt
  4

  0
STYLE
  2
ANNOTATIVE
 70
     0
 40
0.0
 41
1.0
 50
0.0
 71
     0
 42
0.2
  3
txt
  4

  0
STYLE
  2
KANJI
 70
     0
 40
0.0
 41
1.0
 50
0.0
 71
     0
 42
2.5
  3
simplex.shx
  4
bigfont.shx
  0
ENDTAB
  0
TABLE
  2
VIEW
 70
     0
  0
ENDTAB
  0
TABLE
  2
UCS
 70
     0
  0
ENDTAB
  0
TABLE
  2
APPID
 70
     6
  0
APPID
  2
ACAD
 70
     0
  0
APPID
  2
ACADANNOTATIVE
 70
     0
  0
APPID
  2
ACAD_PSEXT
 70
     0
  0
APPID
  2
ACAD_NAV_VCDISPLAY
 70
     0
  0
APPID
  2
ACAD_EXEMPT_FROM_CAD_STANDARDS
 70
     0
  0
APPID
  2
ACAD_MLEADERVER
 70
     0
  0
ENDTAB
  0
TABLE
  2
DIMSTYLE
 70
     5
  0
DIMSTYLE
  2
STANDARD
 70
     0
  3

  4

  5

  6

  7

 40
1.0
 41
0.18
 42
0.0625
 43
0.38
 44
0.18
 45
0.0
 46
0.0
 47
0.0
 48
0.0
140
0.18
141
0.09
142
0.0
143
25.3999999999999986
144
1.0
145
0.0
146
1.0
147
0.09
 71
     0
 72
     0
 73
     0
 74
     0
 75
     0
 76
     0
 77
     0
 78
     0
170
     0
171
     2
172
     1
173
     0
174
     0
175
     0
176
     0
177
     0
178
     0
  0
DIMSTYLE
  2
ANNOTATIVE
 70
     0
  3

  4

  5

  6

  7

 40
1.0
 41
0.18
 42
0.0625
 43
0.38
 44
0.18
 45
0.0
 46
0.0
 47
0.0
 48
0.0
140
0.18
141
0.09
142
0.0
143
25.3999999999999986
144
1.0
145
0.0
146
1.0
147
0.09
 71
     0
 72
     0
 73
     1
 74
     1
 75
     0
 76
     0
 77
     0
 78
     0
170
     0
171
     2
172
     0
173
     0
174
     0
175
     0
176
     0
177
     0
178
     0
  0
DIMSTYLE
  2
M
 70
     0
  3

  4

  5

  6

  7

 40
0.0
 41
2.0
 42
1.0
 43
0.0
 44
1.0
 45
0.0
 46
0.0
 47
0.0
 48
0.0
140
2.5
141
0.0
142
0.0
143
25.3999999999999986
144
1.0
145
0.0
146
1.0
147
0.5
 71
     0
 72
     0
 73
     0
 74
     0
 75
     0
 76
     0
 77
     1
 78
     8
170
     0
171
     2
172
     1
173
     1
174
     0
175
     0
176
     0
177
     0
178
     0
  0
DIMSTYLE
  2
STANDARD$4
 70
     0
  3

  4

  5

  6
1
  7
1
 40
1.0
 41
1.0
 42
1.0
 43
6.0
 44
1.0
 45
0.0
 46
0.0
 47
0.0
 48
0.0
140
2.5
141
0.0
142
0.0
143
25.3999999999999986
144
1.0
145
0.0
146
1.0
147
0.5
 71
     0
 72
     0
 73
     0
 74
     1
 75
     0
 76
     0
 77
     1
 78
     8
170
     0
171
     2
172
     1
173
     1
174
     0
175
     0
176
     0
177
     0
178
     0
  0
ENDTAB
  0
ENDSEC
  0
SECTION
  2
BLOCKS
  0
BLOCK
  8
0
  2
$MODEL_SPACE
 70
     0
 10
0.0
 20
0.0
 30
0.0
  3
$MODEL_SPACE
  1

  0
ENDBLK
  5
BA0
  8
0
  0
BLOCK
 67
     1
  8
0
  2
$PAPER_SPACE
 70
     0
 10
0.0
 20
0.0
 30
0.0
  3
$PAPER_SPACE
  1

  0
ENDBLK
  5
B9C
 67
     1
  8
0
  0
BLOCK
  8
0
  2
2
 70
     0
 10
0.0
 20
0.0
 30
0.0
  3
2
  1

  0
INSERT
  5
131
  8
0
  6
CONTINUOUS
 62
     0
  2
*U3
 10
0.0
 20
0.0
 30
0.0
1001
ACAD
1002
{
1000
R14_HATCH_DATA
1000
131
1011
1.0
1021
0.0
1031
0.0
1021
0.0
1031
0.0
1011
0.0
1021
0.0
1031
0.0
1021
1.0
1031
0.0
1011
0.0
1021
0.0
1031
0.0
1021
0.0
1031
1.0
1040
0.0
1010
0.0
1020
0.0
1030
1.0
1000
SOLID
1070
     1
1070
     0
1071
        1
1071
        1
1071
        3
1070
     1
1040
-0.9999999999983517
1040
0.2679491924306774
1040
0.0
1040
0.0
1070
     1
1040
0.0
1040
0.0
1040
-0.9999999999983517
1040
-0.2679491924306765
1070
     1
1040
-0.9999999999983524
1040
-0.267949192430676
1040
-0.9999999999983524
1040
0.2679491924306774
1071
        0
1070
     0
1070
     1
1071
        1
1040
2.9957451172313361
1040
-4.1249460962632014
1040
0.0
1002
}
  0
ENDBLK
  5
132
  8
0
  0
BLOCK
  8
0
  2
*U3
 70
     1
 10
0.0
 20
0.0
 30
0.0
  3
*U3
  1

  0
SOLID
  5
8CD
  8
0
  6
CONTINUOUS
 62
     0
 10
0.666666666665568
 20
0.0000000000000004
 30
0.0
 11
0.9999999999983517
 21
0.2679491924306774
 31
0.0
 12
0.0
 22
0.0
 32
0.0
 13
0.0
 23
0.0
 33
0.0
210
0.0
220
0.0
230
-1.0
  0
SOLID
  5
8CE
  8
0
  6
CONTINUOUS
 62
     0
 10
0.666666666665568
 20
0.0000000000000004
 30
0.0
 11
0.0
 21
0.0
 31
0.0
 12
0.9999999999983524
 22
-0.267949192430676
 32
0.0
 13
0.9999999999983524
 23
-0.267949192430676
 33
0.0
210
0.0
220
0.0
230
-1.0
  0
SOLID
  5
8CF
  8
0
  6
CONTINUOUS
 62
     0
 10
0.666666666665568
 20
0.0000000000000004
 30
0.0
 11
0.9999999999983524
 21
-0.267949192430676
 31
0.0
 12
0.9999999999983517
 22
0.2679491924306774
 32
0.0
 13
0.9999999999983517
 23
0.2679491924306774
 33
0.0
210
0.0
220
0.0
230
-1.0
  0
ENDBLK
  5
8D1
  8
0
  0
BLOCK
  8
0
  2
*D4
 70
     1
 10
0.0
 20
0.0
 30
0.0
  3
*D4
  1

  0
LINE
  5
A21
  8
1外形線
 62
     0
 10
111.7780809673521958
 20
-755.1969241184175416
 30
0.0
 11
111.7780809673521958
 21
-730.4820707763809651
 31
0.0
  0
LINE
  5
A22
  8
1外形線
 62
     0
 10
148.7780809673517979
 20
-755.1969241184184511
 30
0.0
 11
148.7780809673517979
 21
-730.4820707763809651
 31
0.0
  0
LINE
  5
A23
  8
1外形線
 62
     0
 10
113.5780809673521929
 20
-731.4820707763810788
 30
0.0
 11
146.9780809673517865
 21
-731.4820707763810788
 31
0.0
  0
INSERT
  5
A24
  8
1外形線
 62
     0
  2
2
 10
111.7780809673521958
 20
-731.4820707763810788
 30
0.0
 41
1.8
 42
1.8
 43
1.8
 50
180.0
  0
INSERT
  5
A25
  8
1外形線
 62
     0
  2
2
 10
148.7780809673517979
 20
-731.4820707763810788
 30
0.0
 41
1.8
 42
1.8
 43
1.8
  0
TEXT
  5
A26
  8
1外形線
 62
     0
 10
128.1947476340185972
 20
-730.9820707763810788
 30
0.0
 40
2.5
  1
37
  0
POINT
  5
A27
  8
DEFPOINTS
 62
     0
 10
111.7780809673521958
 20
-756.1969241184175416
 30
0.0
  0
POINT
  5
A28
  8
DEFPOINTS
 62
     0
 10
148.7780809673517979
 20
-756.1969241184184511
 30
0.0
  0
POINT
  5
A29
  8
DEFPOINTS
 62
     0
 10
148.7780809673517979
 20
-731.4820707763810788
 30
0.0
  0
ENDBLK
  5
A2B
  8
0
  0
BLOCK
  8
0
  2
*D5
 70
     1
 10
0.0
 20
0.0
 30
0.0
  3
*D5
  1

  0
LINE
  5
A2E
  8
1外形線
 62
     0
 10
27.3929471699815394
 20
-815.9587426035360522
 30
0.0
 11
27.3929471699815394
 21
-771.5950377357359002
 31
0.0
  0
LINE
  5
A2F
  8
1外形線
 62
     0
 10
101.392947169980701
 20
-815.9587426035376438
 30
0.0
 11
101.392947169980701
 21
-771.5950377357359002
 31
0.0
  0
LINE
  5
A30
  8
1外形線
 62
     0
 10
29.1929471699815402
 20
-772.5950377357356729
 30
0.0
 11
99.5929471699808033
 21
-772.5950377357356729
 31
0.0
  0
INSERT
  5
A31
  8
1外形線
 62
     0
  2
2
 10
27.3929471699815394
 20
-772.5950377357356729
 30
0.0
 41
1.8
 42
1.8
 43
1.8
 50
180.0
  0
INSERT
  5
A32
  8
1外形線
 62
     0
  2
2
 10
101.392947169980701
 20
-772.5950377357356729
 30
0.0
 41
1.8
 42
1.8
 43
1.8
  0
TEXT
  5
A33
  8
1外形線
 62
     0
 10
62.3096138366478414
 20
-772.0950377357357866
 30
0.0
 40
2.5
  1
74
  0
POINT
  5
A34
  8
DEFPOINTS
 62
     0
 10
27.3929471699815394
 20
-816.9587426035359385
 30
0.0
  0
POINT
  5
A35
  8
DEFPOINTS
 62
     0
 10
101.392947169980701
 20
-816.9587426035374165
 30
0.0
  0
POINT
  5
A36
  8
DEFPOINTS
 62
     0
 10
101.392947169980701
 20
-772.5950377357356729
 30
0.0
  0
ENDBLK
  5
A38
  8
0
  0
BLOCK
  8
0
  2
*D6
 70
     1
 10
0.0
 20
0.0
 30
0.0
  3
*D6
  1

  0
LINE
  5
A3B
  8
1外形線
 62
     0
 10
115.3929471699808005
 20
-869.8748223866379021
 30
0.0
 11
148.2211465333249976
 21
-869.8748223866379021
 31
0.0
  0
LINE
  5
A3C
  8
1外形線
 62
     0
 10
79.6391584212163508
 20
-807.2748223866375383
 30
0.0
 11
148.2211465333249976
 21
-807.2748223866375383
 31
0.0
  0
LINE
  5
A3D
  8
1外形線
 62
     0
 10
147.2211465333249976
 20
-868.0748223866379476
 30
0.0
 11
147.2211465333249976
 21
-809.0748223866374929
 31
0.0
  0
INSERT
  5
A3E
  8
1外形線
 62
     0
  2
2
 10
147.2211465333249976
 20
-869.8748223866379021
 30
0.0
 41
1.8
 42
1.8
 43
1.8
 50
270.0
  0
INSERT
  5
A3F
  8
1外形線
 62
     0
  2
2
 10
147.2211465333249976
 20
-807.2748223866375383
 30
0.0
 41
1.8
 42
1.8
 43
1.8
 50
90.0
  0
TEXT
  5
A40
  8
1外形線
 62
     0
 10
146.7211465333251112
 20
-842.3248223866377202
 30
0.0
 40
2.5
  1
62.6
 50
90.0
  0
POINT
  5
A41
  8
DEFPOINTS
 62
     0
 10
114.3929471699808005
 20
-869.8748223866379021
 30
0.0
  0
POINT
  5
A42
  8
DEFPOINTS
 62
     0
 10
78.6391584212163508
 20
-807.2748223866375383
 30
0.0
  0
POINT
  5
A43
  8
DEFPOINTS
 62
     0
 10
147.2211465333249976
 20
-807.2748223866375383
 30
0.0
  0
ENDBLK
  5
A45
  8
0
  0
BLOCK
  8
0
  2
*D7
 70
     1
 10
0.0
 20
0.0
 30
0.0
  3
*D7
  1

  0
LINE
  5
A53
  8
1外形線
 62
     0
 10
49.146735918744973
 20
-807.3748223866379021
 30
0.0
 11
2.724937064820101
 21
-807.3748223866379021
 31
0.0
  0
LINE
  5
A54
  8
1外形線
 62
     0
 10
13.3929471699815306
 20
-869.8748223866379021
 30
0.0
 11
2.7249370648200881
 21
-869.8748223866379021
 31
0.0
  0
LINE
  5
A55
  8
1外形線
 62
     0
 10
3.724937064820101
 20
-809.1748223866376293
 30
0.0
 11
3.7249370648200881
 21
-868.0748223866379476
 31
0.0
  0
INSERT
  5
A56
  8
1外形線
 62
     0
  2
2
 10
3.7249370648201028
 20
-807.3748223866379021
 30
0.0
 41
1.8
 42
1.8
 43
1.8
 50
90.0
  0
INSERT
  5
A57
  8
1外形線
 62
     0
  2
2
 10
3.7249370648200881
 20
-869.8748223866379021
 30
0.0
 41
1.8
 42
1.8
 43
1.8
 50
270.0
  0
TEXT
  5
A58
  8
1外形線
 62
     0
 10
3.2249370648202289
 20
-842.3748223866374474
 30
0.0
 40
2.5
  1
62.5
 50
90.0
  0
POINT
  5
A59
  8
DEFPOINTS
 62
     0
 10
50.1467359187449802
 20
-807.3748223866379021
 30
0.0
  0
POINT
  5
A5A
  8
DEFPOINTS
 62
     0
 10
14.3929471699815394
 20
-869.8748223866379021
 30
0.0
  0
POINT
  5
A5B
  8
DEFPOINTS
 62
     0
 10
3.7249370648200881
 20
-869.8748223866379021
 30
0.0
  0
ENDBLK
  5
A52
  8
0
  0
BLOCK
  8
0
  2
*D8
 70
     1
 10
0.0
 20
0.0
 30
0.0
  3
*D8
  1

  0
LINE
  5
A5E
  8
1外形線
 62
     0
 10
14.3929471699815394
 20
-870.8748223866379021
 30
0.0
 11
14.3929471699815394
 21
-882.6620262023974419
 31
0.0
  0
LINE
  5
A5F
  8
1外形線
 62
     0
 10
114.3929471699808005
 20
-870.8748223866379021
 30
0.0
 11
114.3929471699808005
 21
-882.6620262023974419
 31
0.0
  0
LINE
  5
A60
  8
1外形線
 62
     0
 10
16.1929471699815402
 20
-881.6620262023969872
 30
0.0
 11
112.5929471699808033
 21
-881.6620262023969872
 31
0.0
  0
INSERT
  5
A61
  8
1外形線
 62
     0
  2
2
 10
14.3929471699815394
 20
-881.6620262023969872
 30
0.0
 41
1.8
 42
1.8
 43
1.8
 50
180.0
  0
INSERT
  5
A62
  8
1外形線
 62
     0
  2
2
 10
114.3929471699808005
 20
-881.6620262023969872
 30
0.0
 41
1.8
 42
1.8
 43
1.8
  0
TEXT
  5
A63
  8
1外形線
 62
     0
 10
61.8929471699811771
 20
-881.1620262023973282
 30
0.0
 40
2.5
  1
100
  0
POINT
  5
A64
  8
DEFPOINTS
 62
     0
 10
14.3929471699815394
 20
-869.8748223866379021
 30
0.0
  0
POINT
  5
A65
  8
DEFPOINTS
 62
     0
 10
114.3929471699808005
 20
-869.8748223866379021
 30
0.0
  0
POINT
  5
A66
  8
DEFPOINTS
 62
     0
 10
114.3929471699808005
 20
-881.6620262023969872
 30
0.0
  0
ENDBLK
  5
A68
  8
0
  0
BLOCK
  8
0
  2
*D9
 70
     1
 10
0.0
 20
0.0
 30
0.0
  3
*D9
  1

  0
LINE
  5
A6B
  8
1外形線
 62
     0
 10
51.3929471699811771
 20
-531.2177338896287893
 30
0.0
 11
-69.0577877137334042
 21
-531.2177338896287893
 31
0.0
  0
LINE
  5
A6C
  8
1外形線
 62
     0
 10
27.1929471699817498
 20
-719.2177338896286756
 30
0.0
 11
-69.0577877137334042
 21
-719.2177338896286756
 31
0.0
  0
LINE
  5
A6D
  8
1外形線
 62
     0
 10
-68.05778771373339
 20
-533.0177338896287438
 30
0.0
 11
-68.0577877137334184
 21
-717.4177338896289484
 31
0.0
  0
INSERT
  5
A6E
  8
1外形線
 62
     0
  2
2
 10
-68.05778771373339
 20
-531.2177338896287893
 30
0.0
 41
1.8
 42
1.8
 43
1.8
 50
90.0
  0
INSERT
  5
A6F
  8
1外形線
 62
     0
  2
2
 10
-68.0577877137334184
 20
-719.2177338896286756
 30
0.0
 41
1.8
 42
1.8
 43
1.8
 50
270.0
  0
TEXT
  5
A70
  8
1外形線
 62
     0
 10
-68.5577877137333189
 20
-628.134400556295418
 30
0.0
 40
2.5
  1
188
 50
90.0
  0
POINT
  5
A71
  8
DEFPOINTS
 62
     0
 10
52.3929471699811629
 20
-531.2177338896287893
 30
0.0
  0
POINT
  5
A72
  8
DEFPOINTS
 62
     0
 10
28.1929471699817498
 20
-719.2177338896286756
 30
0.0
  0
POINT
  5
A73
  8
DEFPOINTS
 62
     0
 10
-68.0577877137334184
 20
-719.2177338896286756
 30
0.0
  0
ENDBLK
  5
A75
  8
0
  0
BLOCK
  8
0
  2
*D10
 70
     1
 10
0.0
 20
0.0
 30
0.0
  3
*D10
  1

  0
LINE
  5
A78
  8
1外形線
 62
     0
 10
244.9108562718074893
 20
-582.7177338896276524
 30
0.0
 11
244.9108562718074893
 21
-493.8087754664849172
 31
0.0
  0
LINE
  5
A79
  8
1外形線
 62
     0
 10
321.9108562718079156
 20
-530.2177338896279934
 30
0.0
 11
321.9108562718079156
 21
-493.8087754664849172
 31
0.0
  0
LINE
  5
A7A
  8
1外形線
 62
     0
 10
246.7108562718075007
 20
-494.8087754664848035
 30
0.0
 11
320.1108562718077906
 21
-494.8087754664848035
 31
0.0
  0
INSERT
  5
A7B
  8
1外形線
 62
     0
  2
2
 10
244.9108562718074893
 20
-494.8087754664848035
 30
0.0
 41
1.8
 42
1.8
 43
1.8
 50
180.0
  0
INSERT
  5
A7C
  8
1外形線
 62
     0
  2
2
 10
321.9108562718079156
 20
-494.8087754664848035
 30
0.0
 41
1.8
 42
1.8
 43
1.8
  0
TEXT
  5
A7D
  8
1外形線
 62
     0
 10
281.327522938474317
 20
-494.3087754664849172
 30
0.0
 40
2.5
  1
77
  0
POINT
  5
A7E
  8
DEFPOINTS
 62
     0
 10
244.9108562718074893
 20
-583.7177338896276524
 30
0.0
  0
POINT
  5
A7F
  8
DEFPOINTS
 62
     0
 10
321.9108562718079156
 20
-531.2177338896279934
 30
0.0
  0
POINT
  5
A80
  8
DEFPOINTS
 62
     0
 10
321.9108562718079156
 20
-494.8087754664848035
 30
0.0
  0
ENDBLK
  5
A82
  8
0
  0
BLOCK
  8
0
  2
*D11
 70
     1
 10
0.0
 20
0.0
 30
0.0
  3
*D11
  1

  0
LINE
  5
A85
  8
1外形線
 62
     0
 10
496.8901370292073807
 20
-719.2177338896286756
 30
0.0
 11
629.9059954081432124
 21
-719.2177338896286756
 31
0.0
  0
LINE
  5
A86
  8
1外形線
 62
     0
 10
496.8901370292073807
 20
-651.7177338896287893
 30
0.0
 11
629.9059954081432124
 21
-651.7177338896287893
 31
0.0
  0
LINE
  5
A87
  8
1外形線
 62
     0
 10
628.9059954081432124
 20
-717.4177338896289484
 30
0.0
 11
628.9059954081432124
 21
-653.5177338896286301
 31
0.0
  0
INSERT
  5
A88
  8
1外形線
 62
     0
  2
2
 10
628.9059954081432124
 20
-719.2177338896286756
 30
0.0
 41
1.8
 42
1.8
 43
1.8
 50
270.0
  0
INSERT
  5
A89
  8
1外形線
 62
     0
  2
2
 10
628.9059954081432124
 20
-651.7177338896287893
 30
0.0
 41
1.8
 42
1.8
 43
1.8
 50
90.0
  0
TEXT
  5
A8A
  8
1外形線
 62
     0
 10
628.4059954081434398
 20
-689.2177338896287893
 30
0.0
 40
2.5
  1
67.5
 50
90.0
  0
POINT
  5
A8B
  8
DEFPOINTS
 62
     0
 10
495.8901370292073807
 20
-719.2177338896286756
 30
0.0
  0
POINT
  5
A8C
  8
DEFPOINTS
 62
     0
 10
495.8901370292073807
 20
-651.7177338896287893
 30
0.0
  0
POINT
  5
A8D
  8
DEFPOINTS
 62
     0
 10
628.9059954081432124
 20
-651.7177338896287893
 30
0.0
  0
ENDBLK
  5
A8F
  8
0
  0
BLOCK
  8
0
  2
*D12
 70
     1
 10
0.0
 20
0.0
 30
0.0
  3
*D12
  1

  0
LINE
  5
A92
  8
1外形線
 62
     0
 10
496.8901370292073807
 20
-651.7177338896287893
 30
0.0
 11
613.0152216477258662
 21
-651.7177338896287893
 31
0.0
  0
LINE
  5
A93
  8
1外形線
 62
     0
 10
508.890137029206528
 20
-555.7177338896279934
 30
0.0
 11
613.0152216477258662
 21
-555.7177338896279934
 31
0.0
  0
LINE
  5
A94
  8
1外形線
 62
     0
 10
612.0152216477260936
 20
-649.917733889628721
 30
0.0
 11
612.0152216477260936
 21
-557.517733889627948
 31
0.0
  0
INSERT
  5
A95
  8
1外形線
 62
     0
  2
2
 10
612.0152216477260936
 20
-651.7177338896287893
 30
0.0
 41
1.8
 42
1.8
 43
1.8
 50
270.0
  0
INSERT
  5
A96
  8
1外形線
 62
     0
  2
2
 10
612.0152216477260936
 20
-555.7177338896279934
 30
0.0
 41
1.8
 42
1.8
 43
1.8
 50
90.0
  0
TEXT
  5
A97
  8
1外形線
 62
     0
 10
611.5152216477262073
 20
-605.8010672229617057
 30
0.0
 40
2.5
  1
96
 50
90.0
  0
POINT
  5
A98
  8
DEFPOINTS
 62
     0
 10
495.8901370292073807
 20
-651.7177338896287893
 30
0.0
  0
POINT
  5
A99
  8
DEFPOINTS
 62
     0
 10
507.8901370292064144
 20
-555.7177338896279934
 30
0.0
  0
POINT
  5
A9A
  8
DEFPOINTS
 62
     0
 10
612.0152216477260936
 20
-555.7177338896279934
 30
0.0
  0
ENDBLK
  5
A9C
  8
0
  0
BLOCK
  8
0
  2
*D13
 70
     1
 10
0.0
 20
0.0
 30
0.0
  3
*D13
  1

  0
LINE
  5
A9F
  8
1外形線
 62
     0
 10
460.8901370292068123
 20
-579.7177338896279934
 30
0.0
 11
460.8901370292068123
 21
-599.0290601589392736
 31
0.0
  0
LINE
  5
AA0
  8
1外形線
 62
     0
 10
530.890137029207267
 20
-579.7177338896279934
 30
0.0
 11
530.890137029207267
 21
-599.0290601589392736
 31
0.0
  0
LINE
  5
AA1
  8
1外形線
 62
     0
 10
462.6901370292068236
 20
-598.0290601589391599
 30
0.0
 11
529.0901370292074262
 21
-598.0290601589391599
 31
0.0
  0
INSERT
  5
AA2
  8
1外形線
 62
     0
  2
2
 10
460.8901370292068123
 20
-598.0290601589391599
 30
0.0
 41
1.8
 42
1.8
 43
1.8
 50
180.0
  0
INSERT
  5
AA3
  8
1外形線
 62
     0
  2
2
 10
530.890137029207267
 20
-598.0290601589391599
 30
0.0
 41
1.8
 42
1.8
 43
1.8
  0
TEXT
  5
AA4
  8
1外形線
 62
     0
 10
494.0151370292070965
 20
-597.5290601589391599
 30
0.0
 40
2.5
  1
70
  0
POINT
  5
AA5
  8
DEFPOINTS
 62
     0
 10
460.8901370292068123
 20
-578.7177338896277661
 30
0.0
  0
POINT
  5
AA6
  8
DEFPOINTS
 62
     0
 10
530.890137029207267
 20
-578.7177338896277661
 30
0.0
  0
POINT
  5
AA7
  8
DEFPOINTS
 62
     0
 10
530.890137029207267
 20
-598.0290601589391599
 30
0.0
  0
ENDBLK
  5
AA9
  8
0
  0
BLOCK
  8
0
  2
*D14
 70
     1
 10
0.0
 20
0.0
 30
0.0
  3
*D14
  1

  0
LINE
  5
AAC
  8
1外形線
 62
     0
 10
115.3929471699808005
 20
-869.8748223866379021
 30
0.0
 11
157.5273805817058985
 21
-869.8748223866379021
 31
0.0
  0
LINE
  5
AAD
  8
1外形線
 62
     0
 10
79.6391584212163508
 20
-792.8748223866379021
 30
0.0
 11
157.5273805817058985
 21
-792.8748223866379021
 31
0.0
  0
LINE
  5
AAE
  8
1外形線
 62
     0
 10
156.5273805817058985
 20
-868.0748223866379476
 30
0.0
 11
156.5273805817058985
 21
-794.674822386637743
 31
0.0
  0
INSERT
  5
AAF
  8
1外形線
 62
     0
  2
2
 10
156.5273805817058985
 20
-869.8748223866379021
 30
0.0
 41
1.8
 42
1.8
 43
1.8
 50
270.0
  0
INSERT
  5
AB0
  8
1外形線
 62
     0
  2
2
 10
156.5273805817058985
 20
-792.8748223866379021
 30
0.0
 41
1.8
 42
1.8
 43
1.8
 50
90.0
  0
TEXT
  5
AB1
  8
1外形線
 62
     0
 10
156.0273805817060975
 20
-833.458155719971046
 30
0.0
 40
2.5
  1
77
 50
90.0
  0
POINT
  5
AB2
  8
DEFPOINTS
 62
     0
 10
114.3929471699808005
 20
-869.8748223866379021
 30
0.0
  0
POINT
  5
AB3
  8
DEFPOINTS
 62
     0
 10
78.6391584212163508
 20
-792.8748223866379021
 30
0.0
  0
POINT
  5
AB4
  8
DEFPOINTS
 62
     0
 10
156.5273805817058985
 20
-792.8748223866379021
 30
0.0
  0
ENDBLK
  5
AB6
  8
0
  0
BLOCK
  8
0
  2
*D15
 70
     1
 10
0.0
 20
0.0
 30
0.0
  3
*D15
  1

  0
LINE
  5
ABF
  8
1外形線
 62
     0
 10
45.7812918521672501
 20
-849.1618449858073063
 30
0.0
 11
32.3669743495534519
 21
-857.497358418994736
 31
0.0
  0
TEXT
  5
AC0
  8
1外形線
 62
     0
 10
36.5989711990127873
 20
-854.2789718576614177
 30
0.0
 40
2.5
  1
R24.2
 50
31.8563758429385011
  0
INSERT
  5
AC1
  8
1外形線
 62
     0
  2
2
 10
30.8381015336262791
 20
-858.4473836358805556
 30
0.0
 41
1.8
 42
1.8
 43
1.8
 50
211.8563758429384905
  0
POINT
  5
AC2
  8
DEFPOINTS
 62
     0
 10
30.8381015336262791
 20
-858.4473836358805556
 30
0.0
  0
POINT
  5
AC3
  8
DEFPOINTS
 62
     0
 10
51.3929471699804594
 20
-845.6748223866378567
 30
0.0
  0
ENDBLK
  5
AC5
  8
0
  0
BLOCK
  8
0
  2
*D16
 70
     1
 10
0.0
 20
0.0
 30
0.0
  3
*D16
  1

  0
LINE
  5
AD0
  8
1外形線
 62
     0
 10
6.3786820960899027
 20
-779.7208311106735437
 30
0.0
 11
31.8276477860628688
 21
-801.028309781258713
 31
0.0
  0
TEXT
  5
AD1
  8
1外形線
 62
     0
 10
7.0830312325880547
 20
-779.658442859260731
 30
0.0
 40
2.5
  1
R26
 50
320.0618063509131161
  0
LINE
  5
AD2
  8
1外形線
 62
     0
 10
53.1429471699804594
 20
-818.8748223866381295
 30
0.0
 11
33.2077750843021064
 21
-802.1838393744127416
 31
0.0
  0
INSERT
  5
AD3
  8
1外形線
 62
     0
  2
2
 10
33.2077750843021064
 20
-802.1838393744127416
 30
0.0
 41
1.8
 42
1.8
 43
1.8
 50
320.0618063509131161
  0
POINT
  5
AD4
  8
DEFPOINTS
 62
     0
 10
33.2077750843021064
 20
-802.1838393744127416
 30
0.0
  0
POINT
  5
AD5
  8
DEFPOINTS
 62
     0
 10
53.1429471699804594
 20
-818.8748223866381295
 30
0.0
  0
ENDBLK
  5
AD7
  8
0
  0
BLOCK
  8
0
  2
*D17
 70
     1
 10
0.0
 20
0.0
 30
0.0
  3
*D17
  1

  0
LINE
  5
AE2
  8
1外形線
 62
     0
 10
238.098258148338914
 20
-529.8741004149014771
 30
0.0
 11
256.9631349672733904
 21
-557.4666520076409597
 31
0.0
  0
TEXT
  5
AE3
  8
1外形線
 62
     0
 10
238.7932078839760948
 20
-530.0046563988237267
 30
0.0
 40
2.5
  1
R30
 50
304.360202932440302
  0
LINE
  5
AE4
  8
1外形線
 62
     0
 10
274.9108562718071198
 20
-583.7177338896283345
 30
0.0
 11
257.9790437203602096
 21
-558.952562302847582
 31
0.0
  0
INSERT
  5
AE5
  8
1外形線
 62
     0
  2
2
 10
257.9790437203602096
 20
-558.952562302847582
 30
0.0
 41
1.8
 42
1.8
 43
1.8
 50
304.360202932440302
  0
POINT
  5
AE6
  8
DEFPOINTS
 62
     0
 10
257.9790437203602096
 20
-558.952562302847582
 30
0.0
  0
POINT
  5
AE7
  8
DEFPOINTS
 62
     0
 10
274.9108562718071198
 20
-583.7177338896283345
 30
0.0
  0
ENDBLK
  5
AE9
  8
0
  0
BLOCK
  8
0
  2
*D18
 70
     1
 10
0.0
 20
0.0
 30
0.0
  3
*D18
  1

  0
LINE
  5
AEE
  8
1外形線
 62
     0
 10
321.9108562718079156
 20
-720.2177338896289029
 30
0.0
 11
321.9108562718079156
 21
-747.775493573164681
 31
0.0
  0
LINE
  5
AEF
  8
1外形線
 62
     0
 10
259.3108562718064718
 20
-719.2177338896286756
 30
0.0
 11
259.3108562718064718
 21
-747.775493573164681
 31
0.0
  0
LINE
  5
AF0
  8
1外形線
 62
     0
 10
320.1108562718077906
 20
-746.775493573164681
 30
0.0
 11
261.1108562718064263
 21
-746.775493573164681
 31
0.0
  0
INSERT
  5
AF1
  8
1外形線
 62
     0
  2
2
 10
321.9108562718079156
 20
-746.775493573164681
 30
0.0
 41
1.8
 42
1.8
 43
1.8
  0
INSERT
  5
AF2
  8
1外形線
 62
     0
  2
2
 10
259.3108562718064718
 20
-746.775493573164681
 30
0.0
 41
1.8
 42
1.8
 43
1.8
 50
180.0
  0
TEXT
  5
AF3
  8
1外形線
 62
     0
 10
286.8608562718072221
 20
-746.2754935731647947
 30
0.0
 40
2.5
  1
62.6
  0
POINT
  5
AF4
  8
DEFPOINTS
 62
     0
 10
321.9108562718079156
 20
-719.2177338896286756
 30
0.0
  0
POINT
  5
AF5
  8
DEFPOINTS
 62
     0
 10
259.3108562718064718
 20
-718.2177338896289029
 30
0.0
  0
POINT
  5
AF6
  8
DEFPOINTS
 62
     0
 10
259.3108562718064718
 20
-746.775493573164681
 30
0.0
  0
ENDBLK
  5
AF8
  8
0
  0
BLOCK
  8
0
  2
*D19
 70
     1
 10
0.0
 20
0.0
 30
0.0
  3
*D19
  1

  0
LINE
  5
AFB
  8
1外形線
 62
     0
 10
244.1448373469854118
 20
-695.7369717760954018
 30
0.0
 11
257.7108562718074722
 21
-695.7369717760956291
 31
0.0
  0
TEXT
  5
AFC
  8
1外形線
 62
     0
 10
244.6448373469854118
 20
-695.2369717760951744
 30
0.0
 40
2.5
  1
R15
 50
359.9999999999986926
  0
INSERT
  5
AFD
  8
1外形線
 62
     0
  2
2
 10
259.5108562718074836
 20
-695.7369717760958565
 30
0.0
 41
1.8
 42
1.8
 43
1.8
 50
359.9999999999986926
  0
POINT
  5
AFE
  8
DEFPOINTS
 62
     0
 10
259.5108562718074836
 20
-695.7369717760958565
 30
0.0
  0
POINT
  5
AFF
  8
DEFPOINTS
 62
     0
 10
244.510856271807512
 20
-695.7369717760954018
 30
0.0
  0
ENDBLK
  5
B01
  8
0
  0
BLOCK
  8
0
  2
*D20
 70
     1
 10
0.0
 20
0.0
 30
0.0
  3
*D20
  1

  0
LINE
  5
B05
  8
1外形線
 62
     0
 10
322.9108562718079156
 20
-531.2177338896279934
 30
0.0
 11
390.896944018516308
 21
-531.2177338896279934
 31
0.0
  0
LINE
  5
B06
  8
1外形線
 62
     0
 10
322.9108562718079156
 20
-719.2177338896286756
 30
0.0
 11
390.8969440185161943
 21
-719.2177338896286756
 31
0.0
  0
LINE
  5
B07
  8
1外形線
 62
     0
 10
389.896944018516308
 20
-533.017733889627948
 30
0.0
 11
389.8969440185160806
 21
-717.4177338896289484
 31
0.0
  0
INSERT
  5
B08
  8
1外形線
 62
     0
  2
2
 10
389.896944018516308
 20
-531.2177338896279934
 30
0.0
 41
1.8
 42
1.8
 43
1.8
 50
90.0
  0
INSERT
  5
B09
  8
1外形線
 62
     0
  2
2
 10
389.8969440185160806
 20
-719.2177338896286756
 30
0.0
 41
1.8
 42
1.8
 43
1.8
 50
270.0
  0
TEXT
  5
B0A
  8
1外形線
 62
     0
 10
389.396944018516308
 20
-628.1344005562948496
 30
0.0
 40
2.5
  1
188
 50
90.0
  0
POINT
  5
B0B
  8
DEFPOINTS
 62
     0
 10
321.9108562718079156
 20
-531.2177338896279934
 30
0.0
  0
POINT
  5
B0C
  8
DEFPOINTS
 62
     0
 10
321.9108562718079156
 20
-719.2177338896286756
 30
0.0
  0
POINT
  5
B0D
  8
DEFPOINTS
 62
     0
 10
389.8969440185160806
 20
-719.2177338896286756
 30
0.0
  0
ENDBLK
  5
B0F
  8
0
  0
BLOCK
  8
0
  2
*D21
 70
     1
 10
0.0
 20
0.0
 30
0.0
  3
*D21
  1

  0
LINE
  5
B1C
  8
1外形線
 62
     0
 10
5.1153439637434399
 20
-527.7889465684786501
 30
0.0
 11
34.2669621413245906
 21
-559.3084911501739498
 31
0.0
  0
TEXT
  5
B1D
  8
1外形線
 62
     0
 10
5.8219128084936651
 20
-527.8165231460110363
 30
0.0
 40
2.5
  1
R26
 50
312.7649453507709723
  0
LINE
  5
B1E
  8
1外形線
 62
     0
 10
53.1429471699808573
 20
-579.7177338896281071
 30
0.0
 11
35.4891482223167074
 21
-560.6299529102823271
 31
0.0
  0
INSERT
  5
B1F
  8
1外形線
 62
     0
  2
2
 10
35.4891482223167074
 20
-560.6299529102823271
 30
0.0
 41
1.8
 42
1.8
 43
1.8
 50
312.7649453507709723
  0
POINT
  5
B20
  8
DEFPOINTS
 62
     0
 10
35.4891482223167074
 20
-560.6299529102823271
 30
0.0
  0
POINT
  5
B21
  8
DEFPOINTS
 62
     0
 10
53.1429471699808573
 20
-579.7177338896281071
 30
0.0
  0
ENDBLK
  5
B23
  8
0
  0
BLOCK
  8
0
  2
Y2
 70
     0
 10
0.0
 20
0.0
 30
0.0
  3
Y2
  1

  0
SOLID
  5
BDB
  8
0
  6
BYBLOCK
 62
     0
 10
-1.811110924292108
 20
0.485285709567151
 30
0.0
 11
-1.811110924292108
 21
-0.4852857095673784
 31
0.0
 12
-0.0000000000000568
 22
-0.0000000000000142
 32
0.0
 13
-0.0000000000000568
 23
-0.0000000000000142
 33
0.0
  0
ENDBLK
  5
BDC
  8
0
  0
BLOCK
  8
0
  2
1
 70
     0
 10
0.0
 20
0.0
 30
0.0
  3
1
  1

  0
SOLID
  5
BDF
  8
0
  6
BYBLOCK
 62
     0
 10
-1.811110924292052
 20
0.4852857095671653
 30
0.0
 11
-1.811110924292052
 21
-0.4852857095673642
 31
0.0
 12
0.0
 22
0.0
 32
0.0
 13
0.0
 23
0.0
 33
0.0
  0
ENDBLK
  5
BE0
  8
0
  0
BLOCK
  8
0
  2
*D24
 70
     1
 10
0.0
 20
0.0
 30
0.0
  3
*D24
  1

  0
LINE
  5
BE3
  8
2寸法線
 62
     0
 10
552.2084162668696763
 20
-1437.1157413676580745
 30
0.0
 11
552.2084162668696763
 21
-1398.7076475612529975
 31
0.0
  0
LINE
  5
BE4
  8
2寸法線
 62
     0
 10
612.20841626686979
 20
-1437.1157413676580745
 30
0.0
 11
612.20841626686979
 21
-1398.7076475612529975
 31
0.0
  0
LINE
  5
BE5
  8
2寸法線
 62
     0
 10
554.20841626686979
 20
-1399.7076475612529975
 30
0.0
 11
610.2084162668696763
 21
-1399.7076475612529975
 31
0.0
  0
INSERT
  5
BE6
  8
2寸法線
 62
     0
  2
Y2
 10
552.2084162668696763
 20
-1399.7076475612529975
 30
0.0
 41
2.0
 42
2.0
 43
2.0
 50
180.0
  0
INSERT
  5
BE7
  8
2寸法線
 62
     0
  2
Y2
 10
612.20841626686979
 20
-1399.7076475612529975
 30
0.0
 41
2.0
 42
2.0
 43
2.0
  0
INSERT
  5
BE8
  8
1外形線
  2
*U78
 10
0.0
 20
0.0
 30
0.0
  0
POINT
  5
BE9
  8
DEFPOINTS
 62
     0
 10
552.2084162668696763
 20
-1438.1157413676580745
 30
0.0
  0
POINT
  5
BEA
  8
DEFPOINTS
 62
     0
 10
612.20841626686979
 20
-1438.1157413676580745
 30
0.0
  0
POINT
  5
BEB
  8
DEFPOINTS
 62
     0
 10
612.20841626686979
 20
-1399.7076475612529975
 30
0.0
  0
ENDBLK
  5
BEC
  8
0
  0
BLOCK
  8
0
  2
*D25
 70
     1
 10
0.0
 20
0.0
 30
0.0
  3
*D25
  1

  0
LINE
  5
BEF
  8
2寸法線
 62
     0
 10
592.2084162668700174
 20
-1417.1157413676580745
 30
0.0
 11
633.2498006901162171
 21
-1417.1157413676580745
 31
0.0
  0
LINE
  5
BF0
  8
2寸法線
 62
     0
 10
606.2584162668699719
 20
-1521.1157413676580745
 30
0.0
 11
633.2498006901162171
 21
-1521.1157413676580745
 31
0.0
  0
LINE
  5
BF1
  8
2寸法線
 62
     0
 10
632.2498006901162171
 20
-1419.115741367658984
 30
0.0
 11
632.2498006901162171
 21
-1519.115741367658984
 31
0.0
  0
INSERT
  5
BF2
  8
2寸法線
 62
     0
  2
Y2
 10
632.2498006901162171
 20
-1417.1157413676580745
 30
0.0
 41
2.0
 42
2.0
 43
2.0
 50
90.0
  0
INSERT
  5
BF3
  8
2寸法線
 62
     0
  2
Y2
 10
632.2498006901162171
 20
-1521.1157413676580745
 30
0.0
 41
2.0
 42
2.0
 43
2.0
 50
270.0
  0
INSERT
  5
BF4
  8
1外形線
  2
*U79
 10
0.0
 20
0.0
 30
0.0
  0
POINT
  5
BF5
  8
DEFPOINTS
 62
     0
 10
591.2084162668699037
 20
-1417.1157413676580745
 30
0.0
  0
POINT
  5
BF6
  8
DEFPOINTS
 62
     0
 10
605.2584162668700856
 20
-1521.1157413676580745
 30
0.0
  0
POINT
  5
BF7
  8
DEFPOINTS
 62
     0
 10
632.2498006901162171
 20
-1521.1157413676580745
 30
0.0
  0
ENDBLK
  5
BF8
  8
0
  0
BLOCK
  8
0
  2
*D26
 70
     1
 10
0.0
 20
0.0
 30
0.0
  3
*D26
  1

  0
LINE
  5
BFB
  8
2寸法線
 62
     0
 10
678.1938113250671449
 20
-1439.5502224984109034
 30
0.0
 11
678.1938113250671449
 21
-1398.7076475612529975
 31
0.0
  0
LINE
  5
BFC
  8
2寸法線
 62
     0
 10
720.1938113250671449
 20
-1416.1157413676580745
 30
0.0
 11
720.1938113250671449
 21
-1398.7076475612529975
 31
0.0
  0
LINE
  5
BFD
  8
2寸法線
 62
     0
 10
680.1938113250671449
 20
-1399.7076475612529975
 30
0.0
 11
718.1938113250671449
 21
-1399.7076475612529975
 31
0.0
  0
INSERT
  5
BFE
  8
2寸法線
 62
     0
  2
Y2
 10
678.1938113250671449
 20
-1399.7076475612529975
 30
0.0
 41
2.0
 42
2.0
 43
2.0
 50
180.0
  0
INSERT
  5
BFF
  8
2寸法線
 62
     0
  2
Y2
 10
720.1938113250671449
 20
-1399.7076475612529975
 30
0.0
 41
2.0
 42
2.0
 43
2.0
  0
INSERT
  5
C00
  8
1外形線
  2
*U80
 10
0.0
 20
0.0
 30
0.0
  0
POINT
  5
C01
  8
DEFPOINTS
 62
     0
 10
678.1938113250671449
 20
-1440.5502224984109034
 30
0.0
  0
POINT
  5
C02
  8
DEFPOINTS
 62
     0
 10
720.1938113250671449
 20
-1417.1157413676580745
 30
0.0
  0
POINT
  5
C03
  8
DEFPOINTS
 62
     0
 10
720.1938113250671449
 20
-1399.7076475612529975
 30
0.0
  0
ENDBLK
  5
C04
  8
0
  0
BLOCK
  8
0
  2
*D27
 70
     1
 10
0.0
 20
0.0
 30
0.0
  3
*D27
  1

  0
LINE
  5
C07
  8
2寸法線
 62
     0
 10
720.1938113250675997
 20
-1513.6157413676580745
 30
0.0
 11
731.4148859783315402
 21
-1513.6157413676580745
 31
0.0
  0
LINE
  5
C08
  8
2寸法線
 62
     0
 10
720.6938113250675997
 20
-1521.1157413676580745
 30
0.0
 11
731.4148859783315402
 21
-1521.1157413676580745
 31
0.0
  0
LINE
  5
C09
  8
2寸法線
 62
     0
 10
730.4148859783315402
 20
-1515.615741367658984
 30
0.0
 11
730.4148859783315402
 21
-1519.115741367658984
 31
0.0
  0
LINE
  5
C0A
  8
2寸法線
 62
     0
 10
730.4148859783315402
 20
-1521.1157413676580745
 30
0.0
 11
730.4148859783315402
 21
-1533.4600387419009166
 31
0.0
  0
INSERT
  5
C0B
  8
2寸法線
 62
     0
  2
Y2
 10
730.4148859783315402
 20
-1513.6157413676580745
 30
0.0
 41
2.0
 42
2.0
 43
2.0
 50
270.0
  0
LINE
  5
C0C
  8
2寸法線
 62
     0
 10
730.4148859783315402
 20
-1511.6157413676580745
 30
0.0
 11
730.4148859783315402
 21
-1509.615741367658984
 31
0.0
  0
LINE
  5
C0D
  8
2寸法線
 62
     0
 10
730.4148859783315402
 20
-1513.6157413676580745
 30
0.0
 11
730.4148859783315402
 21
-1515.615741367658984
 31
0.0
  0
INSERT
  5
C0E
  8
2寸法線
 62
     0
  2
Y2
 10
730.4148859783315402
 20
-1521.1157413676580745
 30
0.0
 41
2.0
 42
2.0
 43
2.0
 50
90.0
  0
LINE
  5
C0F
  8
2寸法線
 62
     0
 10
730.4148859783315402
 20
-1523.115741367658984
 30
0.0
 11
730.4148859783315402
 21
-1525.115741367658984
 31
0.0
  0
LINE
  5
C10
  8
2寸法線
 62
     0
 10
730.4148859783315402
 20
-1521.1157413676580745
 30
0.0
 11
730.4148859783315402
 21
-1519.115741367658984
 31
0.0
  0
INSERT
  5
C11
  8
1外形線
  2
*U81
 10
0.0
 20
0.0
 30
0.0
  0
POINT
  5
C12
  8
DEFPOINTS
 62
     0
 10
719.193811325067486
 20
-1513.6157413676580745
 30
0.0
  0
POINT
  5
C13
  8
DEFPOINTS
 62
     0
 10
719.693811325067486
 20
-1521.1157413676580745
 30
0.0
  0
POINT
  5
C14
  8
DEFPOINTS
 62
     0
 10
730.4148859783315402
 20
-1521.1157413676580745
 30
0.0
  0
ENDBLK
  5
C15
  8
0
  0
BLOCK
  8
0
  2
*D28
 70
     1
 10
0.0
 20
0.0
 30
0.0
  3
*D28
  1

  0
LINE
  5
C18
  8
2寸法線
 62
     0
 10
793.6213443540789285
 20
-1442.3157413676578926
 30
0.0
 11
793.6213443540789285
 21
-1398.7076475612529975
 31
0.0
  0
LINE
  5
C19
  8
2寸法線
 62
     0
 10
838.5213443540790195
 20
-1442.3157413676578926
 30
0.0
 11
838.5213443540790195
 21
-1398.7076475612529975
 31
0.0
  0
LINE
  5
C1A
  8
2寸法線
 62
     0
 10
795.6213443540789285
 20
-1399.7076475612529975
 30
0.0
 11
836.5213443540790195
 21
-1399.7076475612529975
 31
0.0
  0
INSERT
  5
C1B
  8
2寸法線
 62
     0
  2
Y2
 10
793.6213443540789285
 20
-1399.7076475612529975
 30
0.0
 41
2.0
 42
2.0
 43
2.0
 50
180.0
  0
INSERT
  5
C1C
  8
2寸法線
 62
     0
  2
Y2
 10
838.5213443540790195
 20
-1399.7076475612529975
 30
0.0
 41
2.0
 42
2.0
 43
2.0
  0
INSERT
  5
C1D
  8
1外形線
  2
*U82
 10
0.0
 20
0.0
 30
0.0
  0
POINT
  5
C1E
  8
DEFPOINTS
 62
     0
 10
793.6213443540789285
 20
-1443.3157413676578926
 30
0.0
  0
POINT
  5
C1F
  8
DEFPOINTS
 62
     0
 10
838.5213443540790195
 20
-1443.3157413676578926
 30
0.0
  0
POINT
  5
C20
  8
DEFPOINTS
 62
     0
 10
838.5213443540790195
 20
-1399.7076475612529975
 30
0.0
  0
ENDBLK
  5
C21
  8
0
  0
BLOCK
  8
0
  2
*D29
 70
     1
 10
0.0
 20
0.0
 30
0.0
  3
*D29
  1

  0
LINE
  5
C24
  8
2寸法線
 62
     0
 10
806.1213443540792696
 20
-1429.8157413676590295
 30
0.0
 11
768.0227694191737555
 21
-1429.8157413676590295
 31
0.0
  0
LINE
  5
C25
  8
2寸法線
 62
     0
 10
815.0713443540797698
 20
-1484.8157413676590295
 30
0.0
 11
768.0227694191737555
 21
-1484.8157413676590295
 31
0.0
  0
LINE
  5
C26
  8
2寸法線
 62
     0
 10
769.0227694191737555
 20
-1431.8157413676590295
 30
0.0
 11
769.0227694191737555
 21
-1482.8157413676590295
 31
0.0
  0
INSERT
  5
C27
  8
2寸法線
 62
     0
  2
Y2
 10
769.0227694191737555
 20
-1429.8157413676590295
 30
0.0
 41
2.0
 42
2.0
 43
2.0
 50
90.0
  0
INSERT
  5
C28
  8
2寸法線
 62
     0
  2
Y2
 10
769.0227694191737555
 20
-1484.8157413676590295
 30
0.0
 41
2.0
 42
2.0
 43
2.0
 50
270.0
  0
INSERT
  5
C29
  8
1外形線
  2
*U83
 10
0.0
 20
0.0
 30
0.0
  0
POINT
  5
C2A
  8
DEFPOINTS
 62
     0
 10
807.1213443540792696
 20
-1429.8157413676590295
 30
0.0
  0
POINT
  5
C2B
  8
DEFPOINTS
 62
     0
 10
816.0713443540797698
 20
-1484.8157413676590295
 30
0.0
  0
POINT
  5
C2C
  8
DEFPOINTS
 62
     0
 10
769.0227694191737555
 20
-1484.8157413676590295
 30
0.0
  0
ENDBLK
  5
C2D
  8
0
  0
BLOCK
  8
0
  2
*D30
 70
     1
 10
0.0
 20
0.0
 30
0.0
  3
*D30
  1

  0
LINE
  5
C30
  8
2寸法線
 62
     0
 10
815.0713443540797698
 20
-1484.8157413676590295
 30
0.0
 11
768.0227694191742103
 21
-1484.8157413676590295
 31
0.0
  0
LINE
  5
C31
  8
2寸法線
 62
     0
 10
792.0213443540797016
 20
-1521.1157413676580745
 30
0.0
 11
768.0227694191742103
 21
-1521.1157413676580745
 31
0.0
  0
LINE
  5
C32
  8
2寸法線
 62
     0
 10
769.0227694191742103
 20
-1486.8157413676590295
 30
0.0
 11
769.0227694191742103
 21
-1519.115741367658984
 31
0.0
  0
INSERT
  5
C33
  8
2寸法線
 62
     0
  2
Y2
 10
769.0227694191742103
 20
-1484.8157413676590295
 30
0.0
 41
2.0
 42
2.0
 43
2.0
 50
90.0
  0
INSERT
  5
C34
  8
2寸法線
 62
     0
  2
Y2
 10
769.0227694191742103
 20
-1521.1157413676580745
 30
0.0
 41
2.0
 42
2.0
 43
2.0
 50
270.0
  0
INSERT
  5
C35
  8
1外形線
  2
*U84
 10
0.0
 20
0.0
 30
0.0
  0
POINT
  5
C36
  8
DEFPOINTS
 62
     0
 10
816.0713443540797698
 20
-1484.8157413676590295
 30
0.0
  0
POINT
  5
C37
  8
DEFPOINTS
 62
     0
 10
793.0213443540797016
 20
-1521.1157413676580745
 30
0.0
  0
POINT
  5
C38
  8
DEFPOINTS
 62
     0
 10
769.0227694191742103
 20
-1521.1157413676580745
 30
0.0
  0
ENDBLK
  5
C39
  8
0
  0
BLOCK
  8
0
  2
*D31
 70
     1
 10
0.0
 20
0.0
 30
0.0
  3
*D31
  1

  0
LINE
  5
C3C
  8
SUNPOU
 62
     0
 10
842.1947541927464727
 20
-1534.5023182197289771
 30
0.0
 11
828.6947541927465863
 21
-1534.5023182197289771
 31
0.0
  0
LINE
  5
C3D
  8
SUNPOU
 62
     0
 10
828.6947541927465863
 20
-1534.5023182197289771
 30
0.0
 11
817.3106530998453536
 21
-1508.9026058840399855
 31
0.0
  0
INSERT
  5
C3E
  8
1外形線
  2
*U85
 10
0.0
 20
0.0
 30
0.0
  0
INSERT
  5
C3F
  8
SUNPOU
 62
     0
  2
Y2
 10
816.497991627212059
 20
-1507.0751537421510875
 30
0.0
 41
2.0
 42
2.0
 43
2.0
 50
113.9745448408441035
  0
POINT
  5
C40
  8
DEFPOINTS
 62
     0
 10
816.497991627212059
 20
-1507.0751537421510875
 30
0.0
  0
POINT
  5
C41
  8
DEFPOINTS
 62
     0
 10
816.0713443540796561
 20
-1506.115741367658984
 30
0.0
  0
ENDBLK
  5
C42
  8
0
  0
BLOCK
  8
0
  2
*D32
 70
     1
 10
0.0
 20
0.0
 30
0.0
  3
*D32
  1

  0
LINE
  5
C45
  8
2寸法線
 62
     0
 10
840.1213443540799517
 20
-1521.1157413676580745
 30
0.0
 11
868.6296493435698949
 21
-1521.1157413676580745
 31
0.0
  0
LINE
  5
C46
  8
2寸法線
 62
     0
 10
821.1213443540797243
 20
-1506.115741367658984
 30
0.0
 11
868.6296493435698949
 21
-1506.115741367658984
 31
0.0
  0
LINE
  5
C47
  8
2寸法線
 62
     0
 10
867.6296493435700086
 20
-1519.115741367658984
 30
0.0
 11
867.6296493435700086
 21
-1508.115741367658984
 31
0.0
  0
INSERT
  5
C48
  8
2寸法線
 62
     0
  2
Y2
 10
867.6296493435700086
 20
-1521.1157413676580745
 30
0.0
 41
2.0
 42
2.0
 43
2.0
 50
270.0
  0
INSERT
  5
C49
  8
2寸法線
 62
     0
  2
Y2
 10
867.6296493435700086
 20
-1506.115741367658984
 30
0.0
 41
2.0
 42
2.0
 43
2.0
 50
90.0
  0
INSERT
  5
C4A
  8
1外形線
  2
*U86
 10
0.0
 20
0.0
 30
0.0
  0
POINT
  5
C4B
  8
DEFPOINTS
 62
     0
 10
839.1213443540799517
 20
-1521.1157413676580745
 30
0.0
  0
POINT
  5
C4C
  8
DEFPOINTS
 62
     0
 10
820.1213443540797243
 20
-1506.115741367658984
 30
0.0
  0
POINT
  5
C4D
  8
DEFPOINTS
 62
     0
 10
867.6296493435700086
 20
-1506.115741367658984
 30
0.0
  0
ENDBLK
  5
C4E
  8
0
  0
BLOCK
  8
0
  2
*D33
 70
     1
 10
0.0
 20
0.0
 30
0.0
  3
*D33
  1

  0
LINE
  5
C51
  8
SUNPOU
 62
     0
 10
833.9265069970092554
 20
-1411.0530746765700769
 30
0.0
 11
820.4265069970091417
 21
-1411.0530746765700769
 31
0.0
  0
LINE
  5
C52
  8
SUNPOU
 62
     0
 10
820.4265069970091417
 20
-1411.0530746765700769
 30
0.0
 11
817.3354867851073777
 21
-1417.8400533603210079
 31
0.0
  0
INSERT
  5
C53
  8
1外形線
  2
*U87
 10
0.0
 20
0.0
 30
0.0
  0
INSERT
  5
C54
  8
SUNPOU
 62
     0
  2
Y2
 10
816.5065409286955855
 20
-1419.6601766438209324
 30
0.0
 41
2.0
 42
2.0
 43
2.0
 50
245.5138713507647026
  0
POINT
  5
C55
  8
DEFPOINTS
 62
     0
 10
816.5065409286955855
 20
-1419.6601766438209324
 30
0.0
  0
POINT
  5
C56
  8
DEFPOINTS
 62
     0
 10
816.0713443540794287
 20
-1420.615741367658984
 30
0.0
  0
ENDBLK
  5
C57
  8
0
  0
BLOCK
  8
0
  2
*D34
 70
     1
 10
0.0
 20
0.0
 30
0.0
  3
*D34
  1

  0
LINE
  5
C5A
  8
2寸法線
 62
     0
 10
821.1213443540793833
 20
-1420.615741367658984
 30
0.0
 11
868.6296493435704633
 21
-1420.615741367658984
 31
0.0
  0
LINE
  5
C5B
  8
2寸法線
 62
     0
 10
821.1213443540797243
 20
-1506.115741367658984
 30
0.0
 11
868.6296493435704633
 21
-1506.115741367658984
 31
0.0
  0
LINE
  5
C5C
  8
2寸法線
 62
     0
 10
867.6296493435704633
 20
-1422.615741367658984
 30
0.0
 11
867.6296493435704633
 21
-1504.115741367658984
 31
0.0
  0
INSERT
  5
C5D
  8
2寸法線
 62
     0
  2
Y2
 10
867.6296493435704633
 20
-1420.615741367658984
 30
0.0
 41
2.0
 42
2.0
 43
2.0
 50
90.0
  0
INSERT
  5
C5E
  8
2寸法線
 62
     0
  2
Y2
 10
867.6296493435704633
 20
-1506.115741367658984
 30
0.0
 41
2.0
 42
2.0
 43
2.0
 50
270.0
  0
INSERT
  5
C5F
  8
1外形線
  2
*U88
 10
0.0
 20
0.0
 30
0.0
  0
POINT
  5
C60
  8
DEFPOINTS
 62
     0
 10
820.1213443540793833
 20
-1420.615741367658984
 30
0.0
  0
POINT
  5
C61
  8
DEFPOINTS
 62
     0
 10
820.1213443540797243
 20
-1506.115741367658984
 30
0.0
  0
POINT
  5
C62
  8
DEFPOINTS
 62
     0
 10
867.6296493435704633
 20
-1506.115741367658984
 30
0.0
  0
ENDBLK
  5
C63
  8
0
  0
BLOCK
  8
0
  2
*D35
 70
     1
 10
0.0
 20
0.0
 30
0.0
  3
*D35
  1

  0
LINE
  5
C66
  8
2寸法線
 62
     0
 10
594.9178636650683529
 20
-1565.5136233675800668
 30
0.0
 11
627.2498006901168992
 21
-1565.5136233675800668
 31
0.0
  0
LINE
  5
C67
  8
2寸法線
 62
     0
 10
613.2084162668700174
 20
-1601.8136233675809308
 30
0.0
 11
627.2498006901168992
 21
-1601.8136233675809308
 31
0.0
  0
LINE
  5
C68
  8
2寸法線
 62
     0
 10
626.2498006901170129
 20
-1567.5136233675809763
 30
0.0
 11
626.2498006901170129
 21
-1599.8136233675800213
 31
0.0
  0
INSERT
  5
C69
  8
2寸法線
 62
     0
  2
Y2
 10
626.2498006901170129
 20
-1565.5136233675800668
 30
0.0
 41
2.0
 42
2.0
 43
2.0
 50
90.0
  0
INSERT
  5
C6A
  8
2寸法線
 62
     0
  2
Y2
 10
626.2498006901170129
 20
-1601.8136233675809308
 30
0.0
 41
2.0
 42
2.0
 43
2.0
 50
270.0
  0
INSERT
  5
C6B
  8
1外形線
  2
*U89
 10
0.0
 20
0.0
 30
0.0
  0
POINT
  5
C6C
  8
DEFPOINTS
 62
     0
 10
593.9178636650683529
 20
-1565.5136233675800668
 30
0.0
  0
POINT
  5
C6D
  8
DEFPOINTS
 62
     0
 10
612.2084162668699037
 20
-1601.8136233675809308
 30
0.0
  0
POINT
  5
C6E
  8
DEFPOINTS
 62
     0
 10
626.2498006901170129
 20
-1601.8136233675809308
 30
0.0
  0
ENDBLK
  5
C6F
  8
0
  0
BLOCK
  8
0
  2
*D36
 70
     1
 10
0.0
 20
0.0
 30
0.0
  3
*D36
  1

  0
LINE
  5
C72
  8
2寸法線
 62
     0
 10
558.6584010340651503
 20
-1581.1636233675799303
 30
0.0
 11
558.6584010340651503
 21
-1545.4473370369980785
 31
0.0
  0
LINE
  5
C73
  8
2寸法線
 62
     0
 10
605.758431499674316
 20
-1581.1636233675799303
 30
0.0
 11
605.758431499674316
 21
-1545.4473370369980785
 31
0.0
  0
LINE
  5
C74
  8
2寸法線
 62
     0
 10
560.6584010340651503
 20
-1546.447337036998988
 30
0.0
 11
603.758431499674316
 21
-1546.447337036998988
 31
0.0
  0
INSERT
  5
C75
  8
2寸法線
 62
     0
  2
Y2
 10
558.6584010340651503
 20
-1546.447337036998988
 30
0.0
 41
2.0
 42
2.0
 43
2.0
 50
180.0
  0
INSERT
  5
C76
  8
2寸法線
 62
     0
  2
Y2
 10
605.758431499674316
 20
-1546.447337036998988
 30
0.0
 41
2.0
 42
2.0
 43
2.0
  0
INSERT
  5
C77
  8
1外形線
  2
*U90
 10
0.0
 20
0.0
 30
0.0
  0
POINT
  5
C78
  8
DEFPOINTS
 62
     0
 10
558.6584010340651503
 20
-1582.1636233675799303
 30
0.0
  0
POINT
  5
C79
  8
DEFPOINTS
 62
     0
 10
605.758431499674316
 20
-1582.1636233675799303
 30
0.0
  0
POINT
  5
C7A
  8
DEFPOINTS
 62
     0
 10
605.758431499674316
 20
-1546.447337036998988
 30
0.0
  0
ENDBLK
  5
C7B
  8
0
  0
BLOCK
  8
0
  2
*D37
 70
     1
 10
0.0
 20
0.0
 30
0.0
  3
*D37
  1

  0
LINE
  5
C7E
  8
2寸法線
 62
     0
 10
81.3022691040677046
 20
-1570.9067950851060687
 30
0.0
 11
81.3022691040677046
 21
-1541.5865230304630131
 31
0.0
  0
LINE
  5
C7F
  8
2寸法線
 62
     0
 10
118.5022691040670964
 20
-1570.9067950851049318
 30
0.0
 11
118.5022691040670964
 21
-1541.5865230304630131
 31
0.0
  0
LINE
  5
C80
  8
2寸法線
 62
     0
 10
83.3022691040677046
 20
-1542.5865230304630131
 30
0.0
 11
116.5022691040670964
 21
-1542.5865230304630131
 31
0.0
  0
INSERT
  5
C81
  8
2寸法線
 62
     0
  2
Y2
 10
81.3022691040677046
 20
-1542.5865230304630131
 30
0.0
 41
2.0
 42
2.0
 43
2.0
 50
180.0
  0
INSERT
  5
C82
  8
2寸法線
 62
     0
  2
Y2
 10
118.5022691040670964
 20
-1542.5865230304630131
 30
0.0
 41
2.0
 42
2.0
 43
2.0
  0
INSERT
  5
C83
  8
1外形線
  2
*U91
 10
0.0
 20
0.0
 30
0.0
  0
POINT
  5
C84
  8
DEFPOINTS
 62
     0
 10
81.3022691040677046
 20
-1571.9067950851060687
 30
0.0
  0
POINT
  5
C85
  8
DEFPOINTS
 62
     0
 10
118.5022691040670964
 20
-1571.9067950851060687
 30
0.0
  0
POINT
  5
C86
  8
DEFPOINTS
 62
     0
 10
118.5022691040670964
 20
-1542.5865230304630131
 30
0.0
  0
ENDBLK
  5
C87
  8
0
  0
BLOCK
  8
0
  2
*D38
 70
     1
 10
0.0
 20
0.0
 30
0.0
  3
*D38
  1

  0
LINE
  5
C8A
  8
2寸法線
 62
     0
 10
74.9022691040676136
 20
-1439.7362907281499247
 30
0.0
 11
74.9022691040676136
 21
-1399.9397800650490353
 31
0.0
  0
LINE
  5
C8B
  8
2寸法線
 62
     0
 10
124.9022691040675994
 20
-1439.7362907281499247
 30
0.0
 11
124.9022691040675994
 21
-1399.9397800650490353
 31
0.0
  0
LINE
  5
C8C
  8
2寸法線
 62
     0
 10
76.9022691040676136
 20
-1400.9397800650478985
 30
0.0
 11
122.9022691040675994
 21
-1400.9397800650478985
 31
0.0
  0
INSERT
  5
C8D
  8
2寸法線
 62
     0
  2
Y2
 10
74.9022691040676136
 20
-1400.9397800650478985
 30
0.0
 41
2.0
 42
2.0
 43
2.0
 50
180.0
  0
INSERT
  5
C8E
  8
2寸法線
 62
     0
  2
Y2
 10
124.9022691040675994
 20
-1400.9397800650478985
 30
0.0
 41
2.0
 42
2.0
 43
2.0
  0
INSERT
  5
C8F
  8
1外形線
  2
*U92
 10
0.0
 20
0.0
 30
0.0
  0
POINT
  5
C90
  8
DEFPOINTS
 62
     0
 10
74.9022691040676136
 20
-1440.7362907281510616
 30
0.0
  0
POINT
  5
C91
  8
DEFPOINTS
 62
     0
 10
124.9022691040675994
 20
-1440.7362907281510616
 30
0.0
  0
POINT
  5
C92
  8
DEFPOINTS
 62
     0
 10
124.9022691040675994
 20
-1400.9397800650478985
 30
0.0
  0
ENDBLK
  5
C93
  8
0
  0
BLOCK
  8
0
  2
*D39
 70
     1
 10
0.0
 20
0.0
 30
0.0
  3
*D39
  1

  0
LINE
  5
C96
  8
2寸法線
 62
     0
 10
119.0022691040675937
 20
-1515.7362907281510616
 30
0.0
 11
144.3810428099212118
 21
-1515.7362907281510616
 31
0.0
  0
LINE
  5
C97
  8
2寸法線
 62
     0
 10
106.9022691040685942
 20
-1421.7362907281510616
 30
0.0
 11
144.3810428099212118
 21
-1421.7362907281510616
 31
0.0
  0
LINE
  5
C98
  8
2寸法線
 62
     0
 10
143.3810428099212118
 20
-1513.7362907281510616
 30
0.0
 11
143.3810428099212118
 21
-1423.7362907281510616
 31
0.0
  0
INSERT
  5
C99
  8
2寸法線
 62
     0
  2
Y2
 10
143.3810428099212118
 20
-1515.7362907281510616
 30
0.0
 41
2.0
 42
2.0
 43
2.0
 50
270.0
  0
INSERT
  5
C9A
  8
2寸法線
 62
     0
  2
Y2
 10
143.3810428099212118
 20
-1421.7362907281510616
 30
0.0
 41
2.0
 42
2.0
 43
2.0
 50
90.0
  0
INSERT
  5
C9B
  8
1外形線
  2
*U93
 10
0.0
 20
0.0
 30
0.0
  0
POINT
  5
C9C
  8
DEFPOINTS
 62
     0
 10
118.0022691040675937
 20
-1515.7362907281510616
 30
0.0
  0
POINT
  5
C9D
  8
DEFPOINTS
 62
     0
 10
105.9022691040685942
 20
-1421.7362907281510616
 30
0.0
  0
POINT
  5
C9E
  8
DEFPOINTS
 62
     0
 10
143.3810428099212118
 20
-1421.7362907281510616
 30
0.0
  0
ENDBLK
  5
C9F
  8
0
  0
BLOCK
  8
0
  2
*D40
 70
     1
 10
0.0
 20
0.0
 30
0.0
  3
*D40
  1

  0
LINE
  5
CA2
  8
2寸法線
 62
     0
 10
125.9022691040672015
 20
-1591.0648349766559022
 30
0.0
 11
144.381042809921297
 21
-1591.0648349766559022
 31
0.0
  0
LINE
  5
CA3
  8
2寸法線
 62
     0
 10
108.0253747296850975
 20
-1559.7648349766559477
 30
0.0
 11
144.381042809921297
 21
-1559.7648349766559477
 31
0.0
  0
LINE
  5
CA4
  8
2寸法線
 62
     0
 10
143.381042809921297
 20
-1589.0648349766559022
 30
0.0
 11
143.381042809921297
 21
-1561.7648349766559477
 31
0.0
  0
INSERT
  5
CA5
  8
2寸法線
 62
     0
  2
Y2
 10
143.381042809921297
 20
-1591.0648349766559022
 30
0.0
 41
2.0
 42
2.0
 43
2.0
 50
270.0
  0
INSERT
  5
CA6
  8
2寸法線
 62
     0
  2
Y2
 10
143.381042809921297
 20
-1559.7648349766559477
 30
0.0
 41
2.0
 42
2.0
 43
2.0
 50
90.0
  0
INSERT
  5
CA7
  8
1外形線
  2
*U94
 10
0.0
 20
0.0
 30
0.0
  0
POINT
  5
CA8
  8
DEFPOINTS
 62
     0
 10
124.9022691040672015
 20
-1591.0648349766559022
 30
0.0
  0
POINT
  5
CA9
  8
DEFPOINTS
 62
     0
 10
107.0253747296850975
 20
-1559.7648349766559477
 30
0.0
  0
POINT
  5
CAA
  8
DEFPOINTS
 62
     0
 10
143.381042809921297
 20
-1559.7648349766559477
 30
0.0
  0
ENDBLK
  5
CAB
  8
0
  0
BLOCK
  8
0
  2
*D41
 70
     1
 10
0.0
 20
0.0
 30
0.0
  3
*D41
  1

  0
LINE
  5
CAE
  8
2寸法線
 62
     0
 10
228.6612236549808017
 20
-1420.7362907281499247
 30
0.0
 11
228.6612236549808017
 21
-1399.9397800650490353
 31
0.0
  0
LINE
  5
CAF
  8
2寸法線
 62
     0
 10
190.161223654980688
 20
-1443.3631851025320429
 30
0.0
 11
190.161223654980688
 21
-1399.9397800650490353
 31
0.0
  0
LINE
  5
CB0
  8
2寸法線
 62
     0
 10
226.6612236549808017
 20
-1400.9397800650478985
 30
0.0
 11
192.161223654980688
 21
-1400.9397800650478985
 31
0.0
  0
INSERT
  5
CB1
  8
2寸法線
 62
     0
  2
Y2
 10
228.6612236549808017
 20
-1400.9397800650478985
 30
0.0
 41
2.0
 42
2.0
 43
2.0
  0
INSERT
  5
CB2
  8
2寸法線
 62
     0
  2
Y2
 10
190.161223654980688
 20
-1400.9397800650478985
 30
0.0
 41
2.0
 42
2.0
 43
2.0
 50
180.0
  0
INSERT
  5
CB3
  8
1外形線
  2
*U95
 10
0.0
 20
0.0
 30
0.0
  0
POINT
  5
CB4
  8
DEFPOINTS
 62
     0
 10
228.6612236549808017
 20
-1421.7362907281499247
 30
0.0
  0
POINT
  5
CB5
  8
DEFPOINTS
 62
     0
 10
190.161223654980688
 20
-1444.3631851025320429
 30
0.0
  0
POINT
  5
CB6
  8
DEFPOINTS
 62
     0
 10
190.161223654980688
 20
-1400.9397800650478985
 30
0.0
  0
ENDBLK
  5
CB7
  8
0
  0
BLOCK
  8
0
  2
*D42
 70
     1
 10
0.0
 20
0.0
 30
0.0
  3
*D42
  1

  0
LINE
  5
CBA
  8
SUNPOU
 62
     0
 10
330.7136870335726826
 20
-1414.9817784200899951
 30
0.0
 11
317.2136870335726258
 21
-1414.9817784200899951
 31
0.0
  0
LINE
  5
CBB
  8
SUNPOU
 62
     0
 10
317.2136870335726258
 20
-1414.9817784200899951
 30
0.0
 11
316.1103885296354861
 21
-1422.2211062831099753
 31
0.0
  0
INSERT
  5
CBC
  8
1外形線
  2
*U96
 10
0.0
 20
0.0
 30
0.0
  0
INSERT
  5
CBD
  8
SUNPOU
 62
     0
  2
Y2
 10
315.8090609913041931
 20
-1424.1982764110050539
 30
0.0
 41
2.0
 42
2.0
 43
2.0
 50
261.3346050986750129
  0
POINT
  5
CBE
  8
DEFPOINTS
 62
     0
 10
315.8090609913041931
 20
-1424.1982764110050539
 30
0.0
  0
POINT
  5
CBF
  8
DEFPOINTS
 62
     0
 10
315.6508640336804206
 20
-1425.2362907281510616
 30
0.0
  0
ENDBLK
  5
CC0
  8
0
  0
BLOCK
  8
0
  2
*D43
 70
     1
 10
0.0
 20
0.0
 30
0.0
  3
*D43
  1

  0
LINE
  5
CC3
  8
2寸法線
 62
     0
 10
298.1508640336804774
 20
-1444.4862907281499247
 30
0.0
 11
298.1508640336804774
 21
-1399.9397800650490353
 31
0.0
  0
LINE
  5
CC4
  8
2寸法線
 62
     0
 10
333.1508640336803069
 20
-1444.4862907281499247
 30
0.0
 11
333.1508640336803069
 21
-1399.9397800650490353
 31
0.0
  0
LINE
  5
CC5
  8
2寸法線
 62
     0
 10
300.1508640336804774
 20
-1400.9397800650478985
 30
0.0
 11
331.1508640336803069
 21
-1400.9397800650478985
 31
0.0
  0
INSERT
  5
CC6
  8
2寸法線
 62
     0
  2
Y2
 10
298.1508640336804774
 20
-1400.9397800650478985
 30
0.0
 41
2.0
 42
2.0
 43
2.0
 50
180.0
  0
INSERT
  5
CC7
  8
2寸法線
 62
     0
  2
Y2
 10
333.1508640336803069
 20
-1400.9397800650478985
 30
0.0
 41
2.0
 42
2.0
 43
2.0
  0
INSERT
  5
CC8
  8
1外形線
  2
*U97
 10
0.0
 20
0.0
 30
0.0
  0
POINT
  5
CC9
  8
DEFPOINTS
 62
     0
 10
298.1508640336804774
 20
-1445.4862907281499247
 30
0.0
  0
POINT
  5
CCA
  8
DEFPOINTS
 62
     0
 10
333.1508640336803069
 20
-1445.4862907281499247
 30
0.0
  0
POINT
  5
CCB
  8
DEFPOINTS
 62
     0
 10
333.1508640336803069
 20
-1400.9397800650478985
 30
0.0
  0
ENDBLK
  5
CCC
  8
0
  0
BLOCK
  8
0
  2
*D44
 70
     1
 10
0.0
 20
0.0
 30
0.0
  3
*D44
  1

  0
LINE
  5
CCF
  8
2寸法線
 62
     0
 10
334.7508640336805001
 20
-1515.7362907281510616
 30
0.0
 11
363.067687069106114
 21
-1515.7362907281510616
 31
0.0
  0
LINE
  5
CD0
  8
2寸法線
 62
     0
 10
362.067687069106114
 20
-1503.9862907281510616
 30
0.0
 11
362.067687069106114
 21
-1513.7362907281510616
 31
0.0
  0
LINE
  5
CD1
  8
2寸法線
 62
     0
 10
362.067687069106114
 20
-1515.7362907281510616
 30
0.0
 11
362.067687069106114
 21
-1533.2082058873938877
 31
0.0
  0
INSERT
  5
CD2
  8
2寸法線
 62
     0
  2
Y2
 10
362.067687069106114
 20
-1501.9862907281510616
 30
0.0
 41
2.0
 42
2.0
 43
2.0
 50
90.0
  0
INSERT
  5
CD3
  8
2寸法線
 62
     0
  2
Y2
 10
362.067687069106114
 20
-1515.7362907281510616
 30
0.0
 41
2.0
 42
2.0
 43
2.0
 50
270.0
  0
INSERT
  5
CD4
  8
1外形線
  2
*U98
 10
0.0
 20
0.0
 30
0.0
  0
POINT
  5
CD5
  8
DEFPOINTS
 62
     0
 10
333.7508640336805001
 20
-1515.7362907281510616
 30
0.0
  0
POINT
  5
CD6
  8
DEFPOINTS
 62
     0
 10
362.0676870691049771
 20
-1501.9862907281510616
 30
0.0
  0
POINT
  5
CD7
  8
DEFPOINTS
 62
     0
 10
362.067687069106114
 20
-1501.9862907281510616
 30
0.0
  0
ENDBLK
  5
CD8
  8
0
  0
BLOCK
  8
0
  2
*D45
 70
     1
 10
0.0
 20
0.0
 30
0.0
  3
*D45
  1

  0
LINE
  5
CDB
  8
2寸法線
 62
     0
 10
320.7008640336803182
 20
-1501.9862907281510616
 30
0.0
 11
363.067687069105375
 21
-1501.9862907281510616
 31
0.0
  0
LINE
  5
CDC
  8
2寸法線
 62
     0
 10
320.7008640336803182
 20
-1425.2362907281510616
 30
0.0
 11
363.067687069105375
 21
-1425.2362907281510616
 31
0.0
  0
LINE
  5
CDD
  8
2寸法線
 62
     0
 10
362.067687069105375
 20
-1499.9862907281510616
 30
0.0
 11
362.067687069105375
 21
-1427.2362907281510616
 31
0.0
  0
INSERT
  5
CDE
  8
2寸法線
 62
     0
  2
Y2
 10
362.067687069105375
 20
-1501.9862907281510616
 30
0.0
 41
2.0
 42
2.0
 43
2.0
 50
270.0
  0
INSERT
  5
CDF
  8
2寸法線
 62
     0
  2
Y2
 10
362.067687069105375
 20
-1425.2362907281510616
 30
0.0
 41
2.0
 42
2.0
 43
2.0
 50
90.0
  0
INSERT
  5
CE0
  8
1外形線
  2
*U99
 10
0.0
 20
0.0
 30
0.0
  0
POINT
  5
CE1
  8
DEFPOINTS
 62
     0
 10
319.7008640336803182
 20
-1501.9862907281510616
 30
0.0
  0
POINT
  5
CE2
  8
DEFPOINTS
 62
     0
 10
319.7008640336803182
 20
-1425.2362907281510616
 30
0.0
  0
POINT
  5
CE3
  8
DEFPOINTS
 62
     0
 10
362.067687069105375
 20
-1425.2362907281510616
 30
0.0
  0
ENDBLK
  5
CE4
  8
0
  0
BLOCK
  8
0
  2
*D46
 70
     1
 10
0.0
 20
0.0
 30
0.0
  3
*D46
  1

  0
LINE
  5
CE7
  8
2寸法線
 62
     0
 10
296.550864033680682
 20
-1515.7362907281510616
 30
0.0
 11
273.6773790829312816
 21
-1515.7362907281510616
 31
0.0
  0
LINE
  5
CE8
  8
2寸法線
 62
     0
 10
274.6773790829312816
 20
-1513.7362907281510616
 30
0.0
 11
274.6773790829312816
 21
-1483.9862907281510616
 31
0.0
  0
INSERT
  5
CE9
  8
2寸法線
 62
     0
  2
Y2
 10
274.6773790829312816
 20
-1515.7362907281510616
 30
0.0
 41
2.0
 42
2.0
 43
2.0
 50
270.0
  0
INSERT
  5
CEA
  8
2寸法線
 62
     0
  2
Y2
 10
274.6773790829312816
 20
-1481.9862907281510616
 30
0.0
 41
2.0
 42
2.0
 43
2.0
 50
90.0
  0
INSERT
  5
CEB
  8
1外形線
  2
*U100
 10
0.0
 20
0.0
 30
0.0
  0
POINT
  5
CEC
  8
DEFPOINTS
 62
     0
 10
297.550864033680682
 20
-1515.7362907281510616
 30
0.0
  0
POINT
  5
CED
  8
DEFPOINTS
 62
     0
 10
274.6773790829307131
 20
-1481.9862907281510616
 30
0.0
  0
POINT
  5
CEE
  8
DEFPOINTS
 62
     0
 10
274.6773790829312816
 20
-1481.9862907281510616
 30
0.0
  0
ENDBLK
  5
CEF
  8
0
  0
BLOCK
  8
0
  2
*D47
 70
     1
 10
0.0
 20
0.0
 30
0.0
  3
*D47
  1

  0
LINE
  5
CF2
  8
2寸法線
 62
     0
 10
314.6508640336804206
 20
-1481.9862907281510616
 30
0.0
 11
273.6773790829312816
 21
-1481.9862907281510616
 31
0.0
  0
LINE
  5
CF3
  8
2寸法線
 62
     0
 10
308.6508640336805911
 20
-1433.9862907281510616
 30
0.0
 11
273.6773790829312816
 21
-1433.9862907281510616
 31
0.0
  0
LINE
  5
CF4
  8
2寸法線
 62
     0
 10
274.6773790829312816
 20
-1479.9862907281510616
 30
0.0
 11
274.6773790829312816
 21
-1435.9862907281510616
 31
0.0
  0
INSERT
  5
CF5
  8
2寸法線
 62
     0
  2
Y2
 10
274.6773790829312816
 20
-1481.9862907281510616
 30
0.0
 41
2.0
 42
2.0
 43
2.0
 50
270.0
  0
INSERT
  5
CF6
  8
2寸法線
 62
     0
  2
Y2
 10
274.6773790829312816
 20
-1433.9862907281510616
 30
0.0
 41
2.0
 42
2.0
 43
2.0
 50
90.0
  0
INSERT
  5
CF7
  8
1外形線
  2
*U101
 10
0.0
 20
0.0
 30
0.0
  0
POINT
  5
CF8
  8
DEFPOINTS
 62
     0
 10
315.6508640336804206
 20
-1481.9862907281510616
 30
0.0
  0
POINT
  5
CF9
  8
DEFPOINTS
 62
     0
 10
309.6508640336805911
 20
-1433.9862907281510616
 30
0.0
  0
POINT
  5
CFA
  8
DEFPOINTS
 62
     0
 10
274.6773790829312816
 20
-1433.9862907281510616
 30
0.0
  0
ENDBLK
  5
CFB
  8
0
  0
BLOCK
  8
0
  2
*D48
 70
     1
 10
0.0
 20
0.0
 30
0.0
  3
*D48
  1

  0
LINE
  5
CFE
  8
SUNPOU
 62
     0
 10
340.0416123594948203
 20
-1525.6055290930769388
 30
0.0
 11
326.5416123594948772
 21
-1525.6055290930769388
 31
0.0
  0
LINE
  5
CFF
  8
SUNPOU
 62
     0
 10
326.5416123594948772
 20
-1525.6055290930769388
 30
0.0
 11
316.927982255768427
 21
-1504.7560324213079639
 31
0.0
  0
INSERT
  5
D00
  8
1外形線
  2
*U102
 10
0.0
 20
0.0
 30
0.0
  0
INSERT
  5
D01
  8
SUNPOU
 62
     0
  2
Y2
 10
316.0905276839073963
 20
-1502.9398083602220595
 30
0.0
 41
2.0
 42
2.0
 43
2.0
 50
114.7542617775555982
  0
POINT
  5
D02
  8
DEFPOINTS
 62
     0
 10
316.0905276839073963
 20
-1502.9398083602220595
 30
0.0
  0
POINT
  5
D03
  8
DEFPOINTS
 62
     0
 10
315.6508640336804774
 20
-1501.9862907281510616
 30
0.0
  0
ENDBLK
  5
D04
  8
0
  0
BLOCK
  8
0
  2
*D49
 70
     1
 10
0.0
 20
0.0
 30
0.0
  3
*D49
  1

  0
LINE
  5
D07
  8
2寸法線
 62
     0
 10
228.6612236549808017
 20
-1508.2362907281510616
 30
0.0
 11
238.7270892017367032
 21
-1508.2362907281510616
 31
0.0
  0
LINE
  5
D08
  8
2寸法線
 62
     0
 10
229.161223654980887
 20
-1515.7362907281510616
 30
0.0
 11
238.7270892017367032
 21
-1515.7362907281510616
 31
0.0
  0
LINE
  5
D09
  8
2寸法線
 62
     0
 10
237.7270892017367885
 20
-1510.2362907281510616
 30
0.0
 11
237.7270892017367885
 21
-1513.7362907281510616
 31
0.0
  0
LINE
  5
D0A
  8
2寸法線
 62
     0
 10
237.7270892017367885
 20
-1515.7362907281510616
 30
0.0
 11
237.7270892017367885
 21
-1528.3843881418290493
 31
0.0
  0
INSERT
  5
D0B
  8
2寸法線
 62
     0
  2
Y2
 10
237.7270892017367885
 20
-1508.2362907281510616
 30
0.0
 41
2.0
 42
2.0
 43
2.0
 50
270.0
  0
LINE
  5
D0C
  8
2寸法線
 62
     0
 10
237.7270892017367885
 20
-1506.2362907281510616
 30
0.0
 11
237.7270892017367885
 21
-1504.2362907281510616
 31
0.0
  0
LINE
  5
D0D
  8
2寸法線
 62
     0
 10
237.7270892017367885
 20
-1508.2362907281510616
 30
0.0
 11
237.7270892017367885
 21
-1510.2362907281510616
 31
0.0
  0
INSERT
  5
D0E
  8
2寸法線
 62
     0
  2
Y2
 10
237.7270892017367885
 20
-1515.7362907281510616
 30
0.0
 41
2.0
 42
2.0
 43
2.0
 50
90.0
  0
LINE
  5
D0F
  8
2寸法線
 62
     0
 10
237.7270892017367885
 20
-1517.7362907281510616
 30
0.0
 11
237.7270892017367885
 21
-1519.7362907281510616
 31
0.0
  0
LINE
  5
D10
  8
2寸法線
 62
     0
 10
237.7270892017367885
 20
-1515.7362907281510616
 30
0.0
 11
237.7270892017367885
 21
-1513.7362907281510616
 31
0.0
  0
INSERT
  5
D11
  8
1外形線
  2
*U103
 10
0.0
 20
0.0
 30
0.0
  0
POINT
  5
D12
  8
DEFPOINTS
 62
     0
 10
227.661223654980887
 20
-1508.2362907281510616
 30
0.0
  0
POINT
  5
D13
  8
DEFPOINTS
 62
     0
 10
228.161223654980887
 20
-1515.7362907281510616
 30
0.0
  0
POINT
  5
D14
  8
DEFPOINTS
 62
     0
 10
237.7270892017367885
 20
-1515.7362907281510616
 30
0.0
  0
ENDBLK
  5
D15
  8
0
  0
BLOCK
  8
0
  2
*D51
 70
     1
 10
0.0
 20
0.0
 30
0.0
  3
*D51
  1

  0
LINE
  5
12E6
  8
2寸法線
 62
     0
 10
1283.5934630530159666
 20
-601.3827409855980477
 30
0.0
 11
1283.5934630530159666
 21
-562.8571471791927934
 31
0.0
  0
LINE
  5
12E7
  8
2寸法線
 62
     0
 10
1343.5934630530159666
 20
-601.3827409855980477
 30
0.0
 11
1343.5934630530159666
 21
-562.8571471791927934
 31
0.0
  0
LINE
  5
12E8
  8
2寸法線
 62
     0
 10
1285.5934630530159666
 20
-563.0371471791927434
 30
0.0
 11
1307.3315582911109232
 21
-563.0371471791927434
 31
0.0
  0
LINE
  5
12E9
  8
2寸法線
 62
     0
 10
1341.5934630530159666
 20
-563.0371471791927434
 30
0.0
 11
1319.85536781492101
 21
-563.0371471791927434
 31
0.0
  0
SOLID
  5
12EA
  8
2寸法線
 62
     0
 10
1285.5934630530159666
 20
-562.7038138458592584
 30
0.0
 11
1285.5934630530159666
 21
-563.3704805125261146
 31
0.0
 12
1283.5934630530159666
 22
-563.0371471791927434
 32
0.0
 13
1283.5934630530159666
 23
-563.0371471791927434
 33
0.0
  0
SOLID
  5
12EB
  8
2寸法線
 62
     0
 10
1341.5934630530159666
 20
-562.7038138458592584
 30
0.0
 11
1341.5934630530159666
 21
-563.3704805125261146
 31
0.0
 12
1343.5934630530159666
 22
-563.0371471791927434
 32
0.0
 13
1343.5934630530159666
 23
-563.0371471791927434
 33
0.0
  0
INSERT
  5
12EC
  8
1外形線
  2
*U110
 10
0.0
 20
0.0
 30
0.0
  0
POINT
  5
12ED
  8
DEFPOINTS
 62
     0
 10
1283.5934630530159666
 20
-601.4452409855980477
 30
0.0
  0
POINT
  5
12EE
  8
DEFPOINTS
 62
     0
 10
1343.5934630530159666
 20
-601.4452409855980477
 30
0.0
  0
POINT
  5
12EF
  8
DEFPOINTS
 62
     0
 10
1343.5934630530159666
 20
-563.0371471791927434
 30
0.0
  0
ENDBLK
  5
119C
  8
0
  0
BLOCK
  8
0
  2
*D52
 70
     1
 10
0.0
 20
0.0
 30
0.0
  3
*D52
  1

  0
LINE
  5
12F0
  8
2寸法線
 62
     0
 10
1322.6559630530171034
 20
-580.4452409855981614
 30
0.0
 11
1363.8148474762629121
 21
-580.4452409855981614
 31
0.0
  0
LINE
  5
12F1
  8
2寸法線
 62
     0
 10
1336.705963053017058
 20
-684.4452409855981614
 30
0.0
 11
1363.8148474762629121
 21
-684.4452409855981614
 31
0.0
  0
LINE
  5
12F2
  8
2寸法線
 62
     0
 10
1363.6348474762630758
 20
-582.4452409855981614
 30
0.0
 11
1363.6348474762630758
 21
-625.802383842741051
 31
0.0
  0
LINE
  5
12F3
  8
2寸法線
 62
     0
 10
1363.6348474762630758
 20
-682.4452409855981614
 30
0.0
 11
1363.6348474762630758
 21
-639.0880981284552718
 31
0.0
  0
INSERT
  5
12F4
  8
1外形線
  2
*U111
 10
0.0
 20
0.0
 30
0.0
  0
SOLID
  5
12F5
  8
2寸法線
 62
     0
 10
1363.3015141429300456
 20
-582.4452409855981614
 30
0.0
 11
1363.9681808095970155
 21
-582.4452409855981614
 31
0.0
 12
1363.6348474762630758
 22
-580.4452409855981614
 32
0.0
 13
1363.6348474762630758
 23
-580.4452409855981614
 33
0.0
  0
SOLID
  5
12F6
  8
2寸法線
 62
     0
 10
1363.3015141429300456
 20
-682.4452409855981614
 30
0.0
 11
1363.9681808095970155
 21
-682.4452409855981614
 31
0.0
 12
1363.6348474762630758
 22
-684.4452409855981614
 32
0.0
 13
1363.6348474762630758
 23
-684.4452409855981614
 33
0.0
  0
POINT
  5
12F7
  8
DEFPOINTS
 62
     0
 10
1322.5934630530171034
 20
-580.4452409855981614
 30
0.0
  0
POINT
  5
12F8
  8
DEFPOINTS
 62
     0
 10
1336.643463053017058
 20
-684.4452409855981614
 30
0.0
  0
POINT
  5
12F9
  8
DEFPOINTS
 62
     0
 10
1363.6348474762630758
 20
-684.4452409855981614
 30
0.0
  0
ENDBLK
  5
11A9
  8
0
  0
BLOCK
  8
0
  2
*D53
 70
     1
 10
0.0
 20
0.0
 30
0.0
  3
*D53
  1

  0
LINE
  5
12FA
  8
2寸法線
 62
     0
 10
1409.5788581112140037
 20
-603.8172221163513314
 30
0.0
 11
1409.5788581112140037
 21
-562.8571471791927934
 31
0.0
  0
LINE
  5
12FB
  8
2寸法線
 62
     0
 10
1451.5788581112140037
 20
-580.3827409855980477
 30
0.0
 11
1451.5788581112140037
 21
-562.8571471791927934
 31
0.0
  0
LINE
  5
12FC
  8
2寸法線
 62
     0
 10
1411.5788581112140037
 20
-563.0371471791927434
 30
0.0
 11
1425.745524777880064
 21
-563.0371471791927434
 31
0.0
  0
LINE
  5
12FD
  8
2寸法線
 62
     0
 10
1449.5788581112140037
 20
-563.0371471791927434
 30
0.0
 11
1435.4121914445470338
 21
-563.0371471791927434
 31
0.0
  0
SOLID
  5
12FE
  8
2寸法線
 62
     0
 10
1411.5788581112140037
 20
-562.7038138458592584
 30
0.0
 11
1411.5788581112140037
 21
-563.3704805125261146
 31
0.0
 12
1409.5788581112140037
 22
-563.0371471791927434
 32
0.0
 13
1409.5788581112140037
 23
-563.0371471791927434
 33
0.0
  0
SOLID
  5
12FF
  8
2寸法線
 62
     0
 10
1449.5788581112140037
 20
-562.7038138458592584
 30
0.0
 11
1449.5788581112140037
 21
-563.3704805125261146
 31
0.0
 12
1451.5788581112140037
 22
-563.0371471791927434
 32
0.0
 13
1451.5788581112140037
 23
-563.0371471791927434
 33
0.0
  0
INSERT
  5
1300
  8
1外形線
  2
*U112
 10
0.0
 20
0.0
 30
0.0
  0
POINT
  5
1301
  8
DEFPOINTS
 62
     0
 10
1409.5788581112140037
 20
-603.8797221163513314
 30
0.0
  0
POINT
  5
1302
  8
DEFPOINTS
 62
     0
 10
1451.5788581112140037
 20
-580.4452409855980477
 30
0.0
  0
POINT
  5
1303
  8
DEFPOINTS
 62
     0
 10
1451.5788581112140037
 20
-563.0371471791927434
 30
0.0
  0
ENDBLK
  5
11B6
  8
0
  0
BLOCK
  8
0
  2
*D54
 70
     1
 10
0.0
 20
0.0
 30
0.0
  3
*D54
  1

  0
LINE
  5
1304
  8
2寸法線
 62
     0
 10
1450.6413581112140037
 20
-676.9452409855982751
 30
0.0
 11
1461.9799327644789173
 21
-676.9452409855982751
 31
0.0
  0
LINE
  5
1305
  8
2寸法線
 62
     0
 10
1451.1413581112149132
 20
-684.4452409855981614
 30
0.0
 11
1461.9799327644789173
 21
-684.4452409855981614
 31
0.0
  0
LINE
  5
1306
  8
2寸法線
 62
     0
 10
1461.799932764479081
 20
-678.9452409855981614
 30
0.0
 11
1461.799932764479081
 21
-682.4452409855981614
 31
0.0
  0
INSERT
  5
1307
  8
1外形線
  2
*U113
 10
0.0
 20
0.0
 30
0.0
  0
SOLID
  5
1308
  8
2寸法線
 62
     0
 10
1461.4665994311460508
 20
-674.9452409855981614
 30
0.0
 11
1462.1332660978121112
 21
-674.9452409855981614
 31
0.0
 12
1461.799932764479081
 22
-676.9452409855982751
 32
0.0
 13
1461.799932764479081
 23
-676.9452409855982751
 33
0.0
  0
LINE
  5
1309
  8
2寸法線
 62
     0
 10
1461.799932764479081
 20
-674.9452409855981614
 30
0.0
 11
1461.799932764479081
 21
-672.9452409855982751
 31
0.0
  0
LINE
  5
130A
  8
2寸法線
 62
     0
 10
1461.799932764479081
 20
-676.9452409855982751
 30
0.0
 11
1461.799932764479081
 21
-678.9452409855981614
 31
0.0
  0
SOLID
  5
130B
  8
2寸法線
 62
     0
 10
1461.4665994311460508
 20
-686.4452409855981614
 30
0.0
 11
1462.1332660978121112
 21
-686.4452409855981614
 31
0.0
 12
1461.799932764479081
 22
-684.4452409855981614
 32
0.0
 13
1461.799932764479081
 23
-684.4452409855981614
 33
0.0
  0
LINE
  5
130C
  8
2寸法線
 62
     0
 10
1461.799932764479081
 20
-686.4452409855981614
 30
0.0
 11
1461.799932764479081
 21
-688.4452409855981614
 31
0.0
  0
LINE
  5
130D
  8
2寸法線
 62
     0
 10
1461.799932764479081
 20
-684.4452409855981614
 30
0.0
 11
1461.799932764479081
 21
-682.4452409855981614
 31
0.0
  0
POINT
  5
130E
  8
DEFPOINTS
 62
     0
 10
1450.5788581112149132
 20
-676.9452409855982751
 30
0.0
  0
POINT
  5
130F
  8
DEFPOINTS
 62
     0
 10
1451.0788581112149132
 20
-684.4452409855981614
 30
0.0
  0
POINT
  5
1310
  8
DEFPOINTS
 62
     0
 10
1461.799932764479081
 20
-684.4452409855981614
 30
0.0
  0
ENDBLK
  5
11C3
  8
0
  0
BLOCK
  8
0
  2
*D55
 70
     1
 10
0.0
 20
0.0
 30
0.0
  3
*D55
  1

  0
LINE
  5
1311
  8
2寸法線
 62
     0
 10
1525.0063911402260146
 20
-606.5827409855979795
 30
0.0
 11
1525.0063911402260146
 21
-562.8571471791927934
 31
0.0
  0
LINE
  5
1312
  8
2寸法線
 62
     0
 10
1569.9063911402261056
 20
-606.5827409855979795
 30
0.0
 11
1569.9063911402261056
 21
-562.8571471791927934
 31
0.0
  0
LINE
  5
1313
  8
2寸法線
 62
     0
 10
1527.0063911402260146
 20
-563.0371471791927434
 30
0.0
 11
1542.7182959021311035
 21
-563.0371471791927434
 31
0.0
  0
LINE
  5
1314
  8
2寸法線
 62
     0
 10
1567.9063911402261056
 20
-563.0371471791927434
 30
0.0
 11
1552.1944863783210167
 21
-563.0371471791927434
 31
0.0
  0
SOLID
  5
1315
  8
2寸法線
 62
     0
 10
1527.0063911402260146
 20
-562.7038138458592584
 30
0.0
 11
1527.0063911402260146
 21
-563.3704805125261146
 31
0.0
 12
1525.0063911402260146
 22
-563.0371471791927434
 32
0.0
 13
1525.0063911402260146
 23
-563.0371471791927434
 33
0.0
  0
SOLID
  5
1316
  8
2寸法線
 62
     0
 10
1567.9063911402261056
 20
-562.7038138458592584
 30
0.0
 11
1567.9063911402261056
 21
-563.3704805125261146
 31
0.0
 12
1569.9063911402261056
 22
-563.0371471791927434
 32
0.0
 13
1569.9063911402261056
 23
-563.0371471791927434
 33
0.0
  0
INSERT
  5
1317
  8
1外形線
  2
*U114
 10
0.0
 20
0.0
 30
0.0
  0
POINT
  5
1318
  8
DEFPOINTS
 62
     0
 10
1525.0063911402260146
 20
-606.6452409855980932
 30
0.0
  0
POINT
  5
1319
  8
DEFPOINTS
 62
     0
 10
1569.9063911402261056
 20
-606.6452409855980932
 30
0.0
  0
POINT
  5
131A
  8
DEFPOINTS
 62
     0
 10
1569.9063911402261056
 20
-563.0371471791927434
 30
0.0
  0
ENDBLK
  5
11D3
  8
0
  0
BLOCK
  8
0
  2
*D56
 70
     1
 10
0.0
 20
0.0
 30
0.0
  3
*D56
  1

  0
LINE
  5
131B
  8
2寸法線
 62
     0
 10
1538.4438911402260146
 20
-593.1452409855983205
 30
0.0
 11
1500.2278162053210053
 21
-593.1452409855983205
 31
0.0
  0
LINE
  5
131C
  8
2寸法線
 62
     0
 10
1547.3938911402269696
 20
-648.1452409855985479
 30
0.0
 11
1500.2278162053210053
 21
-648.1452409855985479
 31
0.0
  0
LINE
  5
131D
  8
2寸法線
 62
     0
 10
1500.407816205321069
 20
-595.1452409855983205
 30
0.0
 11
1500.407816205321069
 21
-614.7642886046460262
 31
0.0
  0
LINE
  5
131E
  8
2寸法線
 62
     0
 10
1500.407816205321069
 20
-646.1452409855985479
 30
0.0
 11
1500.407816205321069
 21
-626.5261933665508423
 31
0.0
  0
SOLID
  5
131F
  8
2寸法線
 62
     0
 10
1500.0744828719880388
 20
-595.1452409855983205
 30
0.0
 11
1500.7411495386550087
 21
-595.1452409855983205
 31
0.0
 12
1500.407816205321069
 22
-593.1452409855983205
 32
0.0
 13
1500.407816205321069
 23
-593.1452409855983205
 33
0.0
  0
SOLID
  5
1320
  8
2寸法線
 62
     0
 10
1500.0744828719880388
 20
-646.1452409855985479
 30
0.0
 11
1500.7411495386550087
 21
-646.1452409855985479
 31
0.0
 12
1500.407816205321069
 22
-648.1452409855985479
 32
0.0
 13
1500.407816205321069
 23
-648.1452409855985479
 33
0.0
  0
INSERT
  5
1321
  8
1外形線
  2
*U115
 10
0.0
 20
0.0
 30
0.0
  0
POINT
  5
1322
  8
DEFPOINTS
 62
     0
 10
1538.5063911402260146
 20
-593.1452409855983205
 30
0.0
  0
POINT
  5
1323
  8
DEFPOINTS
 62
     0
 10
1547.4563911402269696
 20
-648.1452409855985479
 30
0.0
  0
POINT
  5
1324
  8
DEFPOINTS
 62
     0
 10
1500.407816205321069
 20
-648.1452409855985479
 30
0.0
  0
ENDBLK
  5
11E0
  8
0
  0
BLOCK
  8
0
  2
*D57
 70
     1
 10
0.0
 20
0.0
 30
0.0
  3
*D57
  1

  0
LINE
  5
1325
  8
2寸法線
 62
     0
 10
1547.3938911402269696
 20
-648.1452409855985479
 30
0.0
 11
1500.2278162053219148
 21
-648.1452409855985479
 31
0.0
  0
LINE
  5
1326
  8
2寸法線
 62
     0
 10
1524.3438911402261056
 20
-684.4452409855981614
 30
0.0
 11
1500.2278162053219148
 21
-684.4452409855981614
 31
0.0
  0
LINE
  5
1327
  8
2寸法線
 62
     0
 10
1500.4078162053219785
 20
-650.1452409855985479
 30
0.0
 11
1500.4078162053219785
 21
-661.5571457475032275
 31
0.0
  0
LINE
  5
1328
  8
2寸法線
 62
     0
 10
1500.4078162053219785
 20
-682.4452409855981614
 30
0.0
 11
1500.4078162053219785
 21
-671.0333362236934818
 31
0.0
  0
SOLID
  5
1329
  8
2寸法線
 62
     0
 10
1500.0744828719889483
 20
-650.1452409855985479
 30
0.0
 11
1500.7411495386550087
 21
-650.1452409855985479
 31
0.0
 12
1500.4078162053219785
 22
-648.1452409855985479
 32
0.0
 13
1500.4078162053219785
 23
-648.1452409855985479
 33
0.0
  0
SOLID
  5
132A
  8
2寸法線
 62
     0
 10
1500.0744828719889483
 20
-682.4452409855981614
 30
0.0
 11
1500.7411495386550087
 21
-682.4452409855981614
 31
0.0
 12
1500.4078162053219785
 22
-684.4452409855981614
 32
0.0
 13
1500.4078162053219785
 23
-684.4452409855981614
 33
0.0
  0
INSERT
  5
132B
  8
1外形線
  2
*U116
 10
0.0
 20
0.0
 30
0.0
  0
POINT
  5
132C
  8
DEFPOINTS
 62
     0
 10
1547.4563911402269696
 20
-648.1452409855985479
 30
0.0
  0
POINT
  5
132D
  8
DEFPOINTS
 62
     0
 10
1524.4063911402261056
 20
-684.4452409855981614
 30
0.0
  0
POINT
  5
132E
  8
DEFPOINTS
 62
     0
 10
1500.4078162053219785
 20
-684.4452409855981614
 30
0.0
  0
ENDBLK
  5
11ED
  8
0
  0
BLOCK
  8
0
  2
*D58
 70
     1
 10
0.0
 20
0.0
 30
0.0
  3
*D58
  1

  0
LINE
  5
132F
  8
SUNPOU
 62
     0
 10
1573.5798009788929903
 20
-697.8318178376686092
 30
0.0
 11
1560.0798009788888976
 21
-697.8318178376683818
 31
0.0
  0
LINE
  5
1330
  8
SUNPOU
 62
     0
 10
1560.0798009788888976
 20
-697.8318178376683818
 30
0.0
 11
1548.6956998859920986
 21
-672.2321055019804135
 31
0.0
  0
INSERT
  5
1331
  8
1外形線
  2
*U117
 10
0.0
 20
0.0
 30
0.0
  0
INSERT
  5
1332
  8
SUNPOU
 62
     0
  2
Y2
 10
1547.8830384133589178
 20
-670.4046533600906059
 30
0.0
 41
2.0
 42
2.0
 43
2.0
 50
113.974544840838405
  0
POINT
  5
1333
  8
DEFPOINTS
 62
     0
 10
1547.8830384133589178
 20
-670.4046533600906059
 30
0.0
  0
POINT
  5
1334
  8
DEFPOINTS
 62
     0
 10
1547.4563911402260601
 20
-669.4452409855981614
 30
0.0
  0
ENDBLK
  5
11FA
  8
0
  0
BLOCK
  8
0
  2
*D59
 70
     1
 10
0.0
 20
0.0
 30
0.0
  3
*D59
  1

  0
LINE
  5
1335
  8
2寸法線
 62
     0
 10
1570.5688911402269241
 20
-684.4452409855981614
 30
0.0
 11
1599.1946961297180678
 21
-684.4452409855981614
 31
0.0
  0
LINE
  5
1336
  8
2寸法線
 62
     0
 10
1551.5688911402269241
 20
-669.4452409855981614
 30
0.0
 11
1599.1946961297180678
 21
-669.4452409855981614
 31
0.0
  0
LINE
  5
1337
  8
2寸法線
 62
     0
 10
1599.0146961297180042
 20
-686.4452409855981614
 30
0.0
 11
1599.0146961297180042
 21
-688.4452409855981614
 31
0.0
  0
LINE
  5
1338
  8
2寸法線
 62
     0
 10
1599.0146961297180042
 20
-667.4452409855981614
 30
0.0
 11
1599.0146961297180042
 21
-665.4452409855981614
 31
0.0
  0
LINE
  5
1339
  8
2寸法線
 62
     0
 10
1599.0146961297180042
 20
-684.4452409855981614
 30
0.0
 11
1599.0146961297180042
 21
-681.6833362236933453
 31
0.0
  0
LINE
  5
133A
  8
2寸法線
 62
     0
 10
1599.0146961297180042
 20
-669.4452409855981614
 30
0.0
 11
1599.0146961297180042
 21
-672.2071457475029774
 31
0.0
  0
SOLID
  5
133B
  8
2寸法線
 62
     0
 10
1598.681362796384974
 20
-686.4452409855981614
 30
0.0
 11
1599.3480294630510343
 21
-686.4452409855981614
 31
0.0
 12
1599.0146961297180042
 22
-684.4452409855981614
 32
0.0
 13
1599.0146961297180042
 23
-684.4452409855981614
 33
0.0
  0
SOLID
  5
133C
  8
2寸法線
 62
     0
 10
1598.681362796384974
 20
-667.4452409855981614
 30
0.0
 11
1599.3480294630510343
 21
-667.4452409855981614
 31
0.0
 12
1599.0146961297180042
 22
-669.4452409855981614
 32
0.0
 13
1599.0146961297180042
 23
-669.4452409855981614
 33
0.0
  0
INSERT
  5
133D
  8
1外形線
  2
*U118
 10
0.0
 20
0.0
 30
0.0
  0
POINT
  5
133E
  8
DEFPOINTS
 62
     0
 10
1570.5063911402269241
 20
-684.4452409855981614
 30
0.0
  0
POINT
  5
133F
  8
DEFPOINTS
 62
     0
 10
1551.5063911402269241
 20
-669.4452409855981614
 30
0.0
  0
POINT
  5
1340
  8
DEFPOINTS
 62
     0
 10
1599.0146961297180042
 20
-669.4452409855981614
 30
0.0
  0
ENDBLK
  5
1203
  8
0
  0
BLOCK
  8
0
  2
*D60
 70
     1
 10
0.0
 20
0.0
 30
0.0
  3
*D60
  1

  0
LINE
  5
1341
  8
SUNPOU
 62
     0
 10
1548.7205335712540091
 20
-581.1695529782613221
 30
0.0
 11
1549.5494794276660286
 21
-579.3494296947613975
 31
0.0
  0
INSERT
  5
1342
  8
1外形線
  2
*U119
 10
0.0
 20
0.0
 30
0.0
  0
SOLID
  5
1343
  8
SUNPOU
 62
     0
 10
1548.4171796906709915
 20
-581.0313953355260992
 30
0.0
 11
1549.0238874518370267
 21
-581.307710620996545
 31
0.0
 12
1547.891587714842899
 22
-582.989676261761133
 32
0.0
 13
1547.891587714842899
 23
-582.989676261761133
 33
0.0
  0
LINE
  5
1344
  8
SUNPOU
 62
     0
 10
1547.3663911402259146
 20
-583.9452409855987298
 30
0.0
 11
1547.5463911402259782
 21
-583.9452409855987298
 31
0.0
  0
LINE
  5
1345
  8
SUNPOU
 62
     0
 10
1547.4563911402269696
 20
-584.0352409855987617
 30
0.0
 11
1547.4563911402269696
 21
-583.855240985598698
 31
0.0
  0
POINT
  5
1346
  8
DEFPOINTS
 62
     0
 10
1547.891587714842899
 20
-582.989676261761133
 30
0.0
  0
POINT
  5
1347
  8
DEFPOINTS
 62
     0
 10
1547.4563911402269696
 20
-583.9452409855987298
 30
0.0
  0
ENDBLK
  5
1212
  8
0
  0
BLOCK
  8
0
  2
*D61
 70
     1
 10
0.0
 20
0.0
 30
0.0
  3
*D61
  1

  0
LINE
  5
1348
  8
2寸法線
 62
     0
 10
1551.5688911402269241
 20
-583.9452409855981614
 30
0.0
 11
1599.1946961297189773
 21
-583.9452409855981614
 31
0.0
  0
LINE
  5
1349
  8
2寸法線
 62
     0
 10
1551.5688911402269241
 20
-669.4452409855981614
 30
0.0
 11
1599.1946961297189773
 21
-669.4452409855981614
 31
0.0
  0
LINE
  5
134A
  8
2寸法線
 62
     0
 10
1599.0146961297180042
 20
-585.9452409855982751
 30
0.0
 11
1599.0146961297180042
 21
-621.2904790808363487
 31
0.0
  0
LINE
  5
134B
  8
2寸法線
 62
     0
 10
1599.0146961297180042
 20
-667.4452409855981614
 30
0.0
 11
1599.0146961297180042
 21
-632.1000028903600878
 31
0.0
  0
SOLID
  5
134C
  8
2寸法線
 62
     0
 10
1598.681362796384974
 20
-585.9452409855982751
 30
0.0
 11
1599.3480294630519438
 21
-585.9452409855982751
 31
0.0
 12
1599.0146961297180042
 22
-583.9452409855981614
 32
0.0
 13
1599.0146961297180042
 23
-583.9452409855981614
 33
0.0
  0
SOLID
  5
134D
  8
2寸法線
 62
     0
 10
1598.681362796384974
 20
-667.4452409855981614
 30
0.0
 11
1599.3480294630519438
 21
-667.4452409855981614
 31
0.0
 12
1599.0146961297180042
 22
-669.4452409855981614
 32
0.0
 13
1599.0146961297180042
 23
-669.4452409855981614
 33
0.0
  0
INSERT
  5
134E
  8
1外形線
  2
*U120
 10
0.0
 20
0.0
 30
0.0
  0
POINT
  5
134F
  8
DEFPOINTS
 62
     0
 10
1551.5063911402260146
 20
-583.9452409855981614
 30
0.0
  0
POINT
  5
1350
  8
DEFPOINTS
 62
     0
 10
1551.5063911402269241
 20
-669.4452409855981614
 30
0.0
  0
POINT
  5
1351
  8
DEFPOINTS
 62
     0
 10
1599.0146961297180042
 20
-669.4452409855981614
 30
0.0
  0
ENDBLK
  5
121C
  8
0
  0
BLOCK
  8
0
  2
*D62
 70
     1
 10
0.0
 20
0.0
 30
0.0
  3
*D62
  1

  0
LINE
  5
1352
  8
2寸法線
 62
     0
 10
1325.3654104512149843
 20
-728.8431229855198126
 30
0.0
 11
1357.814847476264049
 21
-728.8431229855198126
 31
0.0
  0
LINE
  5
1353
  8
2寸法線
 62
     0
 10
1343.6559630530171034
 20
-765.1431229855196534
 30
0.0
 11
1357.814847476264049
 21
-765.1431229855196534
 31
0.0
  0
LINE
  5
1354
  8
2寸法線
 62
     0
 10
1357.6348474762639853
 20
-730.8431229855198126
 30
0.0
 11
1357.6348474762639853
 21
-742.2550277474246059
 31
0.0
  0
LINE
  5
1355
  8
2寸法線
 62
     0
 10
1357.6348474762639853
 20
-763.1431229855197671
 30
0.0
 11
1357.6348474762639853
 21
-751.7312182236149738
 31
0.0
  0
SOLID
  5
1356
  8
2寸法線
 62
     0
 10
1357.3015141429309551
 20
-730.8431229855198126
 30
0.0
 11
1357.968180809597925
 21
-730.8431229855198126
 31
0.0
 12
1357.6348474762639853
 22
-728.8431229855198126
 32
0.0
 13
1357.6348474762639853
 23
-728.8431229855198126
 33
0.0
  0
SOLID
  5
1357
  8
2寸法線
 62
     0
 10
1357.3015141429309551
 20
-763.1431229855197671
 30
0.0
 11
1357.968180809597925
 21
-763.1431229855197671
 31
0.0
 12
1357.6348474762639853
 22
-765.1431229855196534
 32
0.0
 13
1357.6348474762639853
 23
-765.1431229855196534
 33
0.0
  0
INSERT
  5
1358
  8
1外形線
  2
*U121
 10
0.0
 20
0.0
 30
0.0
  0
POINT
  5
1359
  8
DEFPOINTS
 62
     0
 10
1325.3029104512149843
 20
-728.8431229855198126
 30
0.0
  0
POINT
  5
135A
  8
DEFPOINTS
 62
     0
 10
1343.5934630530171034
 20
-765.1431229855196534
 30
0.0
  0
POINT
  5
135B
  8
DEFPOINTS
 62
     0
 10
1357.6348474762639853
 20
-765.1431229855196534
 30
0.0
  0
ENDBLK
  5
1229
  8
0
  0
BLOCK
  8
0
  2
*D63
 70
     1
 10
0.0
 20
0.0
 30
0.0
  3
*D63
  1

  0
LINE
  5
135C
  8
2寸法線
 62
     0
 10
1290.0434478202118953
 20
-745.4306229855194488
 30
0.0
 11
1290.0434478202118953
 21
-709.5968366549385564
 31
0.0
  0
LINE
  5
135D
  8
2寸法線
 62
     0
 10
1337.1434782858209473
 20
-745.4306229855194488
 30
0.0
 11
1337.1434782858209473
 21
-709.5968366549385564
 31
0.0
  0
LINE
  5
135E
  8
2寸法線
 62
     0
 10
1292.0434478202118953
 20
-709.7768366549383927
 30
0.0
 11
1308.7601297196829364
 21
-709.7768366549383927
 31
0.0
  0
LINE
  5
135F
  8
2寸法線
 62
     0
 10
1335.1434782858209473
 20
-709.7768366549383927
 30
0.0
 11
1318.4267963863499062
 21
-709.7768366549383927
 31
0.0
  0
SOLID
  5
1360
  8
2寸法線
 62
     0
 10
1292.0434478202118953
 20
-709.4435033216051352
 30
0.0
 11
1292.0434478202118953
 21
-710.1101699882717639
 31
0.0
 12
1290.0434478202118953
 22
-709.7768366549383927
 32
0.0
 13
1290.0434478202118953
 23
-709.7768366549383927
 33
0.0
  0
SOLID
  5
1361
  8
2寸法線
 62
     0
 10
1335.1434782858209473
 20
-709.4435033216051352
 30
0.0
 11
1335.1434782858209473
 21
-710.1101699882717639
 31
0.0
 12
1337.1434782858209473
 22
-709.7768366549383927
 32
0.0
 13
1337.1434782858209473
 23
-709.7768366549383927
 33
0.0
  0
INSERT
  5
1362
  8
1外形線
  2
*U122
 10
0.0
 20
0.0
 30
0.0
  0
POINT
  5
1363
  8
DEFPOINTS
 62
     0
 10
1290.0434478202118953
 20
-745.4931229855194488
 30
0.0
  0
POINT
  5
1364
  8
DEFPOINTS
 62
     0
 10
1337.1434782858209473
 20
-745.4931229855194488
 30
0.0
  0
POINT
  5
1365
  8
DEFPOINTS
 62
     0
 10
1337.1434782858209473
 20
-709.7768366549383927
 30
0.0
  0
ENDBLK
  5
1236
  8
0
  0
BLOCK
  8
0
  2
*D64
 70
     1
 10
0.0
 20
0.0
 30
0.0
  3
*D64
  1

  0
LINE
  5
1366
  8
2寸法線
 62
     0
 10
806.2873158902143587
 20
-604.00329034609058
 30
0.0
 11
806.2873158902143587
 21
-564.0892796829882627
 31
0.0
  0
LINE
  5
1367
  8
2寸法線
 62
     0
 10
856.2873158902143587
 20
-604.00329034609058
 30
0.0
 11
856.2873158902143587
 21
-564.0892796829882627
 31
0.0
  0
LINE
  5
1368
  8
2寸法線
 62
     0
 10
808.2873158902143587
 20
-564.2692796829883264
 30
0.0
 11
818.3587444616430275
 21
-564.2692796829883264
 31
0.0
  0
LINE
  5
1369
  8
2寸法線
 62
     0
 10
854.287315890214245
 20
-564.2692796829883264
 30
0.0
 11
844.2158873187858035
 21
-564.2692796829883264
 31
0.0
  0
SOLID
  5
136A
  8
2寸法線
 62
     0
 10
808.2873158902143587
 20
-563.9359463496549552
 30
0.0
 11
808.2873158902143587
 21
-564.6026130163216976
 31
0.0
 12
806.2873158902143587
 22
-564.2692796829883264
 32
0.0
 13
806.2873158902143587
 23
-564.2692796829883264
 33
0.0
  0
SOLID
  5
136B
  8
2寸法線
 62
     0
 10
854.287315890214245
 20
-563.9359463496549552
 30
0.0
 11
854.287315890214245
 21
-564.6026130163216976
 31
0.0
 12
856.2873158902143587
 22
-564.2692796829883264
 32
0.0
 13
856.2873158902143587
 23
-564.2692796829883264
 33
0.0
  0
INSERT
  5
136C
  8
1外形線
  2
*U123
 10
0.0
 20
0.0
 30
0.0
  0
POINT
  5
136D
  8
DEFPOINTS
 62
     0
 10
806.2873158902143587
 20
-604.0657903460904663
 30
0.0
  0
POINT
  5
136E
  8
DEFPOINTS
 62
     0
 10
856.2873158902143587
 20
-604.0657903460904663
 30
0.0
  0
POINT
  5
136F
  8
DEFPOINTS
 62
     0
 10
856.2873158902143587
 20
-564.2692796829883264
 30
0.0
  0
ENDBLK
  5
1243
  8
0
  0
BLOCK
  8
0
  2
*D65
 70
     1
 10
0.0
 20
0.0
 30
0.0
  3
*D65
  1

  0
LINE
  5
1370
  8
2寸法線
 62
     0
 10
849.4498158902146088
 20
-679.0657903460908074
 30
0.0
 11
874.9460895960684184
 21
-679.0657903460908074
 31
0.0
  0
LINE
  5
1371
  8
2寸法線
 62
     0
 10
837.3498158902156092
 20
-585.0657903460906937
 30
0.0
 11
874.9460895960684184
 21
-585.0657903460906937
 31
0.0
  0
LINE
  5
1372
  8
2寸法線
 62
     0
 10
874.7660895960683547
 20
-677.0657903460906937
 30
0.0
 11
874.7660895960683547
 21
-644.9943617746622522
 31
0.0
  0
LINE
  5
1373
  8
2寸法線
 62
     0
 10
874.7660895960683547
 20
-587.0657903460908074
 30
0.0
 11
874.7660895960683547
 21
-619.1372189175193625
 31
0.0
  0
SOLID
  5
1374
  8
2寸法線
 62
     0
 10
874.4327562627350972
 20
-677.0657903460906937
 30
0.0
 11
875.0994229294018396
 21
-677.0657903460906937
 31
0.0
 12
874.7660895960683547
 22
-679.0657903460908074
 32
0.0
 13
874.7660895960683547
 23
-679.0657903460908074
 33
0.0
  0
SOLID
  5
1375
  8
2寸法線
 62
     0
 10
874.4327562627350972
 20
-587.0657903460908074
 30
0.0
 11
875.0994229294018396
 21
-587.0657903460908074
 31
0.0
 12
874.7660895960683547
 22
-585.0657903460906937
 32
0.0
 13
874.7660895960683547
 23
-585.0657903460906937
 33
0.0
  0
INSERT
  5
1376
  8
1外形線
  2
*U124
 10
0.0
 20
0.0
 30
0.0
  0
POINT
  5
1377
  8
DEFPOINTS
 62
     0
 10
849.3873158902147225
 20
-679.0657903460908074
 30
0.0
  0
POINT
  5
1378
  8
DEFPOINTS
 62
     0
 10
837.2873158902157229
 20
-585.0657903460906937
 30
0.0
  0
POINT
  5
1379
  8
DEFPOINTS
 62
     0
 10
874.7660895960683547
 20
-585.0657903460906937
 30
0.0
  0
ENDBLK
  5
1250
  8
0
  0
BLOCK
  8
0
  2
*D66
 70
     1
 10
0.0
 20
0.0
 30
0.0
  3
*D66
  1

  0
LINE
  5
137A
  8
2寸法線
 62
     0
 10
856.349815890214245
 20
-754.3943345945954206
 30
0.0
 11
874.9460895960686457
 21
-754.3943345945954206
 31
0.0
  0
LINE
  5
137B
  8
2寸法線
 62
     0
 10
838.4729215158323541
 20
-723.0943345945952387
 30
0.0
 11
874.9460895960686457
 21
-723.0943345945952387
 31
0.0
  0
LINE
  5
137C
  8
2寸法線
 62
     0
 10
874.7660895960685821
 20
-752.3943345945954206
 30
0.0
 11
874.7660895960685821
 21
-746.3395726898332896
 31
0.0
  0
LINE
  5
137D
  8
2寸法線
 62
     0
 10
874.7660895960685821
 20
-725.0943345945952387
 30
0.0
 11
874.7660895960685821
 21
-731.1490964993572561
 31
0.0
  0
SOLID
  5
137E
  8
2寸法線
 62
     0
 10
874.4327562627352108
 20
-752.3943345945954206
 30
0.0
 11
875.0994229294019533
 21
-752.3943345945954206
 31
0.0
 12
874.7660895960685821
 22
-754.3943345945954206
 32
0.0
 13
874.7660895960685821
 23
-754.3943345945954206
 33
0.0
  0
SOLID
  5
137F
  8
2寸法線
 62
     0
 10
874.4327562627352108
 20
-725.0943345945952387
 30
0.0
 11
875.0994229294019533
 21
-725.0943345945952387
 31
0.0
 12
874.7660895960685821
 22
-723.0943345945952387
 32
0.0
 13
874.7660895960685821
 23
-723.0943345945952387
 33
0.0
  0
INSERT
  5
1380
  8
1外形線
  2
*U125
 10
0.0
 20
0.0
 30
0.0
  0
POINT
  5
1381
  8
DEFPOINTS
 62
     0
 10
856.2873158902143587
 20
-754.3943345945954206
 30
0.0
  0
POINT
  5
1382
  8
DEFPOINTS
 62
     0
 10
838.4104215158322404
 20
-723.0943345945952387
 30
0.0
  0
POINT
  5
1383
  8
DEFPOINTS
 62
     0
 10
874.7660895960685821
 20
-723.0943345945952387
 30
0.0
  0
ENDBLK
  5
125D
  8
0
  0
BLOCK
  8
0
  2
*D67
 70
     1
 10
0.0
 20
0.0
 30
0.0
  3
*D67
  1

  0
LINE
  5
1384
  8
2寸法線
 62
     0
 10
960.0462704411273762
 20
-585.0032903460901252
 30
0.0
 11
960.0462704411273762
 21
-564.0892796829882627
 31
0.0
  0
LINE
  5
1385
  8
2寸法線
 62
     0
 10
921.5462704411273762
 20
-607.6301847204722435
 30
0.0
 11
921.5462704411273762
 21
-564.0892796829882627
 31
0.0
  0
LINE
  5
1386
  8
2寸法線
 62
     0
 10
958.0462704411273762
 20
-564.2692796829883264
 30
0.0
 11
952.20103234588953
 21
-564.2692796829883264
 31
0.0
  0
LINE
  5
1387
  8
2寸法線
 62
     0
 10
923.5462704411273762
 20
-564.2692796829883264
 30
0.0
 11
929.3915085363654498
 21
-564.2692796829883264
 31
0.0
  0
SOLID
  5
1388
  8
2寸法線
 62
     0
 10
958.0462704411273762
 20
-563.9359463496549552
 30
0.0
 11
958.0462704411273762
 21
-564.6026130163216976
 31
0.0
 12
960.0462704411273762
 22
-564.2692796829883264
 32
0.0
 13
960.0462704411273762
 23
-564.2692796829883264
 33
0.0
  0
SOLID
  5
1389
  8
2寸法線
 62
     0
 10
923.5462704411273762
 20
-563.9359463496549552
 30
0.0
 11
923.5462704411273762
 21
-564.6026130163216976
 31
0.0
 12
921.5462704411273762
 22
-564.2692796829883264
 32
0.0
 13
921.5462704411273762
 23
-564.2692796829883264
 33
0.0
  0
INSERT
  5
138A
  8
1外形線
  2
*U126
 10
0.0
 20
0.0
 30
0.0
  0
POINT
  5
138B
  8
DEFPOINTS
 62
     0
 10
960.0462704411273762
 20
-585.0657903460901252
 30
0.0
  0
POINT
  5
138C
  8
DEFPOINTS
 62
     0
 10
921.5462704411273762
 20
-607.6926847204722435
 30
0.0
  0
POINT
  5
138D
  8
DEFPOINTS
 62
     0
 10
921.5462704411273762
 20
-564.2692796829883264
 30
0.0
  0
ENDBLK
  5
126A
  8
0
  0
BLOCK
  8
0
  2
*D68
 70
     1
 10
0.0
 20
0.0
 30
0.0
  3
*D68
  1

  0
LINE
  5
138E
  8
SUNPOU
 62
     0
 10
1047.4954353157820606
 20
-585.5506059010494937
 30
0.0
 11
1047.7967628541130125
 21
-583.573435773153733
 31
0.0
  0
INSERT
  5
138F
  8
1外形線
  2
*U127
 10
0.0
 20
0.0
 30
0.0
  0
SOLID
  5
1390
  8
SUNPOU
 62
     0
 10
1047.1659069611318955
 20
-585.5003846446609259
 30
0.0
 11
1047.8249636704310888
 21
-585.6008271574379478
 31
0.0
 12
1047.1941077774499718
 22
-587.5277760289451408
 32
0.0
 13
1047.1941077774499718
 23
-587.5277760289451408
 33
0.0
  0
LINE
  5
1391
  8
SUNPOU
 62
     0
 10
1046.9459108198270769
 20
-588.5657903460908074
 30
0.0
 11
1047.1259108198269132
 21
-588.5657903460908074
 31
0.0
  0
LINE
  5
1392
  8
SUNPOU
 62
     0
 10
1047.0359108198269951
 20
-588.6557903460909529
 30
0.0
 11
1047.0359108198269951
 21
-588.4757903460906618
 31
0.0
  0
POINT
  5
1393
  8
DEFPOINTS
 62
     0
 10
1047.1941077774499718
 20
-587.5277760289451408
 30
0.0
  0
POINT
  5
1394
  8
DEFPOINTS
 62
     0
 10
1047.0359108198269951
 20
-588.5657903460908074
 30
0.0
  0
ENDBLK
  5
1277
  8
0
  0
BLOCK
  8
0
  2
*D69
 70
     1
 10
0.0
 20
0.0
 30
0.0
  3
*D69
  1

  0
LINE
  5
1395
  8
2寸法線
 62
     0
 10
1029.5359108198269951
 20
-608.7532903460901252
 30
0.0
 11
1029.5359108198269951
 21
-564.0892796829882627
 31
0.0
  0
LINE
  5
1396
  8
2寸法線
 62
     0
 10
1064.5359108198269951
 20
-608.7532903460901252
 30
0.0
 11
1064.5359108198269951
 21
-564.0892796829882627
 31
0.0
  0
LINE
  5
1397
  8
2寸法線
 62
     0
 10
1031.5359108198269951
 20
-564.2692796829883264
 30
0.0
 11
1035.6311489150650686
 21
-564.2692796829883264
 31
0.0
  0
LINE
  5
1398
  8
2寸法線
 62
     0
 10
1062.5359108198269951
 20
-564.2692796829883264
 30
0.0
 11
1058.4406727245889215
 21
-564.2692796829883264
 31
0.0
  0
SOLID
  5
1399
  8
2寸法線
 62
     0
 10
1031.5359108198269951
 20
-563.9359463496549552
 30
0.0
 11
1031.5359108198269951
 21
-564.6026130163216976
 31
0.0
 12
1029.5359108198269951
 22
-564.2692796829883264
 32
0.0
 13
1029.5359108198269951
 23
-564.2692796829883264
 33
0.0
  0
SOLID
  5
139A
  8
2寸法線
 62
     0
 10
1062.5359108198269951
 20
-563.9359463496549552
 30
0.0
 11
1062.5359108198269951
 21
-564.6026130163216976
 31
0.0
 12
1064.5359108198269951
 22
-564.2692796829883264
 32
0.0
 13
1064.5359108198269951
 23
-564.2692796829883264
 33
0.0
  0
INSERT
  5
139B
  8
1外形線
  2
*U128
 10
0.0
 20
0.0
 30
0.0
  0
POINT
  5
139C
  8
DEFPOINTS
 62
     0
 10
1029.5359108198269951
 20
-608.8157903460901252
 30
0.0
  0
POINT
  5
139D
  8
DEFPOINTS
 62
     0
 10
1064.5359108198269951
 20
-608.8157903460901252
 30
0.0
  0
POINT
  5
139E
  8
DEFPOINTS
 62
     0
 10
1064.5359108198269951
 20
-564.2692796829883264
 30
0.0
  0
ENDBLK
  5
1281
  8
0
  0
BLOCK
  8
0
  2
*D70
 70
     1
 10
0.0
 20
0.0
 30
0.0
  3
*D70
  1

  0
LINE
  5
139F
  8
2寸法線
 62
     0
 10
1065.1984108198269041
 20
-679.0657903460908074
 30
0.0
 11
1093.6327338552530364
 21
-679.0657903460908074
 31
0.0
  0
LINE
  5
13A0
  8
2寸法線
 62
     0
 10
1093.5152338552520632
 20
-665.3157903460908074
 30
0.0
 11
1093.6327338552530364
 21
-665.3157903460908074
 31
0.0
  0
LINE
  5
13A1
  8
2寸法線
 62
     0
 10
1093.4527338552529727
 20
-677.0657903460906937
 30
0.0
 11
1093.4527338552529727
 21
-667.3157903460908074
 31
0.0
  0
INSERT
  5
13A2
  8
1外形線
  2
*U129
 10
0.0
 20
0.0
 30
0.0
  0
SOLID
  5
13A3
  8
2寸法線
 62
     0
 10
1093.1194005219199425
 20
-677.0657903460906937
 30
0.0
 11
1093.7860671885860029
 21
-677.0657903460906937
 31
0.0
 12
1093.4527338552529727
 22
-679.0657903460908074
 32
0.0
 13
1093.4527338552529727
 23
-679.0657903460908074
 33
0.0
  0
SOLID
  5
13A4
  8
2寸法線
 62
     0
 10
1093.1194005219199425
 20
-667.3157903460908074
 30
0.0
 11
1093.7860671885860029
 21
-667.3157903460908074
 31
0.0
 12
1093.4527338552529727
 22
-665.3157903460908074
 32
0.0
 13
1093.4527338552529727
 23
-665.3157903460908074
 33
0.0
  0
POINT
  5
13A5
  8
DEFPOINTS
 62
     0
 10
1065.1359108198269041
 20
-679.0657903460908074
 30
0.0
  0
POINT
  5
13A6
  8
DEFPOINTS
 62
     0
 10
1093.4527338552520632
 20
-665.3157903460908074
 30
0.0
  0
POINT
  5
13A7
  8
DEFPOINTS
 62
     0
 10
1093.4527338552529727
 20
-665.3157903460908074
 30
0.0
  0
ENDBLK
  5
128E
  8
0
  0
BLOCK
  8
0
  2
*D71
 70
     1
 10
0.0
 20
0.0
 30
0.0
  3
*D71
  1

  0
LINE
  5
13A8
  8
2寸法線
 62
     0
 10
1051.1484108198269496
 20
-665.3157903460908074
 30
0.0
 11
1093.6327338552530364
 21
-665.3157903460908074
 31
0.0
  0
LINE
  5
13A9
  8
2寸法線
 62
     0
 10
1051.1484108198269496
 20
-588.5657903460903526
 30
0.0
 11
1093.6327338552530364
 21
-588.5657903460903526
 31
0.0
  0
LINE
  5
13AA
  8
2寸法線
 62
     0
 10
1093.4527338552529727
 20
-663.3157903460908074
 30
0.0
 11
1093.4527338552529727
 21
-639.8693617746615701
 31
0.0
  0
LINE
  5
13AB
  8
2寸法線
 62
     0
 10
1093.4527338552529727
 20
-590.5657903460903526
 30
0.0
 11
1093.4527338552529727
 21
-614.0122189175186804
 31
0.0
  0
INSERT
  5
13AC
  8
1外形線
  2
*U130
 10
0.0
 20
0.0
 30
0.0
  0
SOLID
  5
13AD
  8
2寸法線
 62
     0
 10
1093.1194005219190331
 20
-663.3157903460908074
 30
0.0
 11
1093.7860671885860029
 21
-663.3157903460908074
 31
0.0
 12
1093.4527338552529727
 22
-665.3157903460908074
 32
0.0
 13
1093.4527338552529727
 23
-665.3157903460908074
 33
0.0
  0
SOLID
  5
13AE
  8
2寸法線
 62
     0
 10
1093.1194005219190331
 20
-590.5657903460903526
 30
0.0
 11
1093.7860671885860029
 21
-590.5657903460903526
 31
0.0
 12
1093.4527338552529727
 22
-588.5657903460903526
 32
0.0
 13
1093.4527338552529727
 23
-588.5657903460903526
 33
0.0
  0
POINT
  5
13AF
  8
DEFPOINTS
 62
     0
 10
1051.0859108198269496
 20
-665.3157903460908074
 30
0.0
  0
POINT
  5
13B0
  8
DEFPOINTS
 62
     0
 10
1051.0859108198269496
 20
-588.5657903460903526
 30
0.0
  0
POINT
  5
13B1
  8
DEFPOINTS
 62
     0
 10
1093.4527338552529727
 20
-588.5657903460903526
 30
0.0
  0
ENDBLK
  5
129A
  8
0
  0
BLOCK
  8
0
  2
*D72
 70
     1
 10
0.0
 20
0.0
 30
0.0
  3
*D72
  1

  0
LINE
  5
13B2
  8
2寸法線
 62
     0
 10
1028.8734108198279955
 20
-679.0657903460908074
 30
0.0
 11
1005.882425869079043
 21
-679.0657903460908074
 31
0.0
  0
LINE
  5
13B3
  8
2寸法線
 62
     0
 10
1006.1249258690779698
 20
-645.3157903460906937
 30
0.0
 11
1006.2424258690780334
 21
-645.3157903460906937
 31
0.0
  0
LINE
  5
13B4
  8
2寸法線
 62
     0
 10
1006.0624258690779698
 20
-677.0657903460906937
 30
0.0
 11
1006.0624258690779698
 21
-673.5955522508527338
 31
0.0
  0
LINE
  5
13B5
  8
2寸法線
 62
     0
 10
1006.0624258690779698
 20
-647.3157903460908074
 30
0.0
 11
1006.0624258690779698
 21
-650.7860284413288809
 31
0.0
  0
SOLID
  5
13B6
  8
2寸法線
 62
     0
 10
1005.7290925357450533
 20
-677.0657903460906937
 30
0.0
 11
1006.3957592024120231
 21
-677.0657903460906937
 31
0.0
 12
1006.0624258690779698
 22
-679.0657903460908074
 32
0.0
 13
1006.0624258690779698
 23
-679.0657903460908074
 33
0.0
  0
SOLID
  5
13B7
  8
2寸法線
 62
     0
 10
1005.7290925357450533
 20
-647.3157903460908074
 30
0.0
 11
1006.3957592024120231
 21
-647.3157903460908074
 31
0.0
 12
1006.0624258690779698
 22
-645.3157903460906937
 32
0.0
 13
1006.0624258690779698
 23
-645.3157903460906937
 33
0.0
  0
INSERT
  5
13B8
  8
1外形線
  2
*U131
 10
0.0
 20
0.0
 30
0.0
  0
POINT
  5
13B9
  8
DEFPOINTS
 62
     0
 10
1028.9359108198279955
 20
-679.0657903460908074
 30
0.0
  0
POINT
  5
13BA
  8
DEFPOINTS
 62
     0
 10
1006.0624258690779698
 20
-645.3157903460906937
 30
0.0
  0
POINT
  5
13BB
  8
DEFPOINTS
 62
     0
 10
1006.0624258690779698
 20
-645.3157903460906937
 30
0.0
  0
ENDBLK
  5
12A7
  8
0
  0
BLOCK
  8
0
  2
*D73
 70
     1
 10
0.0
 20
0.0
 30
0.0
  3
*D73
  1

  0
LINE
  5
13BC
  8
2寸法線
 62
     0
 10
1046.9734108198269951
 20
-645.3157903460906937
 30
0.0
 11
1005.882425869079043
 21
-645.3157903460906937
 31
0.0
  0
LINE
  5
13BD
  8
2寸法線
 62
     0
 10
1040.9734108198279046
 20
-597.3157903460903526
 30
0.0
 11
1005.882425869079043
 21
-597.3157903460903526
 31
0.0
  0
LINE
  5
13BE
  8
2寸法線
 62
     0
 10
1006.0624258690779698
 20
-643.3157903460908074
 30
0.0
 11
1006.0624258690779698
 21
-632.7205522508525064
 31
0.0
  0
LINE
  5
13BF
  8
2寸法線
 62
     0
 10
1006.0624258690779698
 20
-599.3157903460903526
 30
0.0
 11
1006.0624258690779698
 21
-609.9110284413286536
 31
0.0
  0
SOLID
  5
13C0
  8
2寸法線
 62
     0
 10
1005.7290925357450533
 20
-643.3157903460908074
 30
0.0
 11
1006.3957592024120231
 21
-643.3157903460908074
 31
0.0
 12
1006.0624258690779698
 22
-645.3157903460906937
 32
0.0
 13
1006.0624258690779698
 23
-645.3157903460906937
 33
0.0
  0
SOLID
  5
13C1
  8
2寸法線
 62
     0
 10
1005.7290925357450533
 20
-599.3157903460903526
 30
0.0
 11
1006.3957592024120231
 21
-599.3157903460903526
 31
0.0
 12
1006.0624258690779698
 22
-597.3157903460903526
 32
0.0
 13
1006.0624258690779698
 23
-597.3157903460903526
 33
0.0
  0
INSERT
  5
13C2
  8
1外形線
  2
*U132
 10
0.0
 20
0.0
 30
0.0
  0
POINT
  5
13C3
  8
DEFPOINTS
 62
     0
 10
1047.0359108198269951
 20
-645.3157903460906937
 30
0.0
  0
POINT
  5
13C4
  8
DEFPOINTS
 62
     0
 10
1041.0359108198269951
 20
-597.3157903460903526
 30
0.0
  0
POINT
  5
13C5
  8
DEFPOINTS
 62
     0
 10
1006.0624258690779698
 20
-597.3157903460903526
 30
0.0
  0
ENDBLK
  5
12B4
  8
0
  0
BLOCK
  8
0
  2
*D74
 70
     1
 10
0.0
 20
0.0
 30
0.0
  3
*D74
  1

  0
LINE
  5
13C6
  8
SUNPOU
 62
     0
 10
1048.3130290419148878
 20
-668.0855320392477097
 30
0.0
 11
1049.1504836137760321
 21
-669.9017561003340688
 31
0.0
  0
INSERT
  5
13C7
  8
1外形線
  2
*U133
 10
0.0
 20
0.0
 30
0.0
  0
SOLID
  5
13C8
  8
SUNPOU
 62
     0
 10
1048.6157330520959476
 20
-667.9459562772708523
 30
0.0
 11
1048.0103250317340553
 21
-668.2251078012244534
 31
0.0
 12
1047.4755744700539708
 22
-666.2693079781613505
 32
0.0
 13
1047.4755744700539708
 23
-666.2693079781613505
 33
0.0
  0
LINE
  5
13C9
  8
SUNPOU
 62
     0
 10
1046.9459108198270769
 20
-665.3157903460910347
 30
0.0
 11
1047.1259108198269132
 21
-665.3157903460910347
 31
0.0
  0
LINE
  5
13CA
  8
SUNPOU
 62
     0
 10
1047.0359108198269951
 20
-665.4057903460911803
 30
0.0
 11
1047.0359108198269951
 21
-665.2257903460908892
 31
0.0
  0
POINT
  5
13CB
  8
DEFPOINTS
 62
     0
 10
1047.4755744700539708
 20
-666.2693079781613505
 30
0.0
  0
POINT
  5
13CC
  8
DEFPOINTS
 62
     0
 10
1047.0359108198269951
 20
-665.3157903460908074
 30
0.0
  0
ENDBLK
  5
12C1
  8
0
  0
BLOCK
  8
0
  2
*D75
 70
     1
 10
0.0
 20
0.0
 30
0.0
  3
*D75
  1

  0
LINE
  5
13CD
  8
2寸法線
 62
     0
 10
959.1087704411279447
 20
-671.5657903460908074
 30
0.0
 11
969.2921359878840804
 21
-671.5657903460908074
 31
0.0
  0
LINE
  5
13CE
  8
2寸法線
 62
     0
 10
959.6087704411279447
 20
-679.0657903460908074
 30
0.0
 11
969.2921359878840804
 21
-679.0657903460908074
 31
0.0
  0
LINE
  5
13CF
  8
2寸法線
 62
     0
 10
969.1121359878842441
 20
-673.5657903460908074
 30
0.0
 11
969.1121359878842441
 21
-677.0657903460906937
 31
0.0
  0
INSERT
  5
13D0
  8
1外形線
  2
*U134
 10
0.0
 20
0.0
 30
0.0
  0
SOLID
  5
13D1
  8
2寸法線
 62
     0
 10
968.7788026545507591
 20
-669.5657903460908074
 30
0.0
 11
969.4454693212176153
 21
-669.5657903460908074
 31
0.0
 12
969.1121359878842441
 22
-671.5657903460908074
 32
0.0
 13
969.1121359878842441
 23
-671.5657903460908074
 33
0.0
  0
LINE
  5
13D2
  8
2寸法線
 62
     0
 10
969.1121359878842441
 20
-669.5657903460908074
 30
0.0
 11
969.1121359878842441
 21
-667.5657903460908074
 31
0.0
  0
LINE
  5
13D3
  8
2寸法線
 62
     0
 10
969.1121359878842441
 20
-671.5657903460908074
 30
0.0
 11
969.1121359878842441
 21
-673.5657903460908074
 31
0.0
  0
SOLID
  5
13D4
  8
2寸法線
 62
     0
 10
968.7788026545507591
 20
-681.0657903460906937
 30
0.0
 11
969.4454693212176153
 21
-681.0657903460906937
 31
0.0
 12
969.1121359878842441
 22
-679.0657903460908074
 32
0.0
 13
969.1121359878842441
 23
-679.0657903460908074
 33
0.0
  0
LINE
  5
13D5
  8
2寸法線
 62
     0
 10
969.1121359878842441
 20
-681.0657903460906937
 30
0.0
 11
969.1121359878842441
 21
-683.0657903460908074
 31
0.0
  0
LINE
  5
13D6
  8
2寸法線
 62
     0
 10
969.1121359878842441
 20
-679.0657903460908074
 30
0.0
 11
969.1121359878842441
 21
-677.0657903460906937
 31
0.0
  0
POINT
  5
13D7
  8
DEFPOINTS
 62
     0
 10
959.0462704411279447
 20
-671.5657903460908074
 30
0.0
  0
POINT
  5
13D8
  8
DEFPOINTS
 62
     0
 10
959.5462704411279447
 20
-679.0657903460908074
 30
0.0
  0
POINT
  5
13D9
  8
DEFPOINTS
 62
     0
 10
969.1121359878842441
 20
-679.0657903460908074
 30
0.0
  0
ENDBLK
  5
12CB
  8
0
  0
BLOCK
  8
0
  2
*D76
 70
     1
 10
0.0
 20
0.0
 30
0.0
  3
*D76
  1

  0
LINE
  5
13DA
  8
2寸法線
 62
     0
 10
812.6873158902144496
 20
-735.1737947030454734
 30
0.0
 11
812.6873158902144496
 21
-705.73602264840315
 31
0.0
  0
LINE
  5
13DB
  8
2寸法線
 62
     0
 10
849.8873158902139267
 20
-735.1737947030453597
 30
0.0
 11
849.8873158902139267
 21
-705.73602264840315
 31
0.0
  0
LINE
  5
13DC
  8
2寸法線
 62
     0
 10
814.6873158902144496
 20
-705.9160226484031
 30
0.0
 11
823.6920777949760577
 21
-705.9160226484031
 31
0.0
  0
LINE
  5
13DD
  8
2寸法線
 62
     0
 10
847.8873158902139267
 20
-705.9160226484031
 30
0.0
 11
838.8825539854522049
 21
-705.9160226484031
 31
0.0
  0
INSERT
  5
13DE
  8
1外形線
  2
*U135
 10
0.0
 20
0.0
 30
0.0
  0
SOLID
  5
13DF
  8
2寸法線
 62
     0
 10
814.6873158902144496
 20
-705.5826893150698425
 30
0.0
 11
814.6873158902144496
 21
-706.2493559817364712
 31
0.0
 12
812.6873158902144496
 22
-705.9160226484031
 32
0.0
 13
812.6873158902144496
 23
-705.9160226484031
 33
0.0
  0
SOLID
  5
13E0
  8
2寸法線
 62
     0
 10
847.8873158902139267
 20
-705.5826893150698425
 30
0.0
 11
847.8873158902139267
 21
-706.2493559817364712
 31
0.0
 12
849.8873158902139267
 22
-705.9160226484031
 32
0.0
 13
849.8873158902139267
 23
-705.9160226484031
 33
0.0
  0
POINT
  5
13E1
  8
DEFPOINTS
 62
     0
 10
812.6873158902144496
 20
-735.2362947030455871
 30
0.0
  0
POINT
  5
13E2
  8
DEFPOINTS
 62
     0
 10
849.8873158902139267
 20
-735.236294703045246
 30
0.0
  0
POINT
  5
13E3
  8
DEFPOINTS
 62
     0
 10
849.8873158902139267
 20
-705.9160226484031
 30
0.0
  0
ENDBLK
  5
12DB
  8
0
  0
BLOCK
  8
0
  2
*U78
 70
     1
 10
0.0
 20
0.0
 30
0.0
  3
*U78
  1

  0
TEXT
  5
17EE
  8
2寸法線
 62
     1
 10
577.4465115049648603
 20
-1398.2076475612529975
 30
0.0
 40
4.0
  1
120
  7
KANJI
  0
ENDBLK
  5
17F0
  8
0
  0
BLOCK
  8
0
  2
*U79
 70
     1
 10
0.0
 20
0.0
 30
0.0
  3
*U79
  1

  0
TEXT
  5
17F2
  8
2寸法線
 62
     1
 10
630.7498006901156486
 20
-1474.2585985105160944
 30
0.0
 40
4.0
  1
208
 50
90.0
  7
KANJI
  0
ENDBLK
  5
17F4
  8
0
  0
BLOCK
  8
0
  2
*U80
 70
     1
 10
0.0
 20
0.0
 30
0.0
  3
*U80
  1

  0
TEXT
  5
17F6
  8
2寸法線
 62
     1
 10
695.8604779917337737
 20
-1398.2076475612529975
 30
0.0
 40
4.0
  1
84
  7
KANJI
  0
ENDBLK
  5
17F8
  8
0
  0
BLOCK
  8
0
  2
*U81
 70
     1
 10
0.0
 20
0.0
 30
0.0
  3
*U81
  1

  0
TEXT
  5
17FA
  8
2寸法線
 62
     1
 10
728.9148859783309717
 20
-1531.9600387419009166
 30
0.0
 40
4.0
  1
15
 50
90.0
  7
KANJI
  0
ENDBLK
  5
17FC
  8
0
  0
BLOCK
  8
0
  2
*U82
 70
     1
 10
0.0
 20
0.0
 30
0.0
  3
*U82
  1

  0
TEXT
  5
17FE
  8
2寸法線
 62
     1
 10
812.83324911598379
 20
-1398.2076475612529975
 30
0.0
 40
4.0
  1
90
  7
KANJI
  0
ENDBLK
  5
1800
  8
0
  0
BLOCK
  8
0
  2
*U83
 70
     1
 10
0.0
 20
0.0
 30
0.0
  3
*U83
  1

  0
TEXT
  5
1802
  8
2寸法線
 62
     1
 10
767.5227694191730734
 20
-1461.6966937486110965
 30
0.0
 40
4.0
  1
110
 50
90.0
  7
KANJI
  0
ENDBLK
  5
1804
  8
0
  0
BLOCK
  8
0
  2
*U84
 70
     1
 10
0.0
 20
0.0
 30
0.0
  3
*U84
  1

  0
TEXT
  5
1806
  8
2寸法線
 62
     1
 10
767.5227694191735281
 20
-1506.203836605754077
 30
0.0
 40
4.0
  1
73
 50
90.0
  7
KANJI
  0
ENDBLK
  5
1808
  8
0
  0
BLOCK
  8
0
  2
*U85
 70
     1
 10
0.0
 20
0.0
 30
0.0
  3
*U85
  1

  0
TEXT
  5
180A
  8
SUNPOU
 62
     0
 10
830.1947541927465863
 20
-1533.0023182197289771
 30
0.0
 40
4.0
  1
\U+22054.2
  7
KANJI
  0
ENDBLK
  5
180C
  8
0
  0
BLOCK
  8
0
  2
*U86
 70
     1
 10
0.0
 20
0.0
 30
0.0
  3
*U86
  1

  0
TEXT
  5
180E
  8
2寸法線
 62
     1
 10
866.1296493435694401
 20
-1516.8538366057539406
 30
0.0
 40
4.0
  1
30
 50
90.0
  7
KANJI
  0
ENDBLK
  5
1810
  8
0
  0
BLOCK
  8
0
  2
*U87
 70
     1
 10
0.0
 20
0.0
 30
0.0
  3
*U87
  1

  0
TEXT
  5
1812
  8
SUNPOU
 62
     0
 10
821.9265069970091417
 20
-1409.5530746765700769
 30
0.0
 40
4.0
  1
\U+22054.2
  7
KANJI
  0
ENDBLK
  5
1814
  8
0
  0
BLOCK
  8
0
  2
*U88
 70
     1
 10
0.0
 20
0.0
 30
0.0
  3
*U88
  1

  0
TEXT
  5
1816
  8
2寸法線
 62
     1
 10
866.1296493435698949
 20
-1467.2705032724209104
 30
0.0
 40
4.0
  1
171
 50
90.0
  7
KANJI
  0
ENDBLK
  5
1818
  8
0
  0
BLOCK
  8
0
  2
*U89
 70
     1
 10
0.0
 20
0.0
 30
0.0
  3
*U89
  1

  0
TEXT
  5
181A
  8
2寸法線
 62
     1
 10
624.7498006901164445
 20
-1586.9017186056748869
 30
0.0
 40
4.0
  1
73
 50
90.0
  7
KANJI
  0
ENDBLK
  5
181C
  8
0
  0
BLOCK
  8
0
  2
*U90
 70
     1
 10
0.0
 20
0.0
 30
0.0
  3
*U90
  1

  0
TEXT
  5
181E
  8
2寸法線
 62
     1
 10
578.8750829335364188
 20
-1544.947337036998988
 30
0.0
 40
4.0
  1
94
  7
KANJI
  0
ENDBLK
  5
1820
  8
0
  0
BLOCK
  8
0
  2
*U91
 70
     1
 10
0.0
 20
0.0
 30
0.0
  3
*U91
  1

  0
TEXT
  5
1822
  8
2寸法線
 62
     1
 10
93.8070310088293411
 20
-1541.0865230304630131
 30
0.0
 40
4.0
  1
74.5
  7
KANJI
  0
ENDBLK
  5
1824
  8
0
  0
BLOCK
  8
0
  2
*U92
 70
     1
 10
0.0
 20
0.0
 30
0.0
  3
*U92
  1

  0
TEXT
  5
1826
  8
2寸法線
 62
     1
 10
95.1403643421628544
 20
-1399.4397800650478985
 30
0.0
 40
4.0
  1
100
  7
KANJI
  0
ENDBLK
  5
1828
  8
0
  0
BLOCK
  8
0
  2
*U93
 70
     1
 10
0.0
 20
0.0
 30
0.0
  3
*U93
  1

  0
TEXT
  5
182A
  8
2寸法線
 62
     1
 10
141.8810428099208139
 20
-1473.498195490056105
 30
0.0
 40
4.0
  1
188
 50
90.0
  7
KANJI
  0
ENDBLK
  5
182C
  8
0
  0
BLOCK
  8
0
  2
*U94
 70
     1
 10
0.0
 20
0.0
 30
0.0
  3
*U94
  1

  0
TEXT
  5
182E
  8
2寸法線
 62
     1
 10
141.8810428099208139
 20
-1581.5100730718941122
 30
0.0
 40
4.0
  1
62.5
 50
90.0
  7
KANJI
  0
ENDBLK
  5
1830
  8
0
  0
BLOCK
  8
0
  2
*U95
 70
     1
 10
0.0
 20
0.0
 30
0.0
  3
*U95
  1

  0
TEXT
  5
1832
  8
2寸法線
 62
     1
 10
206.1731284168855041
 20
-1399.4397800650478985
 30
0.0
 40
4.0
  1
77
  7
KANJI
  0
ENDBLK
  5
1834
  8
0
  0
BLOCK
  8
0
  2
*U96
 70
     1
 10
0.0
 20
0.0
 30
0.0
  3
*U96
  1

  0
TEXT
  5
1836
  8
SUNPOU
 62
     0
 10
318.7136870335726258
 20
-1413.4817784200899951
 30
0.0
 40
4.0
  1
\U+22054.2
  7
KANJI
  0
ENDBLK
  5
1838
  8
0
  0
BLOCK
  8
0
  2
*U97
 70
     1
 10
0.0
 20
0.0
 30
0.0
  3
*U97
  1

  0
TEXT
  5
183A
  8
2寸法線
 62
     1
 10
312.4127687955851229
 20
-1399.4397800650478985
 30
0.0
 40
4.0
  1
70
  7
KANJI
  0
ENDBLK
  5
183C
  8
0
  0
BLOCK
  8
0
  2
*U98
 70
     1
 10
0.0
 20
0.0
 30
0.0
  3
*U98
  1

  0
TEXT
  5
183E
  8
2寸法線
 62
     1
 10
360.5676870691056024
 20
-1531.7082058873938877
 30
0.0
 40
4.0
  1
27.5
 50
90.0
  7
KANJI
  0
ENDBLK
  5
1840
  8
0
  0
BLOCK
  8
0
  2
*U99
 70
     1
 10
0.0
 20
0.0
 30
0.0
  3
*U99
  1

  0
TEXT
  5
1842
  8
2寸法線
 62
     1
 10
360.5676870691049203
 20
-1471.2303383471980851
 30
0.0
 40
4.0
  1
153.5
 50
90.0
  7
KANJI
  0
ENDBLK
  5
1844
  8
0
  0
BLOCK
  8
0
  2
*U100
 70
     1
 10
0.0
 20
0.0
 30
0.0
  3
*U100
  1

  0
TEXT
  5
1846
  8
2寸法線
 62
     1
 10
273.1773790829308268
 20
-1504.9565288233889078
 30
0.0
 40
4.0
  1
67.5
 50
90.0
  7
KANJI
  0
ENDBLK
  5
1848
  8
0
  0
BLOCK
  8
0
  2
*U101
 70
     1
 10
0.0
 20
0.0
 30
0.0
  3
*U101
  1

  0
TEXT
  5
184A
  8
2寸法線
 62
     1
 10
273.1773790829308268
 20
-1461.1291478710079446
 30
0.0
 40
4.0
  1
96
 50
90.0
  7
KANJI
  0
ENDBLK
  5
184C
  8
0
  0
BLOCK
  8
0
  2
*U102
 70
     1
 10
0.0
 20
0.0
 30
0.0
  3
*U102
  1

  0
TEXT
  5
184E
  8
SUNPOU
 62
     0
 10
328.0416123594947067
 20
-1524.1055290930760293
 30
0.0
 40
4.0
  1
\U+22054.2
  7
KANJI
  0
ENDBLK
  5
1850
  8
0
  0
BLOCK
  8
0
  2
*U103
 70
     1
 10
0.0
 20
0.0
 30
0.0
  3
*U103
  1

  0
TEXT
  5
1852
  8
2寸法線
 62
     1
 10
236.2270892017363053
 20
-1526.8843881418279125
 30
0.0
 40
4.0
  1
15
 50
90.0
  7
KANJI
  0
ENDBLK
  5
1854
  8
0
  0
BLOCK
  8
0
  2
*X104
 70
     1
 10
0.0
 20
0.0
 30
0.0
  3
*X104
  1

  0
LINE
  5
1856
  8
0
 62
     0
 10
722.4344253719395965
 20
138.4313705774773098
 30
0.0
 11
723.2258186412185523
 21
139.2227638467562087
 31
0.0
  0
LINE
  5
1857
  8
0
 62
     0
 10
722.225818641218666
 20
139.106647323239514
 30
0.0
 11
723.2258186412185523
 21
140.106647323239514
 31
0.0
  0
LINE
  5
1858
  8
0
 62
     0
 10
722.225818641218666
 20
139.9905307997227055
 30
0.0
 11
723.2258186412185523
 21
140.9905307997227055
 31
0.0
  0
LINE
  5
1859
  8
0
 62
     0
 10
722.225818641218666
 20
140.8744142762058118
 30
0.0
 11
723.2258186412185523
 21
141.8744142762058118
 31
0.0
  0
LINE
  5
185A
  8
0
 62
     0
 10
722.225818641218666
 20
141.7582977526890033
 30
0.0
 11
723.2258186412185523
 21
142.7582977526890033
 31
0.0
  0
LINE
  5
185B
  8
0
 62
     0
 10
722.225818641218666
 20
142.6421812291721949
 30
0.0
 11
723.2258186412185523
 21
143.6421812291721949
 31
0.0
  0
LINE
  5
185C
  8
0
 62
     0
 10
722.225818641218666
 20
143.5260647056553012
 30
0.0
 11
723.2258186412185523
 21
144.5260647056553012
 31
0.0
  0
LINE
  5
185D
  8
0
 62
     0
 10
722.225818641218666
 20
144.4099481821384927
 30
0.0
 11
723.2258186412185523
 21
145.4099481821386917
 31
0.0
  0
LINE
  5
185E
  8
0
 62
     0
 10
722.225818641218666
 20
145.2938316586217979
 30
0.0
 11
723.2258186412185523
 21
146.2938316586217979
 31
0.0
  0
LINE
  5
185F
  8
0
 62
     0
 10
721.9794740835908442
 20
145.9313705774771961
 30
0.0
 11
723.2258186412185523
 21
147.1777151351049042
 31
0.0
  0
LINE
  5
1860
  8
0
 62
     0
 10
722.225818641218666
 20
147.0615986115880958
 30
0.0
 11
723.2258186412185523
 21
148.0615986115882095
 31
0.0
  0
LINE
  5
1861
  8
0
 62
     0
 10
721.2258186412185523
 20
146.0615986115880958
 30
0.0
 11
721.5955906071076242
 21
146.4313705774771961
 31
0.0
  0
LINE
  5
1862
  8
0
 62
     0
 10
722.225818641218666
 20
147.9454820880712873
 30
0.0
 11
723.2258186412185523
 21
148.9454820880712873
 31
0.0
  0
LINE
  5
1863
  8
0
 62
     0
 10
722.225818641218666
 20
148.8293655645543936
 30
0.0
 11
723.2258186412185523
 21
149.8293655645543936
 31
0.0
  0
ENDBLK
  5
1865
  8
0
  0
BLOCK
  8
0
  2
*U105
 70
     1
 10
0.0
 20
0.0
 30
0.0
  3
*U105
  1

  0
SOLID
  5
1867
  8
2寸法線
 62
     3
 10
723.4063401918904219
 20
165.1785575334008058
 30
0.0
 11
723.225818641218325
 21
165.1518747722439002
 31
0.0
 12
723.3879284017490363
 22
165.2356627519347114
 32
0.0
 13
723.3879284017490363
 23
165.2356627519347114
 33
0.0
  0
POLYLINE
  5
1868
  8
2寸法線
 62
     3
 66
     1
 10
0.0
 20
0.0
 30
0.0
  0
VERTEX
  5
1869
  8
2寸法線
 62
     3
 10
723.3971342968195586
 20
165.2071101426678013
 30
0.0
  0
VERTEX
  5
186A
  8
2寸法線
 62
     3
 10
731.3878589151047436
 20
167.7834691607430955
 30
0.0
  0
SEQEND
  5
186B
  8
2寸法線
 62
     3
  0
ENDBLK
  5
186D
  8
0
  0
BLOCK
  8
0
  2
*U106
 70
     1
 10
0.0
 20
0.0
 30
0.0
  3
*U106
  1

  0
SOLID
  5
186F
  8
2寸法線
 62
     3
 10
681.0775501509261858
 20
190.1021406210761882
 30
0.0
 11
681.2258186412184386
 21
189.9957617942991135
 31
0.0
 12
681.0510634227980518
 22
190.0483033362907861
 32
0.0
 13
681.0510634227980518
 23
190.0483033362907861
 33
0.0
  0
POLYLINE
  5
1870
  8
2寸法線
 62
     3
 66
     1
 10
0.0
 20
0.0
 30
0.0
  0
VERTEX
  5
1871
  8
2寸法線
 62
     3
 10
681.0643067868620619
 20
190.0752219786834871
 30
0.0
  0
VERTEX
  5
1872
  8
2寸法線
 62
     3
 10
672.4651723154457841
 20
194.3058019157919887
 30
0.0
  0
SEQEND
  5
1873
  8
2寸法線
 62
     3
  0
ENDBLK
  5
1875
  8
0
  0
BLOCK
  8
0
  2
*U107
 70
     1
 10
0.0
 20
0.0
 30
0.0
  3
*U107
  1

  0
SOLID
  5
1877
  8
2寸法線
 62
     3
 10
231.8737525218039934
 20
169.1218248396068873
 30
0.0
 11
231.6932309711318965
 21
169.0951420784498964
 31
0.0
 12
231.8553407316626931
 22
169.1789300581407076
 32
0.0
 13
231.8553407316626931
 23
169.1789300581407076
 33
0.0
  0
POLYLINE
  5
1878
  8
2寸法線
 62
     3
 66
     1
 10
0.0
 20
0.0
 30
0.0
  0
VERTEX
  5
1879
  8
2寸法線
 62
     3
 10
231.8645466267333006
 20
169.1503774488737974
 30
0.0
  0
VERTEX
  5
187A
  8
2寸法線
 62
     3
 10
239.855271245018514
 20
171.7267364669492054
 30
0.0
  0
SEQEND
  5
187B
  8
2寸法線
 62
     3
  0
ENDBLK
  5
187D
  8
0
  0
BLOCK
  8
0
  2
*U108
 70
     1
 10
0.0
 20
0.0
 30
0.0
  3
*U108
  1

  0
SOLID
  5
187F
  8
2寸法線
 62
     3
 10
193.0449624808397004
 20
194.8103572474306873
 30
0.0
 11
193.1932309711318965
 21
194.7039784206536126
 31
0.0
 12
193.0184757527115949
 22
194.7565199626451999
 32
0.0
 13
193.0184757527115949
 23
194.7565199626451999
 33
0.0
  0
POLYLINE
  5
1880
  8
2寸法線
 62
     3
 66
     1
 10
0.0
 20
0.0
 30
0.0
  0
VERTEX
  5
1881
  8
2寸法線
 62
     3
 10
193.031719116775605
 20
194.783438605037901
 30
0.0
  0
VERTEX
  5
1882
  8
2寸法線
 62
     3
 10
184.4325846453594124
 20
199.0140185421464025
 30
0.0
  0
SEQEND
  5
1883
  8
2寸法線
 62
     3
  0
ENDBLK
  5
1885
  8
0
  0
BLOCK
  8
0
  2
*X109
 70
     1
 10
0.0
 20
0.0
 30
0.0
  3
*X109
  1

  0
LINE
  5
1887
  8
0
 62
     0
 10
230.9018377018531112
 20
143.8108212169848059
 30
0.0
 11
231.6932309711320954
 21
144.6022144862637049
 31
0.0
  0
LINE
  5
1888
  8
0
 62
     0
 10
230.6932309711318965
 20
144.4860979627468964
 30
0.0
 11
231.6932309711318965
 21
145.4860979627468964
 31
0.0
  0
LINE
  5
1889
  8
0
 62
     0
 10
230.6932309711320102
 20
145.369981439230088
 30
0.0
 11
231.6932309711318112
 21
146.369981439229889
 31
0.0
  0
LINE
  5
188A
  8
0
 62
     0
 10
230.6932309711320102
 20
146.2538649157133079
 30
0.0
 11
231.6932309711320954
 21
147.2538649157133079
 31
0.0
  0
LINE
  5
188B
  8
0
 62
     0
 10
230.6932309711318965
 20
147.1377483921964995
 30
0.0
 11
231.6932309711318965
 21
148.1377483921964995
 31
0.0
  0
LINE
  5
188C
  8
0
 62
     0
 10
230.6932309711320102
 20
148.021631868679691
 30
0.0
 11
231.6932309711320954
 21
149.021631868679691
 31
0.0
  0
LINE
  5
188D
  8
0
 62
     0
 10
230.6932309711320102
 20
148.9055153451627973
 30
0.0
 11
231.6932309711320954
 21
149.9055153451627973
 31
0.0
  0
LINE
  5
188E
  8
0
 62
     0
 10
230.6932309711318965
 20
149.7893988216459888
 30
0.0
 11
231.6932309711320954
 21
150.7893988216461025
 31
0.0
  0
LINE
  5
188F
  8
0
 62
     0
 10
230.6932309711320102
 20
150.6732822981292088
 30
0.0
 11
231.6932309711320954
 21
151.6732822981292088
 31
0.0
  0
LINE
  5
1890
  8
0
 62
     0
 10
230.446886413504302
 20
151.310821216984607
 30
0.0
 11
231.6932309711320954
 21
152.5571657746124004
 31
0.0
  0
LINE
  5
1891
  8
0
 62
     0
 10
230.6932309711318965
 20
152.4410492510955919
 30
0.0
 11
231.6932309711320954
 21
153.4410492510957056
 31
0.0
  0
LINE
  5
1892
  8
0
 62
     0
 10
229.6932309711318965
 20
151.4410492510955919
 30
0.0
 11
230.0630029370209968
 21
151.810821216984607
 31
0.0
  0
LINE
  5
1893
  8
0
 62
     0
 10
230.6932309711320102
 20
153.3249327275788119
 30
0.0
 11
231.6932309711320954
 21
154.3249327275788119
 31
0.0
  0
LINE
  5
1894
  8
0
 62
     0
 10
230.6932309711320102
 20
154.2088162040618897
 30
0.0
 11
231.6932309711320954
 21
155.2088162040618897
 31
0.0
  0
ENDBLK
  5
1896
  8
0
  0
BLOCK
  8
0
  2
*U110
 70
     1
 10
0.0
 20
0.0
 30
0.0
  3
*U110
  1

  0
TEXT
  5
1898
  8
2寸法線
 62
     1
 10
1308.8315582911109232
 20
-565.0371471791927434
 30
0.0
 40
4.0
  1
120
  7
KANJI
  0
ENDBLK
  5
189A
  8
0
  0
BLOCK
  8
0
  2
*U111
 70
     1
 10
0.0
 20
0.0
 30
0.0
  3
*U111
  1

  0
TEXT
  5
189C
  8
2寸法線
 62
     1
 10
1365.6348474762619389
 20
-637.5880981284556128
 30
0.0
 40
4.0
  1
208
 50
90.0
  7
KANJI
  0
ENDBLK
  5
189E
  8
0
  0
BLOCK
  8
0
  2
*U112
 70
     1
 10
0.0
 20
0.0
 30
0.0
  3
*U112
  1

  0
TEXT
  5
18A0
  8
2寸法線
 62
     1
 10
1427.245524777880064
 20
-565.0371471791927434
 30
0.0
 40
4.0
  1
84
  7
KANJI
  0
ENDBLK
  5
18A2
  8
0
  0
BLOCK
  8
0
  2
*U113
 70
     1
 10
0.0
 20
0.0
 30
0.0
  3
*U113
  1

  0
TEXT
  5
18A4
  8
2寸法線
 62
     1
 10
1463.7999327644779441
 20
-695.2895383598407761
 30
0.0
 40
4.0
  1
15
 50
90.0
  7
KANJI
  0
ENDBLK
  5
18A6
  8
0
  0
BLOCK
  8
0
  2
*U114
 70
     1
 10
0.0
 20
0.0
 30
0.0
  3
*U114
  1

  0
TEXT
  5
18A8
  8
2寸法線
 62
     1
 10
1544.2182959021311035
 20
-565.0371471791927434
 30
0.0
 40
4.0
  1
90
  7
KANJI
  0
ENDBLK
  5
18AA
  8
0
  0
BLOCK
  8
0
  2
*U115
 70
     1
 10
0.0
 20
0.0
 30
0.0
  3
*U115
  1

  0
TEXT
  5
18AC
  8
2寸法線
 62
     1
 10
1502.407816205321069
 20
-625.0261933665511833
 30
0.0
 40
4.0
  1
110
 50
90.0
  7
KANJI
  0
ENDBLK
  5
18AE
  8
0
  0
BLOCK
  8
0
  2
*U116
 70
     1
 10
0.0
 20
0.0
 30
0.0
  3
*U116
  1

  0
TEXT
  5
18B0
  8
2寸法線
 62
     1
 10
1502.407816205321069
 20
-669.5333362236939365
 30
0.0
 40
4.0
  1
73
 50
90.0
  7
KANJI
  0
ENDBLK
  5
18B2
  8
0
  0
BLOCK
  8
0
  2
*U117
 70
     1
 10
0.0
 20
0.0
 30
0.0
  3
*U117
  1

  0
TEXT
  5
18B4
  8
SUNPOU
 62
     0
 10
1561.5798009788929903
 20
-696.3318178376689502
 30
0.0
 40
4.0
  1
\U+22054.2
  7
KANJI
  0
ENDBLK
  5
18B6
  8
0
  0
BLOCK
  8
0
  2
*U118
 70
     1
 10
0.0
 20
0.0
 30
0.0
  3
*U118
  1

  0
TEXT
  5
18B8
  8
2寸法線
 62
     1
 10
1601.0146961297170947
 20
-680.1833362236938001
 30
0.0
 40
4.0
  1
30
 50
90.0
  7
KANJI
  0
ENDBLK
  5
18BA
  8
0
  0
BLOCK
  8
0
  2
*U119
 70
     1
 10
0.0
 20
0.0
 30
0.0
  3
*U119
  1

  0
TEXT
  5
18BC
  8
SUNPOU
 62
     0
 10
1558.6448394974208895
 20
-580.6718900014203655
 30
0.0
 40
4.0
  1
\U+22054.2
 50
65.5138713507703017
  7
KANJI
  0
ENDBLK
  5
18BE
  8
0
  0
BLOCK
  8
0
  2
*U120
 70
     1
 10
0.0
 20
0.0
 30
0.0
  3
*U120
  1

  0
TEXT
  5
18C0
  8
2寸法線
 62
     1
 10
1601.0146961297180042
 20
-630.6000028903605426
 30
0.0
 40
4.0
  1
171
 50
90.0
  7
KANJI
  0
ENDBLK
  5
18C2
  8
0
  0
BLOCK
  8
0
  2
*U121
 70
     1
 10
0.0
 20
0.0
 30
0.0
  3
*U121
  1

  0
TEXT
  5
18C4
  8
2寸法線
 62
     1
 10
1359.6348474762639853
 20
-750.2312182236153149
 30
0.0
 40
4.0
  1
73
 50
90.0
  7
KANJI
  0
ENDBLK
  5
18C6
  8
0
  0
BLOCK
  8
0
  2
*U122
 70
     1
 10
0.0
 20
0.0
 30
0.0
  3
*U122
  1

  0
TEXT
  5
18C8
  8
2寸法線
 62
     1
 10
1310.2601297196829364
 20
-711.7768366549385064
 30
0.0
 40
4.0
  1
94
  7
KANJI
  0
ENDBLK
  5
18CA
  8
0
  0
BLOCK
  8
0
  2
*U123
 70
     1
 10
0.0
 20
0.0
 30
0.0
  3
*U123
  1

  0
TEXT
  5
18CC
  8
2寸法線
 62
     1
 10
819.8587444616428002
 20
-566.2692796829883264
 30
0.0
 40
4.0
  1
100.000
  7
KANJI
  0
ENDBLK
  5
18CE
  8
0
  0
BLOCK
  8
0
  2
*U124
 70
     1
 10
0.0
 20
0.0
 30
0.0
  3
*U124
  1

  0
TEXT
  5
18D0
  8
2寸法線
 62
     1
 10
876.7660895960680136
 20
-643.4943617746623659
 30
0.0
 40
4.0
  1
188.000
 50
90.0
  7
KANJI
  0
ENDBLK
  5
18D2
  8
0
  0
BLOCK
  8
0
  2
*U125
 70
     1
 10
0.0
 20
0.0
 30
0.0
  3
*U125
  1

  0
TEXT
  5
18D4
  8
2寸法線
 62
     1
 10
876.766089596068241
 20
-744.8395726898334033
 30
0.0
 40
4.0
  1
62.5
 50
90.0
  7
KANJI
  0
ENDBLK
  5
18D6
  8
0
  0
BLOCK
  8
0
  2
*U126
 70
     1
 10
0.0
 20
0.0
 30
0.0
  3
*U126
  1

  0
TEXT
  5
18D8
  8
2寸法線
 62
     1
 10
930.8915085363655635
 20
-566.2692796829883264
 30
0.0
 40
4.0
  1
77.000
  7
KANJI
  0
ENDBLK
  5
18DA
  8
0
  0
BLOCK
  8
0
  2
*U127
 70
     1
 10
0.0
 20
0.0
 30
0.0
  3
*U127
  1

  0
TEXT
  5
18DC
  8
SUNPOU
 62
     0
 10
1057.1719213326221052
 20
-584.5441159600485435
 30
0.0
 40
4.0
  1
\U+22054.2
 50
81.3346050986780682
  7
KANJI
  0
ENDBLK
  5
18DE
  8
0
  0
BLOCK
  8
0
  2
*U128
 70
     1
 10
0.0
 20
0.0
 30
0.0
  3
*U128
  1

  0
TEXT
  5
18E0
  8
2寸法線
 62
     1
 10
1037.1311489150650686
 20
-566.2692796829883264
 30
0.0
 40
4.0
  1
70.000
  7
KANJI
  0
ENDBLK
  5
18E2
  8
0
  0
BLOCK
  8
0
  2
*U129
 70
     1
 10
0.0
 20
0.0
 30
0.0
  3
*U129
  1

  0
TEXT
  5
18E4
  8
2寸法線
 62
     1
 10
1095.4527338552520632
 20
-698.8472293148579411
 30
0.0
 40
4.0
  1
27.500
 50
90.0
  7
KANJI
  0
ENDBLK
  5
18E6
  8
0
  0
BLOCK
  8
0
  2
*U130
 70
     1
 10
0.0
 20
0.0
 30
0.0
  3
*U130
  1

  0
TEXT
  5
18E8
  8
2寸法線
 62
     1
 10
1095.4527338552509264
 20
-638.3693617746617974
 30
0.0
 40
4.0
  1
153.500
 50
90.0
  7
KANJI
  0
ENDBLK
  5
18EA
  8
0
  0
BLOCK
  8
0
  2
*U131
 70
     1
 10
0.0
 20
0.0
 30
0.0
  3
*U131
  1

  0
TEXT
  5
18EC
  8
2寸法線
 62
     1
 10
1008.0624258690779698
 20
-672.0955522508528475
 30
0.0
 40
4.0
  1
67.500
 50
90.0
  7
KANJI
  0
ENDBLK
  5
18EE
  8
0
  0
BLOCK
  8
0
  2
*U132
 70
     1
 10
0.0
 20
0.0
 30
0.0
  3
*U132
  1

  0
TEXT
  5
18F0
  8
2寸法線
 62
     1
 10
1008.0624258690779698
 20
-631.2205522508527338
 30
0.0
 40
4.0
  1
96.000
 50
90.0
  7
KANJI
  0
ENDBLK
  5
18F2
  8
0
  0
BLOCK
  8
0
  2
*U133
 70
     1
 10
0.0
 20
0.0
 30
0.0
  3
*U133
  1

  0
TEXT
  5
18F4
  8
SUNPOU
 62
     0
 10
1061.0980713689718868
 20
-684.3238110996182968
 30
0.0
 40
4.0
  1
\U+22054.2
 50
294.7542617775555982
  7
KANJI
  0
ENDBLK
  5
18F6
  8
0
  0
BLOCK
  8
0
  2
*U134
 70
     1
 10
0.0
 20
0.0
 30
0.0
  3
*U134
  1

  0
TEXT
  5
18F8
  8
2寸法線
 62
     1
 10
971.1121359878828798
 20
-696.8805544264348555
 30
0.0
 40
4.0
  1
15.000
 50
90.0
  7
KANJI
  0
ENDBLK
  5
18FA
  8
0
  0
BLOCK
  8
0
  2
*U135
 70
     1
 10
0.0
 20
0.0
 30
0.0
  3
*U135
  1

  0
TEXT
  5
18FC
  8
2寸法線
 62
     1
 10
825.192077794975944
 20
-707.9160226484032137
 30
0.0
 40
4.0
  1
74.5
  7
KANJI
  0
ENDBLK
  5
18FE
  8
0
  0
ENDSEC
  0
SECTION
  2
ENTITIES
  0
LINE
  5
1061
  8
1外形線
 10
1103.7302690046890348
 20
-770.2674415380830624
 30
0.0
 11
1043.5302690046889893
 21
-770.2674415380830624
 31
0.0
  0
LINE
  5
1062
  8
1外形線
 10
1102.7302690046890348
 20
-685.2674415380821529
 30
0.0
 11
1070.5871952710890582
 21
-741.6158177478997686
 31
0.0
  0
LINE
  5
1063
  8
1外形線
 10
1093.7302690046890348
 20
-604.7674415380821529
 30
0.0
 11
1051.8141892215869575
 21
-604.7674415380821529
 31
0.0
  0
LINE
  5
1064
  8
1外形線
 10
884.2123599028620902
 20
-899.8293649743470723
 30
0.0
 11
884.2123599028620902
 21
-919.9245300350924026
 31
0.0
  0
ARC
  5
1065
  8
1外形線
 10
859.2123599028615217
 20
-896.9245300350922889
 30
0.0
 40
22.0
 50
270.0
 51
0.0
  0
ARC
  5
1066
  8
1外形線
 10
860.2123599028620902
 20
-896.7245300350921298
 30
0.0
 40
24.1999999999999993
 50
270.0
 51
0.0
  0
ARC
  5
1067
  8
1外形線
 10
834.2123599028615217
 20
-896.7245300350921298
 30
0.0
 40
24.1999999999999993
 50
180.0
 51
270.0
  0
ARC
  5
1068
  8
1外形線
 10
835.2123599028620902
 20
-896.9245300350922889
 30
0.0
 40
22.0
 50
180.0
 51
270.0
  0
LINE
  5
1069
  8
1外形線
 10
810.2123599028620902
 20
-899.8293649743470723
 30
0.0
 11
810.2123599028620902
 21
-919.9245300350924026
 31
0.0
  0
LINE
  5
106A
  8
1外形線
 10
1104.7302690046890348
 20
-769.2674415380831761
 30
0.0
 11
1104.7302690046890348
 21
-582.2674415380822666
 31
0.0
  0
LINE
  5
106B
  8
1外形線
 10
1098.7302690046890348
 20
-679.2674415380821529
 30
0.0
 11
1098.7302690046890348
 21
-585.2674415380821529
 31
0.0
  0
ARC
  5
106C
  8
1外形線
 10
1093.7302690046890348
 20
-599.7674415380822666
 30
0.0
 40
5.0
 50
270.0
 51
0.0
  0
LINE
  5
106D
  8
1外形線
 10
1104.7302690046890348
 20
-582.2674415380822666
 30
0.0
 11
1101.7302690046890348
 21
-582.2674415380822666
 31
0.0
  0
ARC
  5
106E
  8
1外形線
 10
1101.7302690046890348
 20
-585.2674415380821529
 30
0.0
 40
3.0
 50
90.0
 51
180.0
  0
LINE
  5
106F
  8
1外形線
 10
1104.7302690046890348
 20
-682.2674415380822666
 30
0.0
 11
1101.7302690046890348
 21
-682.2674415380822666
 31
0.0
  0
ARC
  5
1070
  8
1外形線
 10
1101.7302690046890348
 20
-679.2674415380821529
 30
0.0
 40
3.0
 50
180.0
 51
270.0
  0
LINE
  5
1071
  8
1外形線
 10
1104.7302690046890348
 20
-685.2674415380821529
 30
0.0
 11
1102.7302690046890348
 21
-685.2674415380821529
 31
0.0
  0
ARC
  5
1072
  8
1外形線
 10
1103.7302690046890348
 20
-769.2674415380831761
 30
0.0
 40
1.0
 50
270.0
 51
0.0
  0
LINE
  5
1073
  8
1外形線
 10
797.2123599028629997
 20
-920.9245300350922889
 30
0.0
 11
897.2123599028619765
 21
-920.9245300350922889
 31
0.0
  0
LINE
  5
1074
  8
1外形線
 10
896.2123599028619765
 20
-917.9245300350924026
 30
0.0
 11
884.2123599028629997
 21
-917.9245300350924026
 31
0.0
  0
LINE
  5
1075
  8
1外形線
 10
798.212359902862886
 20
-917.9245300350924026
 30
0.0
 11
810.212359902862886
 21
-917.9245300350924026
 31
0.0
  0
ARC
  5
1076
  8
1外形線
 10
798.212359902862886
 20
-918.9245300350924026
 30
0.0
 40
1.0
 50
90.0
 51
180.0
  0
LINE
  5
1077
  8
1外形線
 10
797.2123599028629997
 20
-920.9245300350922889
 30
0.0
 11
797.2123599028629997
 21
-918.9245300350924026
 31
0.0
  0
ARC
  5
1078
  8
1外形線
 10
811.2123599028619765
 20
-919.9245300350924026
 30
0.0
 40
1.0
 50
180.0
 51
270.0
  0
ARC
  5
1079
  8
1外形線
 10
805.2123599028619765
 20
-912.9245300350922889
 30
0.0
 40
5.0
 50
270.0
 51
359.9999999999869829
  0
LINE
  5
107A
  8
1外形線
 10
835.2123599028620902
 20
-918.9245300350924026
 30
0.0
 11
859.2123599028615217
 21
-918.9245300350924026
 31
0.0
  0
ARC
  5
107B
  8
1外形線
 10
883.2123599028620902
 20
-919.9245300350924026
 30
0.0
 40
1.0
 50
270.0
 51
0.0
  0
ARC
  5
107C
  8
1外形線
 10
889.2123599028629997
 20
-912.9245300350922889
 30
0.0
 40
5.0
 50
180.0
 51
270.0
  0
LINE
  5
107D
  8
1外形線
 10
897.2123599028619765
 20
-920.9245300350922889
 30
0.0
 11
897.2123599028619765
 21
-918.9245300350924026
 31
0.0
  0
ARC
  5
107E
  8
1外形線
 10
896.2123599028619765
 20
-918.9245300350924026
 30
0.0
 40
1.0
 50
0.0
 51
90.0
  0
LINE
  5
107F
  8
1外形線
 10
1027.7302690046890348
 20
-709.4410239746426896
 30
0.0
 11
1027.7302690046890348
 21
-627.5212302868465031
 31
0.0
  0
LINE
  5
1080
  8
1外形線
  6
CONTINUOUS
 10
810.212359902862886
 20
-765.2674415380831761
 30
0.0
 11
810.212359902862886
 21
-629.7674415380821529
 31
0.0
  0
LINE
  5
1081
  8
1外形線
  6
CONTINUOUS
 10
884.2123599028629997
 20
-765.2674415380831761
 30
0.0
 11
884.2123599028629997
 21
-629.7674415380821529
 31
0.0
  0
ARC
  5
1082
  8
1外形線
 10
859.2123599028634544
 20
-629.7674415380821529
 30
0.0
 40
25.0
 50
0.0
 51
90.0
  0
ARC
  5
1083
  8
1外形線
 10
859.2123599028634544
 20
-620.2674415380830624
 30
0.0
 40
38.00000000000027
 50
0.0
 51
90.0
  0
LINE
  5
1084
  8
1外形線
 10
797.2123599028629997
 20
-620.2674415380830624
 30
0.0
 11
797.2123599028629997
 21
-653.6492654955743546
 31
0.0
  0
ARC
  5
1085
  8
1外形線
 10
1057.7302690046890348
 20
-635.7674415380812434
 30
0.0
 40
32.0
 50
109.1881364537297969
 51
152.7339555492611964
  0
ARC
  5
1086
  8
1外形線
 10
1051.8141892215869575
 20
-618.7674415380821529
 30
0.0
 40
14.0
 50
90.0000000000065086
 51
109.1881364537297969
  0
ARC
  5
1087
  8
1外形線
 10
1041.7302690046890348
 20
-627.5212302868465031
 30
0.0
 40
14.0
 50
152.7339555492611964
 51
180.0
  0
ARC
  5
1088
  8
1外形線
 10
835.2123599028634544
 20
-629.7674415380821529
 30
0.0
 40
25.0
 50
90.0
 51
180.0
  0
ARC
  5
1089
  8
1外形線
 10
835.2123599028625449
 20
-620.2674415380830624
 30
0.0
 40
38.00000000000027
 50
90.0
 51
180.0
  0
LINE
  5
108A
  8
1外形線
 10
835.2123599028684566
 20
-582.2674415380795381
 30
0.0
 11
859.212359902864705
 21
-582.2674415380831761
 31
0.0
  0
CIRCLE
  5
108B
  8
1外形線
 10
847.2123599028634544
 20
-589.2674415380821529
 30
0.0
 40
2.1000000000000001
  0
LINE
  5
108C
  8
1外形線
 10
859.2123599028629997
 20
-604.7674415380821529
 30
0.0
 11
835.212359902862886
 21
-604.7674415380821529
 31
0.0
  0
ARC
  5
108D
  8
1外形線
 10
835.2123599028637955
 20
-653.6492654955743546
 30
0.0
 40
38.00000000000027
 50
180.0
 51
228.8604895851009928
  0
LINE
  5
108E
  8
1外形線
 10
897.2123599028629997
 20
-620.2674415380830624
 30
0.0
 11
897.2123599028629997
 21
-653.6492654955743546
 31
0.0
  0
ARC
  5
108F
  8
1外形線
 10
859.2123599028624312
 20
-653.6492654955743546
 30
0.0
 40
38.00000000000027
 50
311.1395104148990072
 51
0.0
  0
ARC
  5
1090
  8
1外形線
 10
876.7123599028619765
 20
-742.7674415380821529
 30
0.0
 40
4.5
 50
90.0
 51
270.0
  0
LINE
  5
1091
  8
1外形線
 10
883.4123599028627041
 20
-770.2674415380830624
 30
0.0
 11
811.0123599028631816
 21
-770.2674415380830624
 31
0.0
  0
LINE
  5
1092
  8
1外形線
 10
884.2123599028629997
 20
-765.2674415380831761
 30
0.0
 11
810.212359902862886
 21
-765.2674415380831761
 31
0.0
  0
LINE
  5
1093
  8
1外形線
 10
1069.9302690046890802
 20
-770.2674415380839719
 30
0.0
 11
1069.9302690046890802
 21
-744.0932580689802762
 31
0.0
  0
POLYLINE
  8
1外形線
  5
1902
  66
     1
 10
0.00000
 20
0.00000
 30
0.00000
  70
     8
  0
VERTEX
  8
1外形線
  5
1903
 10
1047.64
 20
-738.248
 30
0.00000
  70
    32
  0
VERTEX
  8
1外形線
  5
1904
 10
1047.60
 20
-738.271
 30
0.00000
  70
    32
  0
VERTEX
  8
1外形線
  5
1905
 10
1047.56
 20
-738.294
 30
0.00000
  70
    32
  0
VERTEX
  8
1外形線
  5
1906
 10
1047.51
 20
-738.315
 30
0.00000
  70
    32
  0
VERTEX
  8
1外形線
  5
1907
 10
1047.47
 20
-738.337
 30
0.00000
  70
    32
  0
VERTEX
  8
1外形線
  5
1908
 10
1047.43
 20
-738.358
 30
0.00000
  70
    32
  0
VERTEX
  8
1外形線
  5
1909
 10
1047.38
 20
-738.379
 30
0.00000
  70
    32
  0
VERTEX
  8
1外形線
  5
190A
 10
1047.34
 20
-738.400
 30
0.00000
  70
    32
  0
VERTEX
  8
1外形線
  5
190B
 10
1047.30
 20
-738.421
 30
0.00000
  70
    32
  0
VERTEX
  8
1外形線
  5
190C
 10
1047.26
 20
-738.441
 30
0.00000
  70
    32
  0
VERTEX
  8
1外形線
  5
190D
 10
1047.22
 20
-738.462
 30
0.00000
  70
    32
  0
VERTEX
  8
1外形線
  5
190E
 10
1047.17
 20
-738.482
 30
0.00000
  70
    32
  0
VERTEX
  8
1外形線
  5
190F
 10
1047.13
 20
-738.503
 30
0.00000
  70
    32
  0
VERTEX
  8
1外形線
  5
1910
 10
1047.09
 20
-738.523
 30
0.00000
  70
    32
  0
VERTEX
  8
1外形線
  5
1911
 10
1047.05
 20
-738.543
 30
0.00000
  70
    32
  0
VERTEX
  8
1外形線
  5
1912
 10
1047.01
 20
-738.564
 30
0.00000
  70
    32
  0
VERTEX
  8
1外形線
  5
1913
 10
1046.97
 20
-738.585
 30
0.00000
  70
    32
  0
VERTEX
  8
1外形線
  5
1914
 10
1046.93
 20
-738.606
 30
0.00000
  70
    32
  0
VERTEX
  8
1外形線
  5
1915
 10
1046.89
 20
-738.627
 30
0.00000
  70
    32
  0
VERTEX
  8
1外形線
  5
1916
 10
1046.85
 20
-738.648
 30
0.00000
  70
    32
  0
VERTEX
  8
1外形線
  5
1917
 10
1046.81
 20
-738.670
 30
0.00000
  70
    32
  0
VERTEX
  8
1外形線
  5
1918
 10
1046.77
 20
-738.692
 30
0.00000
  70
    32
  0
VERTEX
  8
1外形線
  5
1919
 10
1046.73
 20
-738.714
 30
0.00000
  70
    32
  0
VERTEX
  8
1外形線
  5
191A
 10
1046.69
 20
-738.737
 30
0.00000
  70
    32
  0
VERTEX
  8
1外形線
  5
191B
 10
1046.66
 20
-738.761
 30
0.00000
  70
    32
  0
VERTEX
  8
1外形線
  5
191C
 10
1046.62
 20
-738.784
 30
0.00000
  70
    32
  0
VERTEX
  8
1外形線
  5
191D
 10
1046.58
 20
-738.809
 30
0.00000
  70
    32
  0
VERTEX
  8
1外形線
  5
191E
 10
1046.54
 20
-738.834
 30
0.00000
  70
    32
  0
VERTEX
  8
1外形線
  5
191F
 10
1046.51
 20
-738.859
 30
0.00000
  70
    32
  0
VERTEX
  8
1外形線
  5
1920
 10
1046.47
 20
-738.886
 30
0.00000
  70
    32
  0
VERTEX
  8
1外形線
  5
1921
 10
1046.43
 20
-738.913
 30
0.00000
  70
    32
  0
VERTEX
  8
1外形線
  5
1922
 10
1046.40
 20
-738.940
 30
0.00000
  70
    32
  0
VERTEX
  8
1外形線
  5
1923
 10
1046.36
 20
-738.968
 30
0.00000
  70
    32
  0
VERTEX
  8
1外形線
  5
1924
 10
1046.33
 20
-738.996
 30
0.00000
  70
    32
  0
VERTEX
  8
1外形線
  5
1925
 10
1046.29
 20
-739.026
 30
0.00000
  70
    32
  0
VERTEX
  8
1外形線
  5
1926
 10
1046.26
 20
-739.055
 30
0.00000
  70
    32
  0
VERTEX
  8
1外形線
  5
1927
 10
1046.22
 20
-739.085
 30
0.00000
  70
    32
  0
VERTEX
  8
1外形線
  5
1928
 10
1046.19
 20
-739.116
 30
0.00000
  70
    32
  0
VERTEX
  8
1外形線
  5
1929
 10
1046.16
 20
-739.147
 30
0.00000
  70
    32
  0
VERTEX
  8
1外形線
  5
192A
 10
1046.12
 20
-739.179
 30
0.00000
  70
    32
  0
VERTEX
  8
1外形線
  5
192B
 10
1046.09
 20
-739.211
 30
0.00000
  70
    32
  0
VERTEX
  8
1外形線
  5
192C
 10
1046.06
 20
-739.244
 30
0.00000
  70
    32
  0
VERTEX
  8
1外形線
  5
192D
 10
1046.03
 20
-739.277
 30
0.00000
  70
    32
  0
VERTEX
  8
1外形線
  5
192E
 10
1045.99
 20
-739.311
 30
0.00000
  70
    32
  0
VERTEX
  8
1外形線
  5
192F
 10
1045.96
 20
-739.345
 30
0.00000
  70
    32
  0
VERTEX
  8
1外形線
  5
1930
 10
1045.93
 20
-739.379
 30
0.00000
  70
    32
  0
VERTEX
  8
1外形線
  5
1931
 10
1045.90
 20
-739.414
 30
0.00000
  70
    32
  0
VERTEX
  8
1外形線
  5
1932
 10
1045.87
 20
-739.450
 30
0.00000
  70
    32
  0
VERTEX
  8
1外形線
  5
1933
 10
1045.85
 20
-739.486
 30
0.00000
  70
    32
  0
VERTEX
  8
1外形線
  5
1934
 10
1045.82
 20
-739.522
 30
0.00000
  70
    32
  0
VERTEX
  8
1外形線
  5
1935
 10
1045.79
 20
-739.558
 30
0.00000
  70
    32
  0
VERTEX
  8
1外形線
  5
1936
 10
1045.76
 20
-739.596
 30
0.00000
  70
    32
  0
VERTEX
  8
1外形線
  5
1937
 10
1045.73
 20
-739.633
 30
0.00000
  70
    32
  0
VERTEX
  8
1外形線
  5
1938
 10
1045.71
 20
-739.671
 30
0.00000
  70
    32
  0
VERTEX
  8
1外形線
  5
1939
 10
1045.68
 20
-739.709
 30
0.00000
  70
    32
  0
VERTEX
  8
1外形線
  5
193A
 10
1045.66
 20
-739.748
 30
0.00000
  70
    32
  0
VERTEX
  8
1外形線
  5
193B
 10
1045.63
 20
-739.787
 30
0.00000
  70
    32
  0
VERTEX
  8
1外形線
  5
193C
 10
1045.61
 20
-739.826
 30
0.00000
  70
    32
  0
VERTEX
  8
1外形線
  5
193D
 10
1045.58
 20
-739.865
 30
0.00000
  70
    32
  0
VERTEX
  8
1外形線
  5
193E
 10
1045.56
 20
-739.905
 30
0.00000
  70
    32
  0
VERTEX
  8
1外形線
  5
193F
 10
1045.54
 20
-739.946
 30
0.00000
  70
    32
  0
VERTEX
  8
1外形線
  5
1940
 10
1045.52
 20
-739.986
 30
0.00000
  70
    32
  0
VERTEX
  8
1外形線
  5
1941
 10
1045.50
 20
-740.027
 30
0.00000
  70
    32
  0
VERTEX
  8
1外形線
  5
1942
 10
1045.48
 20
-740.068
 30
0.00000
  70
    32
  0
VERTEX
  8
1外形線
  5
1943
 10
1045.46
 20
-740.109
 30
0.00000
  70
    32
  0
VERTEX
  8
1外形線
  5
1944
 10
1045.44
 20
-740.151
 30
0.00000
  70
    32
  0
VERTEX
  8
1外形線
  5
1945
 10
1045.42
 20
-740.193
 30
0.00000
  70
    32
  0
VERTEX
  8
1外形線
  5
1946
 10
1045.40
 20
-740.235
 30
0.00000
  70
    32
  0
VERTEX
  8
1外形線
  5
1947
 10
1045.38
 20
-740.278
 30
0.00000
  70
    32
  0
VERTEX
  8
1外形線
  5
1948
 10
1045.37
 20
-740.320
 30
0.00000
  70
    32
  0
VERTEX
  8
1外形線
  5
1949
 10
1045.35
 20
-740.363
 30
0.00000
  70
    32
  0
VERTEX
  8
1外形線
  5
194A
 10
1045.33
 20
-740.406
 30
0.00000
  70
    32
  0
VERTEX
  8
1外形線
  5
194B
 10
1045.32
 20
-740.449
 30
0.00000
  70
    32
  0
VERTEX
  8
1外形線
  5
194C
 10
1045.31
 20
-740.493
 30
0.00000
  70
    32
  0
VERTEX
  8
1外形線
  5
194D
 10
1045.29
 20
-740.537
 30
0.00000
  70
    32
  0
VERTEX
  8
1外形線
  5
194E
 10
1045.28
 20
-740.580
 30
0.00000
  70
    32
  0
VERTEX
  8
1外形線
  5
194F
 10
1045.27
 20
-740.625
 30
0.00000
  70
    32
  0
VERTEX
  8
1外形線
  5
1950
 10
1045.26
 20
-740.669
 30
0.00000
  70
    32
  0
VERTEX
  8
1外形線
  5
1951
 10
1045.25
 20
-740.713
 30
0.00000
  70
    32
  0
VERTEX
  8
1外形線
  5
1952
 10
1045.24
 20
-740.758
 30
0.00000
  70
    32
  0
VERTEX
  8
1外形線
  5
1953
 10
1045.23
 20
-740.802
 30
0.00000
  70
    32
  0
VERTEX
  8
1外形線
  5
1954
 10
1045.22
 20
-740.847
 30
0.00000
  70
    32
  0
VERTEX
  8
1外形線
  5
1955
 10
1045.21
 20
-740.892
 30
0.00000
  70
    32
  0
VERTEX
  8
1外形線
  5
1956
 10
1045.20
 20
-740.937
 30
0.00000
  70
    32
  0
VERTEX
  8
1外形線
  5
1957
 10
1045.19
 20
-740.983
 30
0.00000
  70
    32
  0
VERTEX
  8
1外形線
  5
1958
 10
1045.19
 20
-741.028
 30
0.00000
  70
    32
  0
VERTEX
  8
1外形線
  5
1959
 10
1045.18
 20
-741.074
 30
0.00000
  70
    32
  0
VERTEX
  8
1外形線
  5
195A
 10
1045.18
 20
-741.119
 30
0.00000
  70
    32
  0
VERTEX
  8
1外形線
  5
195B
 10
1045.17
 20
-741.165
 30
0.00000
  70
    32
  0
VERTEX
  8
1外形線
  5
195C
 10
1045.17
 20
-741.211
 30
0.00000
  70
    32
  0
VERTEX
  8
1外形線
  5
195D
 10
1045.17
 20
-741.257
 30
0.00000
  70
    32
  0
VERTEX
  8
1外形線
  5
195E
 10
1045.16
 20
-741.303
 30
0.00000
  70
    32
  0
VERTEX
  8
1外形線
  5
195F
 10
1045.16
 20
-741.349
 30
0.00000
  70
    32
  0
VERTEX
  8
1外形線
  5
1960
 10
1045.16
 20
-741.395
 30
0.00000
  70
    32
  0
VERTEX
  8
1外形線
  5
1961
 10
1045.16
 20
-741.442
 30
0.00000
  70
    32
  0
VERTEX
  8
1外形線
  5
1962
 10
1045.16
 20
-741.488
 30
0.00000
  70
    32
  0
VERTEX
  8
1外形線
  5
1963
 10
1045.16
 20
-741.534
 30
0.00000
  70
    32
  0
VERTEX
  8
1外形線
  5
1964
 10
1045.16
 20
-741.581
 30
0.00000
  70
    32
  0
VERTEX
  8
1外形線
  5
1965
 10
1045.16
 20
-741.627
 30
0.00000
  70
    32
  0
VERTEX
  8
1外形線
  5
1966
 10
1045.16
 20
-741.674
 30
0.00000
  70
    32
  0
VERTEX
  8
1外形線
  5
1967
 10
1045.17
 20
-741.720
 30
0.00000
  70
    32
  0
VERTEX
  8
1外形線
  5
1968
 10
1045.17
 20
-741.767
 30
0.00000
  70
    32
  0
VERTEX
  8
1外形線
  5
1969
 10
1045.17
 20
-741.813
 30
0.00000
  70
    32
  0
VERTEX
  8
1外形線
  5
196A
 10
1045.18
 20
-741.860
 30
0.00000
  70
    32
  0
VERTEX
  8
1外形線
  5
196B
 10
1045.18
 20
-741.907
 30
0.00000
  70
    32
  0
VERTEX
  8
1外形線
  5
196C
 10
1045.19
 20
-741.953
 30
0.00000
  70
    32
  0
VERTEX
  8
1外形線
  5
196D
 10
1045.19
 20
-742.000
 30
0.00000
  70
    32
  0
VERTEX
  8
1外形線
  5
196E
 10
1045.20
 20
-742.046
 30
0.00000
  70
    32
  0
VERTEX
  8
1外形線
  5
196F
 10
1045.21
 20
-742.093
 30
0.00000
  70
    32
  0
VERTEX
  8
1外形線
  5
1970
 10
1045.21
 20
-742.139
 30
0.00000
  70
    32
  0
VERTEX
  8
1外形線
  5
1971
 10
1045.22
 20
-742.186
 30
0.00000
  70
    32
  0
VERTEX
  8
1外形線
  5
1972
 10
1045.23
 20
-742.232
 30
0.00000
  70
    32
  0
VERTEX
  8
1外形線
  5
1973
 10
1045.24
 20
-742.279
 30
0.00000
  70
    32
  0
VERTEX
  8
1外形線
  5
1974
 10
1045.25
 20
-742.325
 30
0.00000
  70
    32
  0
VERTEX
  8
1外形線
  5
1975
 10
1045.26
 20
-742.371
 30
0.00000
  70
    32
  0
VERTEX
  8
1外形線
  5
1976
 10
1045.27
 20
-742.418
 30
0.00000
  70
    32
  0
VERTEX
  8
1外形線
  5
1977
 10
1045.28
 20
-742.464
 30
0.00000
  70
    32
  0
VERTEX
  8
1外形線
  5
1978
 10
1045.29
 20
-742.510
 30
0.00000
  70
    32
  0
VERTEX
  8
1外形線
  5
1979
 10
1045.30
 20
-742.556
 30
0.00000
  70
    32
  0
VERTEX
  8
1外形線
  5
197A
 10
1045.31
 20
-742.602
 30
0.00000
  70
    32
  0
VERTEX
  8
1外形線
  5
197B
 10
1045.33
 20
-742.648
 30
0.00000
  70
    32
  0
VERTEX
  8
1外形線
  5
197C
 10
1045.34
 20
-742.693
 30
0.00000
  70
    32
  0
VERTEX
  8
1外形線
  5
197D
 10
1045.35
 20
-742.739
 30
0.00000
  70
    32
  0
VERTEX
  8
1外形線
  5
197E
 10
1045.37
 20
-742.784
 30
0.00000
  70
    32
  0
VERTEX
  8
1外形線
  5
197F
 10
1045.38
 20
-742.830
 30
0.00000
  70
    32
  0
VERTEX
  8
1外形線
  5
1980
 10
1045.40
 20
-742.875
 30
0.00000
  70
    32
  0
VERTEX
  8
1外形線
  5
1981
 10
1045.41
 20
-742.920
 30
0.00000
  70
    32
  0
VERTEX
  8
1外形線
  5
1982
 10
1045.43
 20
-742.965
 30
0.00000
  70
    32
  0
VERTEX
  8
1外形線
  5
1983
 10
1045.44
 20
-743.010
 30
0.00000
  70
    32
  0
VERTEX
  8
1外形線
  5
1984
 10
1045.46
 20
-743.054
 30
0.00000
  70
    32
  0
VERTEX
  8
1外形線
  5
1985
 10
1045.48
 20
-743.099
 30
0.00000
  70
    32
  0
VERTEX
  8
1外形線
  5
1986
 10
1045.50
 20
-743.143
 30
0.00000
  70
    32
  0
VERTEX
  8
1外形線
  5
1987
 10
1045.51
 20
-743.187
 30
0.00000
  70
    32
  0
VERTEX
  8
1外形線
  5
1988
 10
1045.53
 20
-743.231
 30
0.00000
  70
    32
  0
VERTEX
  8
1外形線
  5
1989
 10
1045.55
 20
-743.275
 30
0.00000
  70
    32
  0
VERTEX
  8
1外形線
  5
198A
 10
1045.57
 20
-743.319
 30
0.00000
  70
    32
  0
VERTEX
  8
1外形線
  5
198B
 10
1045.59
 20
-743.362
 30
0.00000
  70
    32
  0
VERTEX
  8
1外形線
  5
198C
 10
1045.61
 20
-743.405
 30
0.00000
  70
    32
  0
VERTEX
  8
1外形線
  5
198D
 10
1045.63
 20
-743.448
 30
0.00000
  70
    32
  0
VERTEX
  8
1外形線
  5
198E
 10
1045.65
 20
-743.491
 30
0.00000
  70
    32
  0
VERTEX
  8
1外形線
  5
198F
 10
1045.67
 20
-743.534
 30
0.00000
  70
    32
  0
VERTEX
  8
1外形線
  5
1990
 10
1045.69
 20
-743.576
 30
0.00000
  70
    32
  0
VERTEX
  8
1外形線
  5
1991
 10
1045.71
 20
-743.618
 30
0.00000
  70
    32
  0
VERTEX
  8
1外形線
  5
1992
 10
1045.74
 20
-743.660
 30
0.00000
  70
    32
  0
VERTEX
  8
1外形線
  5
1993
 10
1045.76
 20
-743.702
 30
0.00000
  70
    32
  0
VERTEX
  8
1外形線
  5
1994
 10
1045.78
 20
-743.743
 30
0.00000
  70
    32
  0
VERTEX
  8
1外形線
  5
1995
 10
1045.80
 20
-743.784
 30
0.00000
  70
    32
  0
VERTEX
  8
1外形線
  5
1996
 10
1045.83
 20
-743.825
 30
0.00000
  70
    32
  0
VERTEX
  8
1外形線
  5
1997
 10
1045.85
 20
-743.865
 30
0.00000
  70
    32
  0
VERTEX
  8
1外形線
  5
1998
 10
1045.88
 20
-743.906
 30
0.00000
  70
    32
  0
VERTEX
  8
1外形線
  5
1999
 10
1045.90
 20
-743.946
 30
0.00000
  70
    32
  0
VERTEX
  8
1外形線
  5
199A
 10
1045.93
 20
-743.985
 30
0.00000
  70
    32
  0
VERTEX
  8
1外形線
  5
199B
 10
1045.95
 20
-744.025
 30
0.00000
  70
    32
  0
VERTEX
  8
1外形線
  5
199C
 10
1045.98
 20
-744.064
 30
0.00000
  70
    32
  0
VERTEX
  8
1外形線
  5
199D
 10
1046.00
 20
-744.102
 30
0.00000
  70
    32
  0
VERTEX
  8
1外形線
  5
199E
 10
1046.03
 20
-744.141
 30
0.00000
  70
    32
  0
VERTEX
  8
1外形線
  5
199F
 10
1046.05
 20
-744.179
 30
0.00000
  70
    32
  0
VERTEX
  8
1外形線
  5
19A0
 10
1046.08
 20
-744.217
 30
0.00000
  70
    32
  0
VERTEX
  8
1外形線
  5
19A1
 10
1046.11
 20
-744.254
 30
0.00000
  70
    32
  0
VERTEX
  8
1外形線
  5
19A2
 10
1046.14
 20
-744.291
 30
0.00000
  70
    32
  0
VERTEX
  8
1外形線
  5
19A3
 10
1046.16
 20
-744.328
 30
0.00000
  70
    32
  0
VERTEX
  8
1外形線
  5
19A4
 10
1046.19
 20
-744.365
 30
0.00000
  70
    32
  0
VERTEX
  8
1外形線
  5
19A5
 10
1046.22
 20
-744.401
 30
0.00000
  70
    32
  0
VERTEX
  8
1外形線
  5
19A6
 10
1046.25
 20
-744.437
 30
0.00000
  70
    32
  0
VERTEX
  8
1外形線
  5
19A7
 10
1046.28
 20
-744.472
 30
0.00000
  70
    32
  0
VERTEX
  8
1外形線
  5
19A8
 10
1046.30
 20
-744.508
 30
0.00000
  70
    32
  0
VERTEX
  8
1外形線
  5
19A9
 10
1046.33
 20
-744.543
 30
0.00000
  70
    32
  0
VERTEX
  8
1外形線
  5
19AA
 10
1046.36
 20
-744.577
 30
0.00000
  70
    32
  0
VERTEX
  8
1外形線
  5
19AB
 10
1046.39
 20
-744.612
 30
0.00000
  70
    32
  0
VERTEX
  8
1外形線
  5
19AC
 10
1046.42
 20
-744.646
 30
0.00000
  70
    32
  0
VERTEX
  8
1外形線
  5
19AD
 10
1046.45
 20
-744.680
 30
0.00000
  70
    32
  0
VERTEX
  8
1外形線
  5
19AE
 10
1046.48
 20
-744.714
 30
0.00000
  70
    32
  0
VERTEX
  8
1外形線
  5
19AF
 10
1046.51
 20
-744.747
 30
0.00000
  70
    32
  0
VERTEX
  8
1外形線
  5
19B0
 10
1046.54
 20
-744.780
 30
0.00000
  70
    32
  0
VERTEX
  8
1外形線
  5
19B1
 10
1046.58
 20
-744.813
 30
0.00000
  70
    32
  0
VERTEX
  8
1外形線
  5
19B2
 10
1046.61
 20
-744.846
 30
0.00000
  70
    32
  0
VERTEX
  8
1外形線
  5
19B3
 10
1046.64
 20
-744.879
 30
0.00000
  70
    32
  0
VERTEX
  8
1外形線
  5
19B4
 10
1046.67
 20
-744.911
 30
0.00000
  70
    32
  0
VERTEX
  8
1外形線
  5
19B5
 10
1046.70
 20
-744.943
 30
0.00000
  70
    32
  0
VERTEX
  8
1外形線
  5
19B6
 10
1046.73
 20
-744.975
 30
0.00000
  70
    32
  0
VERTEX
  8
1外形線
  5
19B7
 10
1046.77
 20
-745.006
 30
0.00000
  70
    32
  0
VERTEX
  8
1外形線
  5
19B8
 10
1046.80
 20
-745.038
 30
0.00000
  70
    32
  0
VERTEX
  8
1外形線
  5
19B9
 10
1046.83
 20
-745.069
 30
0.00000
  70
    32
  0
VERTEX
  8
1外形線
  5
19BA
 10
1046.86
 20
-745.100
 30
0.00000
  70
    32
  0
VERTEX
  8
1外形線
  5
19BB
 10
1046.90
 20
-745.131
 30
0.00000
  70
    32
  0
VERTEX
  8
1外形線
  5
19BC
 10
1046.93
 20
-745.161
 30
0.00000
  70
    32
  0
VERTEX
  8
1外形線
  5
19BD
 10
1046.96
 20
-745.192
 30
0.00000
  70
    32
  0
VERTEX
  8
1外形線
  5
19BE
 10
1047.00
 20
-745.222
 30
0.00000
  70
    32
  0
VERTEX
  8
1外形線
  5
19BF
 10
1047.03
 20
-745.252
 30
0.00000
  70
    32
  0
VERTEX
  8
1外形線
  5
19C0
 10
1047.06
 20
-745.282
 30
0.00000
  70
    32
  0
VERTEX
  8
1外形線
  5
19C1
 10
1047.10
 20
-745.312
 30
0.00000
  70
    32
  0
VERTEX
  8
1外形線
  5
19C2
 10
1047.13
 20
-745.341
 30
0.00000
  70
    32
  0
VERTEX
  8
1外形線
  5
19C3
 10
1047.17
 20
-745.371
 30
0.00000
  70
    32
  0
VERTEX
  8
1外形線
  5
19C4
 10
1047.20
 20
-745.400
 30
0.00000
  70
    32
  0
VERTEX
  8
1外形線
  5
19C5
 10
1047.23
 20
-745.430
 30
0.00000
  70
    32
  0
VERTEX
  8
1外形線
  5
19C6
 10
1047.27
 20
-745.459
 30
0.00000
  70
    32
  0
VERTEX
  8
1外形線
  5
19C7
 10
1047.30
 20
-745.488
 30
0.00000
  70
    32
  0
VERTEX
  8
1外形線
  5
19C8
 10
1047.34
 20
-745.516
 30
0.00000
  70
    32
  0
VERTEX
  8
1外形線
  5
19C9
 10
1047.37
 20
-745.545
 30
0.00000
  70
    32
  0
VERTEX
  8
1外形線
  5
19CA
 10
1047.41
 20
-745.574
 30
0.00000
  70
    32
  0
VERTEX
  8
1外形線
  5
19CB
 10
1047.44
 20
-745.602
 30
0.00000
  70
    32
  0
VERTEX
  8
1外形線
  5
19CC
 10
1047.48
 20
-745.631
 30
0.00000
  70
    32
  0
VERTEX
  8
1外形線
  5
19CD
 10
1047.51
 20
-745.659
 30
0.00000
  70
    32
  0
VERTEX
  8
1外形線
  5
19CE
 10
1047.55
 20
-745.687
 30
0.00000
  70
    32
  0
VERTEX
  8
1外形線
  5
19CF
 10
1047.58
 20
-745.715
 30
0.00000
  70
    32
  0
VERTEX
  8
1外形線
  5
19D0
 10
1047.62
 20
-745.743
 30
0.00000
  70
    32
  0
VERTEX
  8
1外形線
  5
19D1
 10
1047.65
 20
-745.771
 30
0.00000
  70
    32
  0
VERTEX
  8
1外形線
  5
19D2
 10
1047.69
 20
-745.799
 30
0.00000
  70
    32
  0
VERTEX
  8
1外形線
  5
19D3
 10
1047.72
 20
-745.827
 30
0.00000
  70
    32
  0
VERTEX
  8
1外形線
  5
19D4
 10
1047.76
 20
-745.855
 30
0.00000
  70
    32
  0
VERTEX
  8
1外形線
  5
19D5
 10
1047.80
 20
-745.883
 30
0.00000
  70
    32
  0
VERTEX
  8
1外形線
  5
19D6
 10
1047.83
 20
-745.910
 30
0.00000
  70
    32
  0
VERTEX
  8
1外形線
  5
19D7
 10
1047.87
 20
-745.938
 30
0.00000
  70
    32
  0
VERTEX
  8
1外形線
  5
19D8
 10
1047.90
 20
-745.966
 30
0.00000
  70
    32
  0
VERTEX
  8
1外形線
  5
19D9
 10
1047.94
 20
-745.993
 30
0.00000
  70
    32
  0
VERTEX
  8
1外形線
  5
19DA
 10
1047.97
 20
-746.021
 30
0.00000
  70
    32
  0
VERTEX
  8
1外形線
  5
19DB
 10
1048.01
 20
-746.048
 30
0.00000
  70
    32
  0
VERTEX
  8
1外形線
  5
19DC
 10
1048.05
 20
-746.076
 30
0.00000
  70
    32
  0
VERTEX
  8
1外形線
  5
19DD
 10
1048.08
 20
-746.103
 30
0.00000
  70
    32
  0
VERTEX
  8
1外形線
  5
19DE
 10
1048.12
 20
-746.131
 30
0.00000
  70
    32
  0
VERTEX
  8
1外形線
  5
19DF
 10
1048.15
 20
-746.158
 30
0.00000
  70
    32
  0
VERTEX
  8
1外形線
  5
19E0
 10
1048.19
 20
-746.185
 30
0.00000
  70
    32
  0
VERTEX
  8
1外形線
  5
19E1
 10
1048.23
 20
-746.213
 30
0.00000
  70
    32
  0
VERTEX
  8
1外形線
  5
19E2
 10
1048.26
 20
-746.240
 30
0.00000
  70
    32
  0
VERTEX
  8
1外形線
  5
19E3
 10
1048.30
 20
-746.267
 30
0.00000
  70
    32
  0
VERTEX
  8
1外形線
  5
19E4
 10
1048.33
 20
-746.295
 30
0.00000
  70
    32
  0
VERTEX
  8
1外形線
  5
19E5
 10
1048.37
 20
-746.322
 30
0.00000
  70
    32
  0
VERTEX
  8
1外形線
  5
19E6
 10
1048.40
 20
-746.349
 30
0.00000
  70
    32
  0
VERTEX
  8
1外形線
  5
19E7
 10
1048.44
 20
-746.376
 30
0.00000
  70
    32
  0
VERTEX
  8
1外形線
  5
19E8
 10
1048.48
 20
-746.403
 30
0.00000
  70
    32
  0
VERTEX
  8
1外形線
  5
19E9
 10
1048.51
 20
-746.430
 30
0.00000
  70
    32
  0
VERTEX
  8
1外形線
  5
19EA
 10
1048.55
 20
-746.458
 30
0.00000
  70
    32
  0
VERTEX
  8
1外形線
  5
19EB
 10
1048.58
 20
-746.485
 30
0.00000
  70
    32
  0
VERTEX
  8
1外形線
  5
19EC
 10
1048.62
 20
-746.512
 30
0.00000
  70
    32
  0
VERTEX
  8
1外形線
  5
19ED
 10
1048.66
 20
-746.539
 30
0.00000
  70
    32
  0
VERTEX
  8
1外形線
  5
19EE
 10
1048.69
 20
-746.566
 30
0.00000
  70
    32
  0
VERTEX
  8
1外形線
  5
19EF
 10
1048.73
 20
-746.593
 30
0.00000
  70
    32
  0
VERTEX
  8
1外形線
  5
19F0
 10
1048.77
 20
-746.620
 30
0.00000
  70
    32
  0
VERTEX
  8
1外形線
  5
19F1
 10
1048.80
 20
-746.646
 30
0.00000
  70
    32
  0
VERTEX
  8
1外形線
  5
19F2
 10
1048.84
 20
-746.673
 30
0.00000
  70
    32
  0
VERTEX
  8
1外形線
  5
19F3
 10
1048.87
 20
-746.700
 30
0.00000
  70
    32
  0
VERTEX
  8
1外形線
  5
19F4
 10
1048.91
 20
-746.727
 30
0.00000
  70
    32
  0
VERTEX
  8
1外形線
  5
19F5
 10
1048.95
 20
-746.754
 30
0.00000
  70
    32
  0
VERTEX
  8
1外形線
  5
19F6
 10
1048.98
 20
-746.781
 30
0.00000
  70
    32
  0
VERTEX
  8
1外形線
  5
19F7
 10
1049.02
 20
-746.807
 30
0.00000
  70
    32
  0
VERTEX
  8
1外形線
  5
19F8
 10
1049.06
 20
-746.834
 30
0.00000
  70
    32
  0
VERTEX
  8
1外形線
  5
19F9
 10
1049.09
 20
-746.861
 30
0.00000
  70
    32
  0
VERTEX
  8
1外形線
  5
19FA
 10
1049.13
 20
-746.888
 30
0.00000
  70
    32
  0
VERTEX
  8
1外形線
  5
19FB
 10
1049.16
 20
-746.914
 30
0.00000
  70
    32
  0
VERTEX
  8
1外形線
  5
19FC
 10
1049.20
 20
-746.941
 30
0.00000
  70
    32
  0
VERTEX
  8
1外形線
  5
19FD
 10
1049.24
 20
-746.968
 30
0.00000
  70
    32
  0
VERTEX
  8
1外形線
  5
19FE
 10
1049.27
 20
-746.994
 30
0.00000
  70
    32
  0
VERTEX
  8
1外形線
  5
19FF
 10
1049.31
 20
-747.021
 30
0.00000
  70
    32
  0
VERTEX
  8
1外形線
  5
1A00
 10
1049.35
 20
-747.047
 30
0.00000
  70
    32
  0
VERTEX
  8
1外形線
  5
1A01
 10
1049.38
 20
-747.074
 30
0.00000
  70
    32
  0
VERTEX
  8
1外形線
  5
1A02
 10
1049.42
 20
-747.100
 30
0.00000
  70
    32
  0
SEQEND
  8
1外形線
  5
1A03
  0
LINE
  5
1095
  8
1外形線
 10
1062.9302690046890802
 20
-747.2674415380821529
 30
0.0
 11
1062.9302690046890802
 21
-738.2674415380821529
 31
0.0
  0
ARC
  5
1096
  8
1外形線
 10
1027.3302690046889438
 20
-746.7866794245508117
 30
0.0
 40
15.0
 50
0.0
 51
30.0000000000005507
  0
ARC
  5
1097
  8
1外形線
 10
817.7123599028639092
 20
-742.7674415380821529
 30
0.0
 40
4.5
 50
270.0
 51
90.0
  0
ARC
  5
1098
  8
1外形線
 10
1057.7302690046890348
 20
-709.4410239746437128
 30
0.0
 40
30.0
 50
180.0
 51
210.0000000000005116
  0
ARC
  5
1099
  8
1外形線
 10
1074.9302690046879434
 20
-744.0932580689802762
 30
0.0
 40
5.0
 50
150.2980610068082115
 51
180.0
  0
LINE
  5
109A
  8
1外形線
 10
1062.9302690046890802
 20
-738.2674415380821529
 30
0.0
 11
1048.6102957308530677
 21
-738.0174854748172493
 31
0.0
  0
ARC
  5
109B
  8
1外形線
 10
1048.5753909179779839
 20
-740.0171808651317633
 30
0.0
 40
2.0
 50
89.0000000000177778
 51
117.8264235407118008
  0
LINE
  5
109C
  8
1外形線
 10
1040.3206500614560355
 20
-739.2866794245508117
 30
0.0
 11
1031.7495068911550788
 21
-724.4410239746428033
 31
0.0
  0
LINE
  5
109D
  8
1外形線
 10
817.7123599028634544
 20
-738.2674415380821529
 30
0.0
 11
810.212359902862886
 21
-738.2674415380821529
 31
0.0
  0
CIRCLE
  5
109E
  8
1外形線
 10
817.7123599028639092
 20
-742.7674415380821529
 30
0.0
 40
2.0
  0
LINE
  5
109F
  8
1外形線
 10
1104.7302690046890348
 20
-765.2674415380821529
 30
0.0
 11
1042.7302690046890348
 21
-765.2674415380821529
 31
0.0
  0
LINE
  5
10A0
  8
1外形線
 10
1062.9302690046890802
 20
-747.2674415380821529
 30
0.0
 11
1050.6303778089500156
 21
-747.482136937513701
 31
0.0
  0
ARC
  5
10A1
  8
1外形線
 10
1050.5954729960778877
 20
-745.4824415471963448
 30
0.0
 40
2.0
 50
233.9963801972006934
 51
270.9999999999430997
  0
LINE
  5
10A2
  8
1外形線
 10
1042.3302690046889438
 20
-765.2674415380831761
 30
0.0
 11
1042.3302690046889438
 21
-746.7866794245508117
 31
0.0
  0
LINE
  5
10A3
  8
1外形線
 10
1042.1302690046888983
 20
-769.2674415380840856
 30
0.0
 11
1042.1302690046888983
 21
-765.4674415380829942
 31
0.0
  0
ARC
  5
10A4
  8
1外形線
 10
1042.3302690046880343
 20
-765.4674415380829942
 30
0.0
 40
0.2
 50
90.0
 51
180.0
  0
ARC
  5
10A5
  8
1外形線
 10
1043.1302690046879889
 20
-769.2674415380840856
 30
0.0
 40
1.0
 50
180.0
 51
270.0
  0
LINE
  5
10A6
  8
1外形線
 10
1044.7302690046890348
 20
-770.2674415380839719
 30
0.0
 11
1043.1302690046888983
 21
-770.2674415380839719
 31
0.0
  0
LINE
  5
10A7
  8
1外形線
 10
817.7123599028634544
 20
-747.2674415380821529
 30
0.0
 11
810.212359902862886
 21
-747.2674415380821529
 31
0.0
  0
ARC
  5
10A8
  8
1外形線
 10
811.0123599028631816
 20
-769.2674415380831761
 30
0.0
 40
1.0
 50
180.0
 51
270.0
  0
LINE
  5
10A9
  8
1外形線
  6
CONTINUOUS
 10
810.0123599028630679
 20
-769.2674415380831761
 30
0.0
 11
810.0123599028630679
 21
-765.4674415380829942
 31
0.0
  0
ARC
  5
10AA
  8
1外形線
 10
810.2123599028634544
 20
-765.4674415380829942
 30
0.0
 40
0.2
 50
90.0
 51
180.0
  0
LINE
  5
10AB
  8
1外形線
 10
876.7123599028619765
 20
-738.2674415380821529
 30
0.0
 11
884.2123599028629997
 21
-738.2674415380821529
 31
0.0
  0
CIRCLE
  5
10AC
  8
1外形線
 10
876.7123599028619765
 20
-742.7674415380821529
 30
0.0
 40
2.0
  0
LINE
  5
10AD
  8
1外形線
 10
876.7123599028619765
 20
-747.2674415380821529
 30
0.0
 11
884.2123599028629997
 21
-747.2674415380821529
 31
0.0
  0
LINE
  5
10AE
  8
1外形線
  6
CONTINUOUS
 10
884.4123599028629314
 20
-769.2674415380831761
 30
0.0
 11
884.4123599028629314
 21
-765.4674415380829942
 31
0.0
  0
ARC
  5
10AF
  8
1外形線
 10
884.2123599028634544
 20
-765.4674415380829942
 30
0.0
 40
0.2
 50
0.0
 51
90.0
  0
ARC
  5
10B0
  8
1外形線
 10
883.4123599028631588
 20
-769.2674415380831761
 30
0.0
 40
1.0
 50
270.0
 51
0.0
  0
LINE
  5
10B1
  8
1外形線
 10
832.9661486516263267
 20
-843.9245300350924026
 30
0.0
 11
861.4585711540978537
 21
-843.9245300350924026
 31
0.0
  0
LINE
  5
10B2
  8
1外形線
 10
832.9661486516263267
 20
-860.9245300350924026
 30
0.0
 11
861.4585711540978537
 21
-860.9245300350918342
 31
0.0
  0
LINE
  5
10B3
  8
1外形線
 10
832.9661486516263267
 20
-858.3245300350923799
 30
0.0
 11
861.4585711540978537
 21
-858.3245300350920388
 31
0.0
  0
ARC
  5
10B4
  8
1外形線
 10
841.2123599028620902
 20
-888.5245300350923117
 30
0.0
 40
32.2000000000000099
 50
117.2660444507313997
 51
160.8118635462701036
  0
ARC
  5
10B5
  8
1外形線
 10
841.2123599028620902
 20
-888.9245300350919479
 30
0.0
 40
30.0
 50
117.2660444507313997
 51
154.158067236823797
  0
ARC
  5
10B6
  8
1外形線
 10
832.9661486516263267
 20
-872.9245300350919479
 30
0.0
 40
12.0
 50
90.0
 51
117.2660444507313997
  0
ARC
  5
10B7
  8
1外形線
 10
841.2123599028620902
 20
-873.9245300350924026
 30
0.0
 40
32.0
 50
117.2660444507313997
 51
160.8118635462701036
  0
LINE
  5
10B8
  8
1外形線
 10
810.0123599028612489
 20
-886.1245300350916523
 30
0.0
 11
810.0123599028618173
 21
-896.9245300350922889
 31
0.0
  0
LINE
  5
10B9
  8
1外形線
 10
813.0123599028626131
 20
-881.1245300350922207
 30
0.0
 11
813.0123599028622721
 21
-886.1245300350923344
 31
0.0
  0
LINE
  5
10BA
  8
1外形線
 10
813.0123599028622721
 20
-886.1245300350923344
 30
0.0
 11
813.2123599028625449
 21
-896.9245300350919479
 31
0.0
  0
LINE
  5
10BB
  8
1外形線
 10
810.212359902862886
 20
-868.0084502519902117
 30
0.0
 11
810.2123599028625449
 21
-880.2335818345843563
 31
0.0
  0
LINE
  5
10BC
  8
1外形線
 10
811.6277204142490973
 20
-885.740517250432049
 30
0.0
 11
811.8046796471691096
 21
-881.3165364274224203
 31
0.0
  0
ARC
  5
10BD
  8
1外形線
 10
811.2280400307602122
 20
-885.7245300350921298
 30
0.0
 40
0.4
 50
270.0
 51
357.7093899573604858
  0
LINE
  5
10BE
  8
1外形線
 10
811.2280400307602122
 20
-886.1245300350925618
 30
0.0
 11
810.0123599028630679
 21
-886.1245300350925618
 31
0.0
  0
ARC
  5
10BF
  8
1外形線
 10
812.0045198389136658
 20
-881.3245300350923799
 30
0.0
 40
0.2
 50
90.0
 51
177.7093899573735882
  0
LINE
  5
10C0
  8
1外形線
 10
813.0123599028618173
 20
-881.1245300350922207
 30
0.0
 11
812.0045198389136658
 21
-881.1245300350926755
 31
0.0
  0
ARC
  5
10C1
  8
1外形線
 10
824.2123599028629997
 20
-868.0084502519905527
 30
0.0
 40
14.0
 50
160.8118635462701036
 51
179.9999999999870113
  0
ARC
  5
10C2
  8
1外形線
 10
824.2123599028629997
 20
-882.6084502519903481
 30
0.0
 40
14.1999999999999993
 50
160.8118635462701036
 51
179.9999999999870113
  0
LINE
  5
10C3
  8
1外形線
 10
810.0123599028630679
 20
-882.6084502519903481
 30
0.0
 11
810.0123599028630679
 21
-886.1245300350925618
 31
0.0
  0
LINE
  5
10C4
  8
1外形線
 10
813.0123599028622721
 20
-881.0785119367179732
 30
0.0
 11
813.0123599028622721
 21
-881.1245300350926755
 31
0.0
  0
ARC
  5
10C5
  8
1外形線
 10
825.0123599028627268
 20
-881.0785119367179732
 30
0.0
 40
12.0
 50
154.158067236823797
 51
180.0
  0
ARC
  5
10C6
  8
1外形線
 10
832.9661486516263267
 20
-857.9245300350924026
 30
0.0
 40
14.0
 50
90.0
 51
117.2660444507313997
  0
ARC
  5
10C7
  8
1外形線
 10
832.9661486516263267
 20
-872.5245300350923117
 30
0.0
 40
14.1999999999999993
 50
90.0
 51
117.2660444507313997
  0
ARC
  5
10C8
  8
1外形線
 10
861.4585711540978537
 20
-857.9245300350924026
 30
0.0
 40
14.0
 50
62.7339555492685079
 51
90.0
  0
ARC
  5
10C9
  8
1外形線
 10
861.4585711540978537
 20
-872.9245300350919479
 30
0.0
 40
12.0
 50
62.7339555492685079
 51
90.0
  0
ARC
  5
10CA
  8
1外形線
 10
861.4585711540978537
 20
-872.5245300350923117
 30
0.0
 40
14.1999999999999993
 50
62.7339555492685079
 51
90.0
  0
ARC
  5
10CB
  8
1外形線
 10
853.2123599028619765
 20
-888.9245300350919479
 30
0.0
 40
30.0
 50
25.8419327631761817
 51
62.7339555492685079
  0
ARC
  5
10CC
  8
1外形線
 10
853.2123599028619765
 20
-888.5245300350923117
 30
0.0
 40
32.2000000000000099
 50
19.18813645371646
 51
62.7339555492685079
  0
ARC
  5
10CD
  8
1外形線
 10
853.2123599028619765
 20
-873.9245300350924026
 30
0.0
 40
32.0
 50
19.18813645371646
 51
62.7339555492685079
  0
LINE
  5
10CE
  8
1外形線
 10
881.4123599028619083
 20
-886.1245300350923344
 30
0.0
 11
881.2123599028616354
 21
-896.9245300350919479
 31
0.0
  0
LINE
  5
10CF
  8
1外形線
 10
884.4123599028617946
 20
-886.1245300350916523
 30
0.0
 11
884.4123599028617946
 21
-896.9245300350922889
 31
0.0
  0
LINE
  5
10D0
  8
1外形線
 10
881.4123599028619083
 20
-881.1245300350922207
 30
0.0
 11
881.4123599028619083
 21
-886.1245300350923344
 31
0.0
  0
LINE
  5
10D1
  8
1外形線
 10
881.4123599028619083
 20
-881.0785119367179732
 30
0.0
 11
881.4123599028619083
 21
-881.1245300350926755
 31
0.0
  0
LINE
  5
10D2
  8
1外形線
 10
883.1966797749639682
 20
-886.1245300350925618
 30
0.0
 11
884.4123599028617946
 21
-886.1245300350923344
 31
0.0
  0
LINE
  5
10D3
  8
1外形線
 10
884.2123599028611807
 20
-868.008450251991917
 30
0.0
 11
884.2123599028615217
 21
-880.233581834582651
 31
0.0
  0
LINE
  5
10D4
  8
1外形線
 10
881.4123599028619083
 20
-881.1245300350926755
 30
0.0
 11
882.4201999668105145
 21
-881.1245300350926755
 31
0.0
  0
LINE
  5
10D5
  8
1外形線
 10
882.7969993914749693
 20
-885.740517250432049
 30
0.0
 11
882.6200401585549571
 21
-881.3165364274224203
 31
0.0
  0
ARC
  5
10D6
  8
1外形線
 10
883.1966797749639682
 20
-885.7245300350921298
 30
0.0
 40
0.4
 50
182.2906100426264118
 51
270.0
  0
ARC
  5
10D7
  8
1外形線
 10
882.4201999668105145
 20
-881.3245300350923799
 30
0.0
 40
0.2
 50
2.29061004263944
 51
90.0
  0
ARC
  5
10D8
  8
1外形線
 10
870.2123599028619765
 20
-868.0084502519928265
 30
0.0
 40
14.0
 50
0.0
 51
19.18813645371646
  0
ARC
  5
10D9
  8
1外形線
 10
870.2123599028619765
 20
-882.6084502519927355
 30
0.0
 40
14.1999999999999993
 50
0.0
 51
19.18813645371646
  0
LINE
  5
10DA
  8
1外形線
 10
884.4123599028617946
 20
-882.6084502519927355
 30
0.0
 11
884.4123599028617946
 21
-886.1245300350923344
 31
0.0
  0
ARC
  5
10DB
  8
1外形線
 10
869.4123599028614535
 20
-881.0785119367179732
 30
0.0
 40
12.0
 50
0.0
 51
25.8419327631761817
  0
ARC
  5
10F4
  8
1外形線
 10
1266.7095497620880451
 20
-620.2674415380830624
 30
0.0
 40
38.00000000000027
 50
90.0
 51
180.0
  0
ARC
  5
10F5
  8
1外形線
 10
1266.7095497620919105
 20
-620.2674415381140989
 30
0.0
 40
36.2000000000307409
 50
90.0
 51
121.6051337479181029
  0
ARC
  5
10F6
  8
1外形線
 10
1266.7095497620850892
 20
-620.2674415380839719
 30
0.0
 40
36.1999999999996476
 50
121.605133747932598
 51
151.6051337479258052
  0
ARC
  5
10F7
  8
1外形線
 10
1266.7095497620880451
 20
-620.2674415380830624
 30
0.0
 40
36.20000000000028
 50
151.6051337479258052
 51
180.0
  0
LINE
  5
10F8
  8
1外形線
 10
1242.5095497620879996
 20
-770.2674415380830624
 30
0.0
 11
1314.9095497620880906
 21
-770.2674415380830624
 31
0.0
  0
ARC
  5
10F9
  8
1外形線
 10
1266.7095497620889546
 20
-653.6492654955743546
 30
0.0
 40
38.00000000000027
 50
180.0
 51
228.8604895851192964
  0
ARC
  5
10FA
  8
1外形線
 10
1266.7095497620889546
 20
-653.6492654955743546
 30
0.0
 40
36.20000000000028
 50
180.0
 51
230.5533754778570881
  0
LINE
  5
10FB
  8
1外形線
 10
1228.7095497620889546
 20
-620.2674415380830624
 30
0.0
 11
1228.7095497620889546
 21
-653.6492654955743546
 31
0.0
  0
LINE
  5
10FC
  8
1外形線
 10
1230.5095497620879996
 20
-620.2674415380830624
 30
0.0
 11
1230.5095497620879996
 21
-633.267441538088633
 31
0.0
  0
LINE
  5
10FD
  8
1外形線
 10
1230.5095497620879996
 20
-633.267441538088633
 30
0.0
 11
1230.5095497620879996
 21
-653.6492654955743546
 31
0.0
  0
LINE
  5
10FE
  8
1外形線
  6
CONTINUOUS
 10
1241.7095497620880451
 20
-765.2674415380831761
 30
0.0
 11
1241.7095497620880451
 21
-682.2674415380831761
 31
0.0
  0
LINE
  5
10FF
  8
1外形線
 10
1241.7095497620880451
 20
-685.2674415380821529
 30
0.0
 11
1243.7095497620880451
 21
-685.2674415380821529
 31
0.0
  0
ARC
  5
1100
  8
1外形線
 10
1242.5095497620879996
 20
-769.2674415380831761
 30
0.0
 40
1.0
 50
180.0
 51
270.0
  0
ARC
  5
1101
  8
1外形線
 10
1241.7095497620880451
 20
-765.4674415380829942
 30
0.0
 40
0.2
 50
90.0
 51
180.0
  0
LINE
  5
1102
  8
1外形線
  6
CONTINUOUS
 10
1241.5095497620879996
 20
-769.2674415380831761
 30
0.0
 11
1241.5095497620879996
 21
-765.4674415380829942
 31
0.0
  0
ARC
  5
1103
  8
1外形線
 10
1290.7095497620880451
 20
-653.6492654955743546
 30
0.0
 40
38.00000000000027
 50
311.1395104148805899
 51
0.0
  0
LINE
  5
1104
  8
1外形線
  6
CONTINUOUS
 10
1313.7095497620880451
 20
-673.1284851925045132
 30
0.0
 11
1313.7095497620880451
 21
-627.2178961211100159
 31
0.0
  0
LINE
  5
1105
  8
1外形線
  6
CONTINUOUS
 10
1314.7095497620889546
 20
-680.7498189954563941
 30
0.0
 11
1314.7095497620889546
 21
-673.1284851925045132
 31
0.0
  0
LINE
  5
1106
  8
1外形線
  6
CONTINUOUS
 10
1313.7095497620880451
 20
-685.2674415380831761
 30
0.0
 11
1313.7095497620880451
 21
-673.1284851925045132
 31
0.0
  0
ARC
  5
1107
  8
1外形線
 10
1290.7095497620889546
 20
-620.2674415380830624
 30
0.0
 40
38.00000000000027
 50
0.0
 51
90.0
  0
ARC
  5
1108
  8
1外形線
 10
1290.7095497620530296
 20
-620.267441538088633
 30
0.0
 40
36.2000000000355229
 50
0.0
 51
31.605133747901899
  0
ARC
  5
1109
  8
1外形線
 10
1322.1145250896979633
 20
-603.2904711171729559
 30
0.0
 40
0.5
 50
28.3948662520742303
 51
120.0000000000004974
  0
ARC
  5
110A
  8
1外形線
 10
1290.7095497620889546
 20
-620.2674415380830624
 30
0.0
 40
30.8000000000002814
 50
0.0
 51
28.169152356011999
  0
ARC
  5
110B
  8
1外形線
 10
1318.3023070968379216
 20
-605.4914562015608226
 30
0.0
 40
0.5
 50
119.9999999999553069
 51
208.1691523560120061
  0
ARC
  5
110C
  8
1外形線
 10
1290.7095497620889546
 20
-620.2674415380830624
 30
0.0
 40
29.8000000000002707
 50
0.0
 51
90.0
  0
LINE
  5
110D
  8
1外形線
 10
1266.7095497620939568
 20
-582.2674415380795381
 30
0.0
 11
1290.7095497620900915
 21
-582.2674415380831761
 31
0.0
  0
LINE
  5
110E
  8
1外形線
 10
1266.7095497620939568
 20
-584.06744153807972
 30
0.0
 11
1290.7095497620900915
 21
-584.0674415380832443
 31
0.0
  0
LINE
  5
110F
  8
1外形線
 10
1290.689533067577031
 20
-589.4674415380839037
 30
0.0
 11
1290.7095497620889546
 21
-589.4674415380839037
 31
0.0
  0
LINE
  5
1110
  8
1外形線
 10
1290.6895330675758942
 20
-590.4674415380839037
 30
0.0
 11
1290.7095497620889546
 21
-590.4674415380839037
 31
0.0
  0
CIRCLE
  5
1111
  8
1外形線
 10
1278.7095497620880451
 20
-589.2674415380821529
 30
0.0
 40
4.0
  0
CIRCLE
  5
1112
  8
1外形線
 10
1278.7095497620880451
 20
-589.2674415380821529
 30
0.0
 40
2.1000000000000001
  0
LINE
  5
1113
  8
1外形線
 10
1326.9095497620880906
 20
-620.2674415380830624
 30
0.0
 11
1326.9095497620880906
 21
-621.267441538088633
 31
0.0
  0
ARC
  5
1114
  8
1外形線
 10
1326.4095497620880906
 20
-621.267441538088633
 30
0.0
 40
0.5
 50
270.0
 51
0.0
  0
LINE
  5
1115
  8
1外形線
 10
1321.5095497620879996
 20
-620.2674415380830624
 30
0.0
 11
1321.5095497620879996
 21
-621.267441538088633
 31
0.0
  0
LINE
  5
1116
  8
1外形線
 10
1320.5095497620879996
 20
-620.2674415380830624
 30
0.0
 11
1320.5095497620879996
 21
-653.6492654955743546
 31
0.0
  0
LINE
  5
1117
  8
1外形線
  6
CONTINUOUS
 10
1315.7095497620880451
 20
-765.2674415380831761
 30
0.0
 11
1315.7095497620880451
 21
-682.2674415380812434
 31
0.0
  0
LINE
  5
1118
  8
1外形線
 10
1315.7095497620880451
 20
-685.2674415380821529
 30
0.0
 11
1313.9095497620880906
 21
-685.2674415380821529
 31
0.0
  0
LINE
  5
1119
  8
1外形線
  6
CONTINUOUS
 10
1315.9095497620880906
 20
-769.2674415380831761
 30
0.0
 11
1315.9095497620880906
 21
-765.4674415380829942
 31
0.0
  0
ARC
  5
111A
  8
1外形線
 10
1315.7095497620880451
 20
-765.4674415380829942
 30
0.0
 40
0.2
 50
0.0
 51
90.0
  0
ARC
  5
111B
  8
1外形線
 10
1314.9095497620880906
 20
-769.2674415380831761
 30
0.0
 40
1.0
 50
270.0
 51
0.0
  0
LINE
  5
111C
  8
1外形線
  6
CONTINUOUS
 10
1243.7095497620880451
 20
-685.2674415380831761
 30
0.0
 11
1243.7095497620880451
 21
-627.2178961211062642
 31
0.0
  0
ARC
  5
111D
  8
1外形線
 10
1266.5095497620879996
 20
-629.967441538081971
 30
0.0
 40
23.0
 50
90.0
 51
171.6793448122618031
  0
ARC
  5
111E
  8
1外形線
 10
1247.7095497620880451
 20
-627.2178961211062642
 30
0.0
 40
4.0
 50
171.6793448122618031
 51
180.0
  0
LINE
  5
111F
  8
1外形線
 10
1278.7095497620880451
 20
-606.9674415380820847
 30
0.0
 11
1266.5095497620879996
 21
-606.9674415380820847
 31
0.0
  0
ARC
  5
1120
  8
1外形線
 10
1290.9095497620880906
 20
-629.967441538081971
 30
0.0
 40
23.0
 50
8.3206551877381347
 51
90.0
  0
ARC
  5
1121
  8
1外形線
 10
1309.7095497620889546
 20
-627.2178961211100159
 30
0.0
 40
4.0
 50
0.0
 51
8.3206551877381347
  0
LINE
  5
1122
  8
1外形線
 10
1278.7095497620880451
 20
-606.9674415380820847
 30
0.0
 11
1290.9095497620880906
 21
-606.9674415380820847
 31
0.0
  0
LINE
  5
1123
  8
1外形線
 10
1245.7095497620880451
 20
-620.1511285846361261
 30
0.0
 11
1245.7095497620880451
 21
-619.4446512176289161
 31
0.0
  0
ARC
  5
1124
  8
1外形線
 10
1266.7095497620880451
 20
-629.7674415380821529
 30
0.0
 40
23.3999999999999986
 50
146.4426902380579918
 51
153.8230478283323919
  0
LINE
  5
1125
  8
1外形線
 10
1269.2095497620869082
 20
-606.567441538081539
 30
0.0
 11
1270.7095497620869082
 21
-606.5674415380824485
 31
0.0
  0
LINE
  5
1126
  8
1外形線
 10
1270.7095497620880451
 20
-606.5674415380824485
 30
0.0
 11
1270.7095497620880451
 21
-606.9674415380820847
 31
0.0
  0
ARC
  5
1127
  8
1外形線
 10
1266.5095497620879996
 20
-629.967441538081971
 30
0.0
 40
23.1999999999999993
 50
90.0
 51
146.294055478279688
  0
LINE
  5
1128
  8
1外形線
 10
1247.2095497620880451
 20
-616.8326048556942851
 30
0.0
 11
1247.2095497620880451
 21
-617.0930483484986553
 31
0.0
  0
LINE
  5
1129
  8
1外形線
 10
1269.2095497620880451
 20
-606.7674415380821529
 30
0.0
 11
1269.2095497620880451
 21
-606.567441538081539
 31
0.0
  0
LINE
  5
112A
  8
1外形線
 10
1266.5095497620879996
 20
-606.7674415380821529
 30
0.0
 11
1269.2095497620880451
 21
-606.7674415380821529
 31
0.0
  0
LINE
  5
112B
  8
1外形線
 10
1311.7095497620880451
 20
-620.1511285846361261
 30
0.0
 11
1311.7095497620880451
 21
-619.4446512176289161
 31
0.0
  0
ARC
  5
112C
  8
1外形線
 10
1290.7095497620880451
 20
-629.7674415380821529
 30
0.0
 40
23.3999999999999986
 50
26.1769521716676117
 51
33.5573097619111991
  0
LINE
  5
112D
  8
1外形線
 10
1288.2095497620900915
 20
-606.567441538081539
 30
0.0
 11
1286.7095497620889546
 21
-606.5674415380824485
 31
0.0
  0
LINE
  5
112E
  8
1外形線
 10
1286.7095497620880451
 20
-606.5674415380824485
 30
0.0
 11
1286.7095497620889546
 21
-606.9674415380820847
 31
0.0
  0
ARC
  5
112F
  8
1外形線
 10
1290.9095497620880906
 20
-629.967441538081971
 30
0.0
 40
23.1999999999999993
 50
33.7059445217202907
 51
90.0
  0
LINE
  5
1130
  8
1外形線
 10
1310.2095497620880451
 20
-616.8326048556942851
 30
0.0
 11
1310.2095497620880451
 21
-617.0930483484986553
 31
0.0
  0
LINE
  5
1131
  8
1外形線
 10
1288.2095497620889546
 20
-606.7674415380821529
 30
0.0
 11
1288.2095497620889546
 21
-606.567441538081539
 31
0.0
  0
LINE
  5
1132
  8
1外形線
 10
1290.9095497620880906
 20
-606.7674415380821529
 30
0.0
 11
1288.2095497620889546
 21
-606.7674415380821529
 31
0.0
  0
ARC
  5
1133
  8
1外形線
 10
1290.7095497620869082
 20
-653.6492654955743546
 30
0.0
 40
36.20000000000028
 50
309.4466245221428835
 51
0.0
  0
ARC
  5
1134
  8
1外形線
 10
1290.7095497620869082
 20
-653.6492654955743546
 30
0.0
 40
30.8000000000002814
 50
321.5128364032032096
 51
0.0
  0
ARC
  5
1135
  8
1外形線
 10
1315.2095497620889546
 20
-673.1284851925045132
 30
0.0
 40
0.5
 50
141.5128364031380954
 51
180.0
  0
ARC
  5
1136
  8
1外形線
 10
1290.7095497620869082
 20
-653.6492654955743546
 30
0.0
 40
29.8000000000002707
 50
321.5128364032032096
 51
0.0
  0
ARC
  5
1137
  8
1外形線
 10
1315.2095497620889546
 20
-673.1284851925045132
 30
0.0
 40
1.5
 50
141.5128364032032096
 51
180.0
  0
ARC
  5
1138
  8
1外形線
 10
1278.7095497620880451
 20
-589.2674415380821529
 30
0.0
 40
9.4000000000000004
 50
270.0
 51
345.0447516833438044
  0
ARC
  5
1139
  8
1外形線
 10
1290.6895330675758942
 20
-592.4674415380839037
 30
0.0
 40
3.0
 50
89.9999999999869686
 51
165.0447516833438044
  0
ARC
  5
113A
  8
1外形線
 10
1278.7095497620880451
 20
-589.2674415380821529
 30
0.0
 40
10.4000000000000004
 50
270.0
 51
345.0447516833438044
  0
ARC
  5
113B
  8
1外形線
 10
1290.6895330675758942
 20
-592.4674415380839037
 30
0.0
 40
2.0
 50
90.0
 51
165.0447516833438044
  0
ARC
  5
113C
  8
1外形線
 10
1266.7095497620880451
 20
-620.2674415380830624
 30
0.0
 40
30.8000000000002814
 50
90.0
 51
118.1691523560120061
  0
ARC
  5
113D
  8
1外形線
 10
1266.7095497620880451
 20
-620.2674415380830624
 30
0.0
 40
30.8000000000002814
 50
121.8308476439723051
 51
148.1691523560114092
  0
ARC
  5
113E
  8
1外形線
 10
1266.7095497620880451
 20
-620.2674415380830624
 30
0.0
 40
30.8000000000002814
 50
151.8308476439879939
 51
180.0
  0
ARC
  5
113F
  8
1外形線
 10
1266.7095497620880451
 20
-620.2674415380830624
 30
0.0
 40
29.8000000000002707
 50
90.0
 51
180.0
  0
LINE
  5
1140
  8
1外形線
 10
1266.7295664565999687
 20
-589.4674415380839037
 30
0.0
 11
1266.7095497620869082
 21
-589.4674415380839037
 31
0.0
  0
LINE
  5
1141
  8
1外形線
 10
1266.7295664565999687
 20
-590.4674415380839037
 30
0.0
 11
1266.7095497620880451
 21
-590.4674415380839037
 31
0.0
  0
LINE
  5
1142
  8
1外形線
 10
1235.9095497620880906
 20
-620.2674415380830624
 30
0.0
 11
1235.9095497620880906
 21
-621.267441538088633
 31
0.0
  0
LINE
  5
1143
  8
1外形線
 10
1235.9095497620880906
 20
-623.267441538088633
 30
0.0
 11
1235.9095497620880906
 21
-651.267441538088633
 31
0.0
  0
LINE
  5
1144
  8
1外形線
 10
1235.9095497620880906
 20
-653.267441538088633
 30
0.0
 11
1235.9095497620880906
 21
-653.6492654955743546
 31
0.0
  0
LINE
  5
1145
  8
1外形線
 10
1236.9095497620880906
 20
-620.2674415380830624
 30
0.0
 11
1236.9095497620880906
 21
-653.6492654955743546
 31
0.0
  0
ARC
  5
1146
  8
1外形線
 10
1266.7095497620889546
 20
-653.6492654955743546
 30
0.0
 40
30.8000000000002814
 50
180.0
 51
218.4871635967967904
  0
ARC
  5
1147
  8
1外形線
 10
1266.7095497620889546
 20
-653.6492654955743546
 30
0.0
 40
29.8000000000002707
 50
180.0
 51
218.4871635967967904
  0
ARC
  5
1148
  8
1外形線
 10
1278.7095497620880451
 20
-589.2674415380821529
 30
0.0
 40
9.4000000000000004
 50
194.9552483166561103
 51
270.0
  0
ARC
  5
1149
  8
1外形線
 10
1266.7295664565999687
 20
-592.4674415380839037
 30
0.0
 40
3.0
 50
14.9552483166561796
 51
90.0000000000130314
  0
ARC
  5
114A
  8
1外形線
 10
1278.7095497620880451
 20
-589.2674415380821529
 30
0.0
 40
10.4000000000000004
 50
194.9552483166561103
 51
270.0
  0
ARC
  5
114B
  8
1外形線
 10
1266.7295664565999687
 20
-592.4674415380839037
 30
0.0
 40
2.0
 50
14.9552483166561796
 51
90.0
  0
LINE
  5
114C
  8
1外形線
  6
CENTER
 10
1318.0523070968379216
 20
-605.0584434996678738
 30
0.0
 11
1321.8645250896979633
 21
-602.8574584152809166
 31
0.0
  0
LINE
  5
114D
  8
1外形線
  6
CENTER
 10
1306.7845732042869713
 20
-593.4246842033331859
 30
0.0
 11
1308.9855582886739285
 21
-589.6124662104726895
 31
0.0
  0
ARC
  5
114E
  8
1外形線
 10
1290.7095497620889546
 20
-620.2674415380830624
 30
0.0
 40
30.8000000000001783
 50
0.0
 51
28.169152356011999
  0
ARC
  5
114F
  8
1外形線
 10
1290.7095497620889546
 20
-620.2674415380830624
 30
0.0
 40
30.8000000000001783
 50
31.8308476439885411
 51
58.1691523560276877
  0
ARC
  5
1150
  8
1外形線
 10
1307.2175859061790106
 20
-593.6746842033332996
 30
0.0
 40
0.5
 50
149.9999999999994031
 51
238.1691523560583903
  0
ARC
  5
1151
  8
1外形線
 10
1290.7095497620889546
 20
-620.2674415380830624
 30
0.0
 40
36.1999999999998181
 50
0.0
 51
28.3948662520742303
  0
ARC
  5
1152
  8
1外形線
 10
1290.7095497620518927
 20
-620.2674415381122799
 30
0.0
 40
36.2000000000457973
 50
31.60513374793263
 51
61.6051337479112107
  0
ARC
  5
1153
  8
1外形線
 10
1309.4185709905659678
 20
-589.8624662104728031
 30
0.0
 40
0.5
 50
58.3948662520673807
 51
150.0000000000609077
  0
ARC
  5
1154
  8
1外形線
 10
1290.7095497620880451
 20
-620.2674415380822666
 30
0.0
 40
36.2000000000005002
 50
0.0
 51
28.3948662520742303
  0
ARC
  5
1155
  8
1外形線
 10
1290.7095497620880451
 20
-620.2674415380822666
 30
0.0
 40
36.2000000000005002
 50
31.60513374793263
 51
58.3948662520673807
  0
ARC
  5
1156
  8
1外形線
 10
1290.7095497620880451
 20
-620.2674415380822666
 30
0.0
 40
36.2000000000005002
 50
61.605133747925791
 51
89.9999999999869686
  0
ARC
  5
1157
  8
1外形線
 10
1290.7095497620880451
 20
-620.2674415380822666
 30
0.0
 40
30.8000000000008711
 50
0.0
 51
28.169152356011999
  0
ARC
  5
1158
  8
1外形線
 10
1290.7095497620880451
 20
-620.2674415380822666
 30
0.0
 40
30.8000000000008711
 50
31.8308476439885411
 51
58.1691523560276877
  0
ARC
  5
1159
  8
1外形線
 10
1290.7095497620880451
 20
-620.2674415380822666
 30
0.0
 40
30.8000000000008711
 50
61.8308476439880224
 51
90.0
  0
ARC
  5
115A
  8
1外形線
 10
1321.1145250896991001
 20
-601.5584203096047986
 30
0.0
 40
0.5
 50
299.9999999999860165
 51
31.60513374793263
  0
ARC
  5
115B
  8
1外形線
 10
1317.3023070968379216
 20
-603.7594053939925516
 30
0.0
 40
0.5
 50
211.8308476439885055
 51
300.0000000000296154
  0
LINE
  5
115C
  8
1外形線
  6
CENTER
 10
1317.5523070968379216
 20
-604.1924180958836814
 30
0.0
 11
1321.3645250896991001
 21
-601.9914330114977474
 31
0.0
  0
LINE
  5
115D
  8
1外形線
  6
CENTER
 10
1305.9185478005019831
 20
-592.9246842033322764
 30
0.0
 11
1308.1195328848889403
 21
-589.1124662104726895
 31
0.0
  0
ARC
  5
115E
  8
1外形線
 10
1305.4855350986090343
 20
-592.6746842033322764
 30
0.0
 40
0.5
 50
241.8308476439588901
 51
329.9999999999994884
  0
ARC
  5
115F
  8
1外形線
 10
1307.686520182996901
 20
-588.8624662104728031
 30
0.0
 40
0.5
 50
329.9999999999703846
 51
61.605133747925791
  0
LINE
  5
1160
  8
1外形線
 10
1326.4095497620880906
 20
-621.767441538088633
 30
0.0
 11
1322.0095497620879996
 21
-621.767441538088633
 31
0.0
  0
ARC
  5
1161
  8
1外形線
 10
1322.0095497620879996
 20
-621.267441538088633
 30
0.0
 40
0.5
 50
180.0
 51
270.0
  0
ARC
  5
1162
  8
1外形線
 10
1326.4095497620880906
 20
-623.267441538088633
 30
0.0
 40
0.5
 50
0.0
 51
90.0
  0
LINE
  5
1163
  8
1外形線
 10
1326.4095497620880906
 20
-622.767441538088633
 30
0.0
 11
1322.0095497620879996
 21
-622.767441538088633
 31
0.0
  0
ARC
  5
1164
  8
1外形線
 10
1322.0095497620879996
 20
-623.267441538088633
 30
0.0
 40
0.5
 50
90.0
 51
180.0
  0
LINE
  5
1165
  8
1外形線
 10
1326.9095497620880906
 20
-621.267441538088633
 30
0.0
 11
1326.9095497620880906
 21
-653.6492654955743546
 31
0.0
  0
LINE
  5
1166
  8
1外形線
 10
1321.5095497620870901
 20
-653.6492654955743546
 30
0.0
 11
1321.5095526636819159
 21
-653.2657381340911797
 31
0.0
  0
LINE
  5
1167
  8
1外形線
 10
1321.5095677498040914
 20
-651.2716826926849762
 30
0.0
 11
1321.5095497624540712
 21
-623.2674606773614414
 31
0.0
  0
LINE
  5
1168
  8
1外形線
 10
1328.7095497620889546
 20
-620.2674415380830624
 30
0.0
 11
1328.7095497620880451
 21
-653.6492654955743546
 31
0.0
  0
ARC
  5
1169
  8
1外形線
 10
1235.3045744344778996
 20
-603.2904711171729559
 30
0.0
 40
0.5
 50
59.99999999999946
 51
151.6051337479258052
  0
ARC
  5
116A
  8
1外形線
 10
1239.1167924273390781
 20
-605.4914562015608226
 30
0.0
 40
0.5
 50
331.8308476439880224
 51
60.0000000000447002
  0
ARC
  5
116B
  8
1外形線
 10
1231.0095497620879996
 20
-621.267441538088633
 30
0.0
 40
0.5
 50
180.0
 51
270.0
  0
LINE
  5
116C
  8
1外形線
  6
CENTER
 10
1239.3667924273379413
 20
-605.0584434996678738
 30
0.0
 11
1235.5545744344778996
 21
-602.8574584152809166
 31
0.0
  0
LINE
  5
116D
  8
1外形線
  6
CENTER
 10
1250.6345263198888915
 20
-593.4246842033331859
 30
0.0
 11
1248.4335412355019344
 21
-589.6124662104726895
 31
0.0
  0
ARC
  5
116E
  8
1外形線
 10
1250.2015136179970796
 20
-593.6746842033332996
 30
0.0
 40
0.5
 50
301.8308476439415813
 51
30.0000000000005507
  0
ARC
  5
116F
  8
1外形線
 10
1248.000528533609895
 20
-589.8624662104728031
 30
0.0
 40
0.5
 50
29.9999999999391314
 51
121.605133747932598
  0
ARC
  5
1170
  8
1外形線
 10
1236.3045744344769901
 20
-601.5584203096047986
 30
0.0
 40
0.5
 50
148.394866252067402
 51
240.0000000000140119
  0
ARC
  5
1171
  8
1外形線
 10
1240.1167924273379413
 20
-603.7594053939925516
 30
0.0
 40
0.5
 50
239.999999999970413
 51
328.1691523560115229
  0
LINE
  5
1172
  8
1外形線
  6
CENTER
 10
1239.8667924273379413
 20
-604.1924180958836814
 30
0.0
 11
1236.0545744344769901
 21
-601.9914330114977474
 31
0.0
  0
LINE
  5
1173
  8
1外形線
  6
CENTER
 10
1251.5005517236750165
 20
-592.9246842033322764
 30
0.0
 11
1249.2995666392869225
 21
-589.1124662104726895
 31
0.0
  0
ARC
  5
1174
  8
1外形線
 10
1251.9335644255670559
 20
-592.6746842033322764
 30
0.0
 40
0.5
 50
210.0000000000005116
 51
298.1691523560410815
  0
ARC
  5
1175
  8
1外形線
 10
1249.7325793411789618
 20
-588.8624662104728031
 30
0.0
 40
0.5
 50
118.3948662520451052
 51
210.000000000029587
  0
LINE
  5
1176
  8
1外形線
 10
1231.0095497620879996
 20
-621.767441538088633
 30
0.0
 11
1235.4095497620880906
 21
-621.767441538088633
 31
0.0
  0
ARC
  5
1177
  8
1外形線
 10
1235.4095497620880906
 20
-621.267441538088633
 30
0.0
 40
0.5
 50
270.0
 51
0.0
  0
ARC
  5
1178
  8
1外形線
 10
1231.0095497620879996
 20
-623.267441538088633
 30
0.0
 40
0.5
 50
90.0
 51
180.0
  0
LINE
  5
1179
  8
1外形線
 10
1231.0095497620879996
 20
-622.767441538088633
 30
0.0
 11
1235.4095497620880906
 21
-622.767441538088633
 31
0.0
  0
ARC
  5
117A
  8
1外形線
 10
1235.4095497620880906
 20
-623.267441538088633
 30
0.0
 40
0.5
 50
0.0
 51
90.0
  0
ARC
  5
117B
  8
1外形線
 10
1326.4095497620880906
 20
-651.267441538088633
 30
0.0
 40
0.5
 50
270.0
 51
0.0
  0
LINE
  5
117C
  8
1外形線
 10
1326.4095497620880906
 20
-651.767441538088633
 30
0.0
 11
1322.0095497620879996
 21
-651.767441538088633
 31
0.0
  0
ARC
  5
117D
  8
1外形線
 10
1322.0095497620879996
 20
-651.267441538088633
 30
0.0
 40
0.5
 50
180.0
 51
270.0
  0
ARC
  5
117E
  8
1外形線
 10
1326.4095497620880906
 20
-653.267441538088633
 30
0.0
 40
0.5
 50
0.0
 51
90.0
  0
LINE
  5
117F
  8
1外形線
 10
1326.4095497620880906
 20
-652.767441538088633
 30
0.0
 11
1322.0095497620879996
 21
-652.767441538088633
 31
0.0
  0
ARC
  5
1180
  8
1外形線
 10
1322.0095497620879996
 20
-653.267441538088633
 30
0.0
 40
0.5
 50
90.0
 51
180.0
  0
ARC
  5
1181
  8
1外形線
 10
1231.0095497620879996
 20
-651.267441538088633
 30
0.0
 40
0.5
 50
180.0
 51
270.0
  0
LINE
  5
1182
  8
1外形線
 10
1231.0095497620879996
 20
-651.767441538088633
 30
0.0
 11
1235.4095497620880906
 21
-651.767441538088633
 31
0.0
  0
ARC
  5
1183
  8
1外形線
 10
1235.4095497620880906
 20
-651.267441538088633
 30
0.0
 40
0.5
 50
270.0
 51
0.0
  0
ARC
  5
1184
  8
1外形線
 10
1231.0095497620879996
 20
-653.267441538088633
 30
0.0
 40
0.5
 50
90.0
 51
180.0
  0
LINE
  5
1185
  8
1外形線
 10
1231.0095497620879996
 20
-652.767441538088633
 30
0.0
 11
1235.4095497620880906
 21
-652.767441538088633
 31
0.0
  0
ARC
  5
1186
  8
1外形線
 10
1235.4095497620880906
 20
-653.267441538088633
 30
0.0
 40
0.5
 50
0.0
 51
90.0
  0
LINE
  5
1187
  8
1外形線
  6
CONTINUOUS
 10
1242.7095497620880451
 20
-680.7498189954563941
 30
0.0
 11
1242.7095497620880451
 21
-673.1284851925045132
 31
0.0
  0
ARC
  5
1188
  8
1外形線
 10
1242.2095497620869082
 20
-673.1284851925045132
 30
0.0
 40
0.5
 50
0.0
 51
38.487163596861933
  0
ARC
  5
1189
  8
1外形線
 10
1242.2095497620880451
 20
-673.1284851925045132
 30
0.0
 40
1.5
 50
0.0
 51
38.4871635967968189
  0
ARC
  5
118A
  8
1外形線
 10
1278.7095497620880451
 20
-667.7674415380830624
 30
0.0
 40
35.0
 50
210.92321565535741
 51
329.0767843446424763
  0
LINE
  5
118B
  8
1外形線
  6
CONTINUOUS
 10
1241.7095497620880451
 20
-765.2674415380831761
 30
0.0
 11
1241.7095497620880451
 21
-685.2674415380831761
 31
0.0
  0
LINE
  5
118C
  8
1外形線
  6
CONTINUOUS
 10
1315.7095497620880451
 20
-765.2674415380831761
 30
0.0
 11
1315.7095497620880451
 21
-685.2674415380831761
 31
0.0
  0
ARC
  5
118D
  8
1外形線
 10
1247.8267066287230591
 20
-686.2674415380831761
 30
0.0
 40
1.0
 50
30.9232156553574491
 51
90.0
  0
LINE
  5
118E
  8
1外形線
 10
1247.8267066287230591
 20
-685.2674415380831761
 30
0.0
 11
1241.7095497620880451
 21
-685.2674415380831761
 31
0.0
  0
ARC
  5
118F
  8
1外形線
 10
1309.5923928954518942
 20
-686.2674415380831761
 30
0.0
 40
1.0
 50
90.0
 51
149.0767843446425047
  0
LINE
  5
1190
  8
1外形線
 10
1309.5923928954518942
 20
-685.2674415380831761
 30
0.0
 11
1315.7095497620880451
 21
-685.2674415380831761
 31
0.0
  0
LINE
  5
1191
  8
1外形線
 10
1242.5095497620879996
 20
-770.2674415380830624
 30
0.0
 11
1314.9095497620880906
 21
-770.2674415380830624
 31
0.0
  0
ARC
  5
1192
  8
1外形線
 10
1242.5095497620879996
 20
-769.2674415380831761
 30
0.0
 40
1.0
 50
180.0
 51
270.0
  0
ARC
  5
1193
  8
1外形線
 10
1241.7095497620880451
 20
-765.4674415380834489
 30
0.0
 40
0.2
 50
90.0
 51
180.0
  0
LINE
  5
1194
  8
1外形線
  6
CONTINUOUS
 10
1241.5095497620879996
 20
-769.2674415380831761
 30
0.0
 11
1241.5095497620879996
 21
-765.4674415380834489
 31
0.0
  0
CIRCLE
  5
1195
  8
1外形線
 10
1278.7095497620880451
 20
-742.7674415380830624
 30
0.0
 40
2.1000000000000001
  0
ARC
  5
1196
  8
1外形線
 10
1314.9095497620880906
 20
-769.2674415380831761
 30
0.0
 40
1.0
 50
270.0
 51
0.0
  0
ARC
  5
1197
  8
1外形線
 10
1315.7095497620880451
 20
-765.4674415380834489
 30
0.0
 40
0.2
 50
0.0
 51
90.0
  0
LINE
  5
1198
  8
1外形線
  6
CONTINUOUS
 10
1315.9095497620880906
 20
-769.2674415380831761
 30
0.0
 11
1315.9095497620880906
 21
-765.4674415380834489
 31
0.0
  0
LINE
  5
13E4
  8
1外形線
 10
884.2123599028642502
 20
-496.5264328241739236
 30
0.0
 11
884.2123599028643639
 21
-451.6103530410742906
 31
0.0
  0
LINE
  5
13E9
  8
1外形線
 10
810.2123599028640228
 20
-496.5264328241752878
 30
0.0
 11
810.2123599028644776
 21
-451.6103530410734948
 31
0.0
  0
LINE
  5
13EA
  8
1外形線
 10
797.2123599028656145
 20
-443.6103530410733811
 30
0.0
 11
897.2123599028645913
 21
-443.6103530410745179
 31
0.0
  0
LINE
  5
13EB
  8
1外形線
 10
896.212359902864705
 20
-446.61035304107412
 30
0.0
 11
798.2123599028656145
 21
-446.6103530410733242
 31
0.0
  0
ARC
  5
13ED
  8
1外形線
 10
798.2123599028656145
 20
-445.6103530410733242
 30
0.0
 40
1.0
 50
180.0
 51
269.9999999999993179
  0
LINE
  5
13EE
  8
1外形線
 10
797.2123599028656145
 20
-443.6103530410733811
 30
0.0
 11
797.2123599028656145
 21
-445.6103530410733242
 31
0.0
  0
ARC
  5
13F3
  8
1外形線
 10
889.2123599028655008
 20
-451.6103530410742906
 30
0.0
 40
5.0
 50
89.9999999999993463
 51
180.0
  0
LINE
  5
13F4
  8
1外形線
 10
897.2123599028645913
 20
-443.6103530410745179
 30
0.0
 11
897.2123599028645913
 21
-445.6103530410745179
 31
0.0
  0
ARC
  5
13F5
  8
1外形線
 10
896.212359902864705
 20
-445.6103530410745179
 30
0.0
 40
1.0
 50
269.9999999999993179
 51
0.0
  0
LINE
  5
13F6
  8
1外形線
 10
832.9661486516281457
 20
-520.6103530410737221
 30
0.0
 11
861.4585711540994453
 21
-520.6103530410739495
 31
0.0
  0
ARC
  5
13FC
  8
1外形線
 10
841.2123599028641365
 20
-490.610353041073779
 30
0.0
 40
32.0
 50
199.1881364537298964
 51
242.7339555492683871
  0
ARC
  5
1406
  8
1外形線
 10
824.212359902865046
 20
-496.5264328241755152
 30
0.0
 40
14.0
 50
180.0000000000129887
 51
199.1881364537298964
  0
ARC
  5
140B
  8
1外形線
 10
832.9661486516282594
 20
-506.6103530410737221
 30
0.0
 40
14.0
 50
242.7339555492683871
 51
269.9999999999993179
  0
ARC
  5
140D
  8
1外形線
 10
861.4585711540997863
 20
-506.61035304107412
 30
0.0
 40
14.0
 50
269.9999999999993179
 51
297.2660444507305897
  0
ARC
  5
1412
  8
1外形線
 10
853.2123599028642502
 20
-490.6103530410738927
 30
0.0
 40
32.0
 50
297.2660444507305897
 51
340.8118635462836892
  0
ARC
  5
141D
  8
1外形線
 10
870.2123599028642502
 20
-496.5264328241736962
 30
0.0
 40
14.0
 50
340.8118635462836892
 51
0.0
  0
ARC
  5
1429
  8
1外形線
 10
805.2123599028644776
 20
-451.6103530410733811
 30
0.0
 40
5.0
 50
359.9999999999993179
 51
89.9999999999993463
  0
LINE
  5
142C
  8
1外形線
 62
     2
 10
847.2123599028629997
 20
-778.3633458340860898
 30
0.0
 11
847.2123599028629997
 21
-567.7490982128301766
 31
0.0
  0
LINE
  5
142D
  8
1外形線
 62
     2
 10
847.2123599028622039
 20
-524.7624023819321337
 30
0.0
 11
847.2123599028622039
 21
-427.7758237393840091
 31
0.0
  0
LINE
  5
142E
  8
1外形線
 62
     2
 10
847.2123599028622039
 20
-928.6223170447060511
 30
0.0
 11
847.2123599028622039
 21
-833.6027986835835009
 31
0.0
  0
LINE
  5
142F
  8
1外形線
 62
     2
 10
1278.7095497620889546
 20
-782.4994550796948261
 30
0.0
 11
1278.7095497620889546
 21
-566.9113547735862539
 31
0.0
  0
ENDSEC
  0
EOF
