  0
SECTION
  2
HEADER
  9
$ACADVER
  1
AC1009
  9
$INSBASE
 10
0.0
 20
0.0
 30
0.0
  9
$EXTMIN
 10
-55.714716614758217
 20
-948.63661795028213
 30
0.0
  9
$EXTMAX
 10
555.2065735658914
 20
-364.34816310988163
 30
0.0
  9
$LIMMIN
 10
0.0
 20
0.0
  9
$LIMMAX
 10
420.0
 20
297.0
  9
$ORTHOMODE
 70
     1
  9
$REGENMODE
 70
     1
  9
$FILLMODE
 70
     1
  9
$QTEXTMODE
 70
     0
  9
$MIRRTEXT
 70
     1
  9
$DRAGMODE
 70
     2
  9
$LTSCALE
 40
1.0
  9
$OSMODE
 70
    37
  9
$ATTMODE
 70
     1
  9
$TEXTSIZE
 40
2.5
  9
$TRACEWID
 40
1.0
  9
$TEXTSTYLE
  7
KANJI
  9
$CLAYER
  8
2寸法線
  9
$CELTYPE
  6
BYLAYER
  9
$CECOLOR
 62
   256
  9
$DIMSCALE
 40
0.0
  9
$DIMASZ
 40
1.8
  9
$DIMEXO
 40
1.0
  9
$DIMDLI
 40
0.0
  9
$DIMRND
 40
0.0
  9
$DIMDLE
 40
0.0
  9
$DIMEXE
 40
1.0
  9
$DIMTP
 40
0.0
  9
$DIMTM
 40
0.0
  9
$DIMTXT
 40
2.5
  9
$DIMCEN
 40
0.0
  9
$DIMTSZ
 40
0.0
  9
$DIMTOL
 70
     0
  9
$DIMLIM
 70
     0
  9
$DIMTIH
 70
     0
  9
$DIMTOH
 70
     0
  9
$DIMSE1
 70
     0
  9
$DIMSE2
 70
     0
  9
$DIMTAD
 70
     1
  9
$DIMZIN
 70
     8
  9
$DIMBLK
  1

  9
$DIMASO
 70
     1
  9
$DIMSHO
 70
     1
  9
$DIMPOST
  1

  9
$DIMAPOST
  1

  9
$DIMALT
 70
     0
  9
$DIMALTD
 70
     2
  9
$DIMALTF
 40
25.399999999999999
  9
$DIMLFAC
 40
1.0
  9
$DIMTOFL
 70
     1
  9
$DIMTVP
 40
0.0
  9
$DIMTIX
 70
     0
  9
$DIMSOXD
 70
     0
  9
$DIMSAH
 70
     1
  9
$DIMBLK1
  1
2
  9
$DIMBLK2
  1
2
  9
$DIMSTYLE
  2
M
  9
$DIMCLRD
 70
     0
  9
$DIMCLRE
 70
     0
  9
$DIMCLRT
 70
     0
  9
$DIMTFAC
 40
1.0
  9
$DIMGAP
 40
0.5
  9
$LUNITS
 70
     2
  9
$LUPREC
 70
     3
  9
$SKETCHINC
 40
1.0
  9
$FILLETRAD
 40
0.0
  9
$AUNITS
 70
     0
  9
$AUPREC
 70
     1
  9
$MENU
  1
.
  9
$ELEVATION
 40
0.0
  9
$PELEVATION
 40
0.0
  9
$THICKNESS
 40
0.0
  9
$LIMCHECK
 70
     0
  9
$BLIPMODE
 70
     0
  9
$CHAMFERA
 40
10.0
  9
$CHAMFERB
 40
10.0
  9
$SKPOLY
 70
     0
  9
$TDCREATE
 40
2454393.806994895
  9
$TDUPDATE
 40
2454396.442566006
  9
$TDINDWG
 40
0.0295940278
  9
$TDUSRTIMER
 40
0.0295938426
  9
$USRTIMER
 70
     1
  9
$ANGBASE
 50
0.0
  9
$ANGDIR
 70
     0
  9
$PDMODE
 70
     0
  9
$PDSIZE
 40
0.0
  9
$PLINEWID
 40
0.0
  9
$COORDS
 70
     0
  9
$SPLFRAME
 70
     0
  9
$SPLINETYPE
 70
     6
  9
$SPLINESEGS
 70
     8
  9
$ATTDIA
 70
     1
  9
$ATTREQ
 70
     1
  9
$HANDLING
 70
     1
  9
$HANDSEED
  5
2197
  9
$SURFTAB1
 70
     6
  9
$SURFTAB2
 70
     6
  9
$SURFTYPE
 70
     6
  9
$SURFU
 70
     6
  9
$SURFV
 70
     6
  9
$UCSNAME
  2

  9
$UCSORG
 10
0.0
 20
0.0
 30
0.0
  9
$UCSXDIR
 10
1.0
 20
0.0
 30
0.0
  9
$UCSYDIR
 10
0.0
 20
1.0
 30
0.0
  9
$PUCSNAME
  2

  9
$PUCSORG
 10
0.0
 20
0.0
 30
0.0
  9
$PUCSXDIR
 10
1.0
 20
0.0
 30
0.0
  9
$PUCSYDIR
 10
0.0
 20
1.0
 30
0.0
  9
$USERI1
 70
     0
  9
$USERI2
 70
     0
  9
$USERI3
 70
     0
  9
$USERI4
 70
     0
  9
$USERI5
 70
     0
  9
$USERR1
 40
0.0
  9
$USERR2
 40
0.0
  9
$USERR3
 40
0.0
  9
$USERR4
 40
0.0
  9
$USERR5
 40
0.0
  9
$WORLDVIEW
 70
     1
  9
$SHADEDGE
 70
     3
  9
$SHADEDIF
 70
    70
  9
$TILEMODE
 70
     1
  9
$MAXACTVP
 70
    48
  9
$PLIMCHECK
 70
     0
  9
$PEXTMIN
 10
1.0000000000000000E+020
 20
1.0000000000000000E+020
 30
1.0000000000000000E+020
  9
$PEXTMAX
 10
-1.0000000000000000E+020
 20
-1.0000000000000000E+020
 30
-1.0000000000000000E+020
  9
$PLIMMIN
 10
0.0
 20
0.0
  9
$PLIMMAX
 10
420.0
 20
297.0
  9
$UNITMODE
 70
     0
  9
$VISRETAIN
 70
     1
  9
$PLINEGEN
 70
     0
  9
$PSLTSCALE
 70
     1
  0
ENDSEC
  0
SECTION
  2
TABLES
  0
TABLE
  2
VPORT
 70
     3
  0
VPORT
  2
*ACTIVE
 70
     0
 10
0.0
 20
0.0
 11
1.0
 21
1.0
 12
287.86466758533152
 22
-643.49052320662565
 13
0.0
 23
0.0
 14
10.0
 24
10.0
 15
10.0
 25
10.0
 16
0.0
 26
0.0
 36
1.0
 17
0.0
 27
0.0
 37
0.0
 40
740.96720635563418
 41
1.5937904269081491
 42
50.0
 43
0.0
 44
0.0
 50
0.0
 51
0.0
 71
     0
 72
   100
 73
     1
 74
     1
 75
     0
 76
     0
 77
     0
 78
     0
  0
ENDTAB
  0
TABLE
  2
LTYPE
 70
     2
  0
LTYPE
  2
CONTINUOUS
 70
     0
  3
Solid line
 72
    65
 73
     0
 40
0.0
  0
ENDTAB
  0
TABLE
  2
LAYER
 70
     4
  0
LAYER
  2
0
 70
     0
 62
     7
  6
CONTINUOUS
  0
LAYER
  2
2寸法線
 70
     0
 62
     2
  6
CONTINUOUS
  0
LAYER
  2
1外形線
 70
     0
 62
     3
  6
CONTINUOUS
  0
LAYER
  2
DEFPOINTS
 70
     0
 62
     7
  6
CONTINUOUS
  0
ENDTAB
  0
TABLE
  2
STYLE
 70
     2
  0
STYLE
  2
STANDARD
 70
     0
 40
0.0
 41
1.0
 50
0.0
 71
     0
 42
2.5
  3
txt
  4

  0
STYLE
  2
KANJI
 70
     0
 40
0.0
 41
1.0
 50
0.0
 71
     0
 42
2.5
  3
simplex.shx
  4
bigfont.shx
  0
ENDTAB
  0
TABLE
  2
VIEW
 70
     0
  0
ENDTAB
  0
TABLE
  2
UCS
 70
     0
  0
ENDTAB
  0
TABLE
  2
APPID
 70
     1
  0
APPID
  2
ACAD
 70
     0
  0
ENDTAB
  0
TABLE
  2
DIMSTYLE
 70
     2
  0
DIMSTYLE
  2
STANDARD
 70
     0
  3

  4

  5

  6

  7

 40
1.0
 41
0.18
 42
0.0625
 43
0.38
 44
0.18
 45
0.0
 46
0.0
 47
0.0
 48
0.0
140
0.18
141
0.09
142
0.0
143
25.399999999999999
144
1.0
145
0.0
146
1.0
147
0.09
 71
     0
 72
     0
 73
     0
 74
     0
 75
     0
 76
     0
 77
     0
 78
     0
170
     0
171
     2
172
     1
173
     0
174
     0
175
     0
176
     0
177
     0
178
     0
  0
DIMSTYLE
  2
M
 70
     0
  3

  4

  5

  6

  7

 40
0.0
 41
2.0
 42
1.0
 43
0.0
 44
1.0
 45
0.0
 46
0.0
 47
0.0
 48
0.0
140
2.5
141
0.0
142
0.0
143
25.399999999999999
144
1.0
145
0.0
146
1.0
147
0.5
 71
     0
 72
     0
 73
     0
 74
     0
 75
     0
 76
     0
 77
     1
 78
     8
170
     0
171
     2
172
     1
173
     1
174
     0
175
     0
176
     0
177
     0
178
     0
  0
ENDTAB
  0
ENDSEC
  0
SECTION
  2
BLOCKS
  0
BLOCK
  8
0
  2
$MODEL_SPACE
 70
     0
 10
0.0
 20
0.0
 30
0.0
  3
$MODEL_SPACE
  1

  0
ENDBLK
  5
20E7
  8
0
  0
BLOCK
 67
     1
  8
0
  2
$PAPER_SPACE
 70
     0
 10
0.0
 20
0.0
 30
0.0
  3
$PAPER_SPACE
  1

  0
ENDBLK
  5
20E3
 67
     1
  8
0
  0
BLOCK
  8
0
  2
2
 70
     0
 10
0.0
 20
0.0
 30
0.0
  3
2
  1

  0
INSERT
  5
131
  8
0
  6
CONTINUOUS
 62
     0
  2
*U3
 10
0.0
 20
0.0
 30
0.0
1001
ACAD
1002
{
1000
R14_HATCH_DATA
1000
131
1011
1.0
1021
0.0
1031
-2.3714219875802803E+081
1021
0.0
1031
0.0
1011
0.0
1021
0.0
1031
-2.3714219875802803E+081
1021
1.0
1031
0.0
1011
0.0
1021
0.0
1031
-2.3714219875802803E+081
1021
0.0
1031
1.0
1040
0.0
1010
0.0
1020
0.0
1030
1.0
1000
SOLID
1070
     1
1070
     0
1071
        1
1071
        1
1071
        3
1070
     1
1040
-0.9999999999983517
1040
0.2679491924306774
1040
0.0
1040
0.0
1070
     1
1040
0.0
1040
0.0
1040
-0.9999999999983517
1040
-0.2679491924306765
1070
     1
1040
-0.9999999999983524
1040
-0.267949192430676
1040
-0.9999999999983524
1040
0.2679491924306774
1071
        0
1070
     0
1070
     1
1071
        1
1040
2.9957451172313361
1040
-4.1249460962632014
1040
0.0
1002
}
  0
ENDBLK
  5
132
  8
0
  0
BLOCK
  8
0
  2
*U3
 70
     1
 10
0.0
 20
0.0
 30
0.0
  3
*U3
  1

  0
SOLID
  5
1DF4
  8
0
  6
CONTINUOUS
 62
     0
 10
0.666666666665568
 20
0.0000000000000004
 30
0.0
 11
0.9999999999983517
 21
0.2679491924306774
 31
0.0
 12
0.0
 22
0.0
 32
0.0
 13
0.0
 23
0.0
 33
0.0
210
0.0
220
0.0
230
-1.0
  0
SOLID
  5
1DF5
  8
0
  6
CONTINUOUS
 62
     0
 10
0.666666666665568
 20
0.0000000000000004
 30
0.0
 11
0.0
 21
0.0
 31
0.0
 12
0.9999999999983524
 22
-0.267949192430676
 32
0.0
 13
0.9999999999983524
 23
-0.267949192430676
 33
0.0
210
0.0
220
0.0
230
-1.0
  0
SOLID
  5
1DF6
  8
0
  6
CONTINUOUS
 62
     0
 10
0.666666666665568
 20
0.0000000000000004
 30
0.0
 11
0.9999999999983524
 21
-0.267949192430676
 31
0.0
 12
0.9999999999983517
 22
0.2679491924306774
 32
0.0
 13
0.9999999999983517
 23
0.2679491924306774
 33
0.0
210
0.0
220
0.0
230
-1.0
  0
ENDBLK
  5
1DF8
  8
0
  0
ENDSEC
  0
SECTION
  2
ENTITIES
  0
LINE
  5
DA8
  8
1外形線
 10
43.069162765613441
 20
-561.96487805663401
 30
0.0
 11
64.069162765613441
 21
-561.96487805663401
 31
0.0
  0
LINE
  5
DA9
  8
1外形線
 10
46.069162765613662
 20
-538.96487805663423
 30
0.0
 11
64.069162765613441
 21
-538.96487805663423
 31
0.0
  0
LINE
  5
DAA
  8
1外形線
 10
17.069162765613441
 20
-746.96487805663457
 30
0.0
 11
64.069162765613441
 21
-746.96487805663457
 31
0.0
  0
LINE
  5
DAB
  8
1外形線
 10
17.069162765613441
 20
-741.96487805663469
 30
0.0
 11
64.069162765613441
 21
-741.96487805663469
 31
0.0
  0
LINE
  5
DAD
  8
1外形線
 10
4.069162765613668
 20
-580.96487805663401
 30
0.0
 11
4.069162765613668
 21
-628.48882188133553
 31
0.0
  0
ARC
  5
DB1
  8
1外形線
 10
46.069162765613662
 20
-580.96487805663401
 30
0.0
 40
42.0
 50
89.999999999999986
 51
180.0
  0
ARC
  5
DBB
  8
1外形線
 10
46.069162765613662
 20
-628.48882188133553
 30
0.0
 40
42.0
 50
180.0
 51
226.33218470170499
  0
LINE
  5
DC7
  8
1外形線
 62
     2
 10
64.069162765613441
 20
-526.61080541876106
 30
0.0
 11
64.069162765613441
 21
-764.30819391282296
 31
0.0
  0
LINE
  5
DD3
  8
1外形線
 10
82.069162765613669
 20
-538.96487805663423
 30
0.0
 11
64.069162765613441
 21
-538.96487805663423
 31
0.0
  0
LINE
  5
DD4
  8
1外形線
 10
85.069162765613527
 20
-561.96487805663401
 30
0.0
 11
64.069162765613441
 21
-561.96487805663401
 31
0.0
  0
LINE
  5
DDA
  8
1外形線
 10
111.0691627656134
 20
-741.96487805663469
 30
0.0
 11
64.069162765613441
 21
-741.96487805663469
 31
0.0
  0
LINE
  5
DDB
  8
1外形線
 10
111.0691627656134
 20
-746.96487805663457
 30
0.0
 11
64.069162765613441
 21
-746.96487805663457
 31
0.0
  0
LINE
  5
144C
  8
1外形線
 10
235.4899678419728
 20
-746.96487805663457
 30
0.0
 11
308.48996784197283
 21
-746.96487805663457
 31
0.0
  0
LINE
  5
144F
  8
1外形線
 10
235.4899678419728
 20
-741.96487805663457
 30
0.0
 11
308.48996784197283
 21
-741.96487805663469
 31
0.0
  0
LINE
  5
1461
  8
1外形線
 10
308.48996784197283
 20
-538.96487805663423
 30
0.0
 11
308.48996784197283
 21
-746.96487805663457
 31
0.0
  0
LINE
  5
1462
  8
1外形線
 10
305.48996784197283
 20
-538.96487805663423
 30
0.0
 11
305.48996784197283
 21
-658.96487805663389
 31
0.0
  0
LINE
  5
146C
  8
1外形線
 10
305.48996784197283
 20
-538.96487805663423
 30
0.0
 11
308.48996784197283
 21
-538.96487805663423
 31
0.0
  0
LINE
  5
147C
  8
1外形線
 10
305.48996784197283
 20
-658.96487805663389
 30
0.0
 11
308.48996784197283
 21
-658.96487805663389
 31
0.0
  0
LINE
  5
14AA
  8
1外形線
 10
224.489967841973
 20
-588.05063021683793
 30
0.0
 11
224.489967841973
 21
-688.83461291590118
 31
0.0
  0
LINE
  5
14BE
  8
1外形線
 10
233.48034889873929
 20
-712.4448854585595
 30
0.0
 11
228.50920572844001
 21
-703.83461291590243
 31
0.0
  0
ARC
  5
14C1
  8
1外形線
 10
254.489967841973
 20
-688.83461291590118
 30
0.0
 40
30.0
 50
180.0
 51
210.0000000000004
  0
LINE
  5
1791
  8
1外形線
 10
250.48996784197311
 20
-562.05063021683782
 30
0.0
 11
305.48996784197283
 21
-562.05063021683782
 31
0.0
  0
LINE
  5
17AA
  8
1外形線
 10
441.60808875605699
 20
-661.96487805663469
 30
0.0
 11
441.60808875605687
 21
-591.36487805663432
 31
0.0
  0
LINE
  5
17AC
  8
1外形線
 10
426.5080887560564
 20
-580.96487805663457
 30
0.0
 11
426.5080887560564
 21
-628.48882188133553
 31
0.0
  0
LINE
  5
17B1
  8
1外形線
 62
     2
 10
486.50808875605651
 20
-756.96487805663457
 30
0.0
 11
486.50808875605651
 21
-527.66076886117742
 31
0.0
  0
LINE
  5
17B4
  8
1外形線
 10
468.50808875605662
 20
-538.96487805663457
 30
0.0
 11
486.50808875605651
 21
-538.96487805663457
 31
0.0
  0
ARC
  5
17BA
  8
1外形線
 10
468.50808875605662
 20
-580.96487805663514
 30
0.0
 40
42.0
 50
89.999999999999986
 51
180.0
  0
LINE
  5
17CB
  8
1外形線
 10
504.50808875605651
 20
-538.96487805663457
 30
0.0
 11
486.50808875605651
 21
-538.96487805663457
 31
0.0
  0
LINE
  5
17D7
  8
1外形線
 10
504.40808875605683
 20
-564.36487805663432
 30
0.0
 11
486.50808875605651
 21
-564.36487805663432
 31
0.0
  0
LINE
  5
17E0
  8
1外形線
 10
439.50808875605651
 20
-746.96487805663469
 30
0.0
 11
486.50808875605651
 21
-746.96487805663457
 31
0.0
  0
ARC
  5
17E7
  8
1外形線
 10
468.50808875605662
 20
-628.48882188133553
 30
0.0
 40
42.0
 50
180.0
 51
226.33218470170519
  0
LINE
  5
1839
  8
1外形線
 10
533.50808875605605
 20
-746.96487805663457
 30
0.0
 11
486.50808875605651
 21
-746.96487805663457
 31
0.0
  0
ARC
  5
1975
  8
1外形線
 10
468.6080887560571
 20
-591.36487805663523
 30
0.0
 40
27.0
 50
90.000000000000057
 51
180.0
  0
LINE
  5
1976
  8
1外形線
 10
468.60808875605682
 20
-564.36487805663432
 30
0.0
 11
486.50808875605651
 21
-564.36487805663432
 31
0.0
  0
ARC
  5
19DC
  8
1外形線
 10
486.5080887560564
 20
-624.36487805663523
 30
0.0
 40
49.999999999999979
 50
229.60001361423039
 51
270.0
  0
LINE
  5
19DF
  8
1外形線
 10
439.50808875605651
 20
-741.9648780566348
 30
0.0
 11
463.83386210905951
 21
-741.96487805663469
 31
0.0
  0
LINE
  5
19E3
  8
1外形線
 10
439.50808875605651
 20
-661.9648780566348
 30
0.0
 11
452.80586331024909
 21
-661.96487805663469
 31
0.0
  0
ARC
  5
19E4
  8
1外形線
 10
452.80586331024892
 20
-663.96487805663457
 30
0.0
 40
2.0
 50
49.600013614225553
 51
89.999999999999986
  0
ARC
  5
19ED
  8
1外形線
 10
486.5080887560564
 20
-624.36487805663523
 30
0.0
 40
49.999999999999979
 50
270.0
 51
310.39998638576941
  0
LINE
  5
1B00
  8
1外形線
 62
     2
 10
64.069162765613441
 20
-827.88041121526021
 30
0.0
 11
64.069162765613441
 21
-931.88041121526101
 31
0.0
  0
LINE
  5
1B1F
  8
1外形線
 10
4.069162765613668
 20
-921.88041121526112
 30
0.0
 11
64.069162765613441
 21
-921.88041121526112
 31
0.0
  0
LINE
  5
1B20
  8
1外形線
 10
4.069162765613668
 20
-918.88041121526112
 30
0.0
 11
4.069162765613668
 21
-921.88041121526112
 31
0.0
  0
LINE
  5
1B26
  8
1外形線
 10
4.069162765613668
 20
-918.88041121526112
 30
0.0
 11
17.069162765613441
 21
-918.88041121526112
 31
0.0
  0
LINE
  5
1CE4
  8
1外形線
 10
4.069162765613668
 20
-374.34816310988163
 30
0.0
 11
64.069162765613441
 21
-374.34816310988163
 31
0.0
  0
LINE
  5
1CE8
  8
1外形線
 10
4.069162765613668
 20
-377.34816310988163
 30
0.0
 11
4.069162765613668
 21
-374.34816310988163
 31
0.0
  0
LINE
  5
1CE9
  8
1外形線
 10
4.069162765613668
 20
-377.34816310988163
 30
0.0
 11
124.0691627656134
 21
-377.34816310988208
 31
0.0
  0
LINE
  5
1CF0
  8
1外形線
 62
     2
 10
64.069162765613441
 20
-468.34816310988202
 30
0.0
 11
64.069162765613441
 21
-364.34816310988163
 31
0.0
  0
LINE
  5
1CF2
  8
1外形線
 10
124.0691627656134
 20
-374.34816310988163
 30
0.0
 11
64.069162765613441
 21
-374.34816310988163
 31
0.0
  0
LINE
  5
1CF6
  8
1外形線
 10
124.0691627656134
 20
-377.34816310988163
 30
0.0
 11
124.0691627656134
 21
-374.34816310988163
 31
0.0
  0
LINE
  5
2123
  8
1外形線
 10
17.069162765613441
 20
-863.88041121526123
 30
0.0
 11
17.069162765613441
 21
-921.88041121526112
 31
0.0
  0
ARC
  5
213A
  8
1外形線
 10
41.069162765613441
 20
-897.88041121526101
 30
0.0
 40
24.0
 50
180.0
 51
270.0
  0
LINE
  5
213B
  8
1外形線
 10
43.069162765613441
 20
-848.88041121526101
 30
0.0
 11
64.069162765613441
 21
-848.88041121526101
 31
0.0
  0
ARC
  5
213C
  8
1外形線
 10
43.069162765613441
 20
-874.88041121526101
 30
0.0
 40
26.0
 50
90.0
 51
180.0
  0
LINE
  5
213D
  8
1外形線
 10
43.069162765613441
 20
-837.88041121526135
 30
0.0
 11
64.069162765613441
 21
-837.88041121526112
 31
0.0
  0
ARC
  5
213E
  8
1外形線
 10
43.069162765613441
 20
-863.88041121526123
 30
0.0
 40
26.0
 50
90.0
 51
180.0
  0
ARC
  5
214C
  8
1外形線
 10
85.069162765613441
 20
-863.88041121526123
 30
0.0
 40
26.0
 50
0.000000000000007
 51
90.0
  0
ARC
  5
214D
  8
1外形線
 10
85.069162765613441
 20
-874.88041121526101
 30
0.0
 40
26.0
 50
0.000000000000007
 51
90.0
  0
LINE
  5
214E
  8
1外形線
 10
124.0691627656132
 20
-921.88041121526112
 30
0.0
 11
64.069162765613441
 21
-921.88041121526112
 31
0.0
  0
ARC
  5
214F
  8
1外形線
 10
87.069162765613441
 20
-897.88041121526101
 30
0.0
 40
24.0
 50
270.0
 51
0.000000000000007
  0
LINE
  5
2150
  8
1外形線
 10
124.0691627656132
 20
-918.88041121526112
 30
0.0
 11
111.0691627656134
 21
-918.88041121526112
 31
0.0
  0
LINE
  5
2151
  8
1外形線
 10
124.0691627656132
 20
-918.88041121526112
 30
0.0
 11
124.0691627656132
 21
-921.88041121526112
 31
0.0
  0
LINE
  5
2152
  8
1外形線
 10
85.069162765613441
 20
-848.88041121526101
 30
0.0
 11
64.069162765613441
 21
-848.88041121526101
 31
0.0
  0
LINE
  5
2153
  8
1外形線
 10
111.0691627656134
 20
-863.88041121526123
 30
0.0
 11
111.0691627656134
 21
-921.88041121526112
 31
0.0
  0
LINE
  5
2154
  8
1外形線
 10
85.069162765613441
 20
-837.88041121526135
 30
0.0
 11
64.069162765613441
 21
-837.88041121526112
 31
0.0
  0
LINE
  5
2162
  8
1外形線
 10
17.069162765613441
 20
-746.96487805663457
 30
0.0
 11
17.069162765613441
 21
-587.96487805663389
 31
0.0
  0
ARC
  5
2163
  8
1外形線
 10
43.069162765613349
 20
-587.96487805663401
 30
0.0
 40
26.0
 50
89.999999999999815
 51
179.99999999999969
  0
LINE
  5
2164
  8
1外形線
 10
111.0691627656134
 20
-746.96487805663457
 30
0.0
 11
111.0691627656134
 21
-587.96487805663389
 31
0.0
  0
ARC
  5
2165
  8
1外形線
 10
82.069162765613214
 20
-628.48882188133553
 30
0.0
 40
42.0
 50
313.6678152982949
 51
0.000000000000007
  0
ARC
  5
2166
  8
1外形線
 10
85.069162765613527
 20
-587.96487805663401
 30
0.0
 40
26.0
 50
0.0000000000002615
 51
90.0
  0
ARC
  5
2167
  8
1外形線
 10
82.069162765613214
 20
-580.96487805663401
 30
0.0
 40
42.0
 50
0.000000000000007
 51
90.000000000000028
  0
LINE
  5
2168
  8
1外形線
 10
124.0691627656132
 20
-580.96487805663401
 30
0.0
 11
124.0691627656132
 21
-628.48882188133553
 31
0.0
  0
LINE
  5
2176
  8
1外形線
 10
43.069162765613441
 20
-458.34816310988163
 30
0.0
 11
64.069162765613441
 21
-458.34816310988163
 31
0.0
  0
LINE
  5
2177
  8
1外形線
 10
17.069162765613449
 20
-432.34816310988163
 30
0.0
 11
17.069162765613449
 21
-377.34816310988168
 31
0.0
  0
ARC
  5
2178
  8
1外形線
 10
43.069162765613441
 20
-432.34816310988163
 30
0.0
 40
26.0
 50
180.0
 51
270.0
  0
ARC
  5
217A
  8
1外形線
 10
85.069162765613441
 20
-432.34816310988163
 30
0.0
 40
26.0
 50
270.0
 51
0.000000000000007
  0
LINE
  5
217B
  8
1外形線
 10
85.069162765613441
 20
-458.34816310988163
 30
0.0
 11
64.069162765613441
 21
-458.34816310988163
 31
0.0
  0
LINE
  5
217C
  8
1外形線
 10
111.0691627656134
 20
-432.34816310988163
 30
0.0
 11
111.0691627656134
 21
-377.34816310988168
 31
0.0
  0
ARC
  5
217E
  8
1外形線
 10
250.48996784197311
 20
-588.05063021683793
 30
0.0
 40
26.0
 50
90.0
 51
180.0
  0
LINE
  5
217F
  8
1外形線
 10
235.4899678419728
 20
-719.94488545855961
 30
0.0
 11
235.4899678419728
 21
-746.96487805663457
 31
0.0
  0
ARC
  5
2180
  8
1外形線
 10
220.4899678419728
 20
-719.94488545855961
 30
0.0
 40
15.0
 50
0.0
 51
30.00000000000065
  0
LINE
  5
2181
  8
1外形線
 10
439.50808875605651
 20
-746.96487805663469
 30
0.0
 11
439.50808875605651
 21
-658.86973694326207
 31
0.0
  0
LINE
  5
2182
  8
1外形線
 10
533.50808875605605
 20
-746.96487805663457
 30
0.0
 11
533.50808875605605
 21
-658.86973694326207
 31
0.0
  0
ARC
  5
2183
  8
1外形線
 10
520.21031420186375
 20
-663.96487805663457
 30
0.0
 40
2.0
 50
90.000000000000028
 51
130.39998638577441
  0
LINE
  5
2184
  8
1外形線
 10
533.50808875605628
 20
-741.9648780566348
 30
0.0
 11
509.18231540305322
 21
-741.96487805663469
 31
0.0
  0
LINE
  5
2185
  8
1外形線
 10
533.50808875605605
 20
-661.9648780566348
 30
0.0
 11
520.21031420186364
 21
-661.96487805663469
 31
0.0
  0
ARC
  5
2186
  8
1外形線
 10
504.40808875605558
 20
-591.36487805663523
 30
0.0
 40
27.0
 50
0.000000000000007
 51
89.999999999999943
  0
ARC
  5
2187
  8
1外形線
 10
504.50808875605611
 20
-580.96487805663514
 30
0.0
 40
42.0
 50
0.000000000000007
 51
90.000000000000028
  0
LINE
  5
2188
  8
1外形線
 10
546.50808875605628
 20
-580.96487805663457
 30
0.0
 11
546.50808875605628
 21
-628.48882188133553
 31
0.0
  0
ARC
  5
2189
  8
1外形線
 10
504.50808875605611
 20
-628.48882188133553
 30
0.0
 40
42.0
 50
313.66781529829473
 51
0.000000000000007
  0
LINE
  5
218A
  8
1外形線
 10
531.40808875605569
 20
-661.96487805663469
 30
0.0
 11
531.4080887560558
 21
-591.36487805663432
 31
0.0
  0
ENDSEC
  0
EOF
