  0
SECTION
  2
HEADER
  9
$ACADVER
  1
AC1009
  9
$INSBASE
 10
0.0
 20
0.0
 30
0.0
  9
$EXTMIN
 10
-91.384324851111657
 20
-1652.033663439918
 30
0.0
  9
$EXTMAX
 10
536.63713006007617
 20
-1039.4037477700899
 30
0.0
  9
$LIMMIN
 10
0.0
 20
0.0
  9
$LIMMAX
 10
420.0
 20
297.0
  9
$ORTHOMODE
 70
     1
  9
$REGENMODE
 70
     1
  9
$FILLMODE
 70
     1
  9
$QTEXTMODE
 70
     0
  9
$MIRRTEXT
 70
     1
  9
$DRAGMODE
 70
     2
  9
$LTSCALE
 40
1.0
  9
$OSMODE
 70
    37
  9
$ATTMODE
 70
     1
  9
$TEXTSIZE
 40
2.5
  9
$TRACEWID
 40
1.0
  9
$TEXTSTYLE
  7
KANJI
  9
$CLAYER
  8
2寸法線
  9
$CELTYPE
  6
BYLAYER
  9
$CECOLOR
 62
   256
  9
$DIMSCALE
 40
0.0
  9
$DIMASZ
 40
1.8
  9
$DIMEXO
 40
1.0
  9
$DIMDLI
 40
0.0
  9
$DIMRND
 40
0.0
  9
$DIMDLE
 40
0.0
  9
$DIMEXE
 40
1.0
  9
$DIMTP
 40
0.0
  9
$DIMTM
 40
0.0
  9
$DIMTXT
 40
2.5
  9
$DIMCEN
 40
0.0
  9
$DIMTSZ
 40
0.0
  9
$DIMTOL
 70
     0
  9
$DIMLIM
 70
     0
  9
$DIMTIH
 70
     0
  9
$DIMTOH
 70
     0
  9
$DIMSE1
 70
     0
  9
$DIMSE2
 70
     0
  9
$DIMTAD
 70
     1
  9
$DIMZIN
 70
     8
  9
$DIMBLK
  1

  9
$DIMASO
 70
     1
  9
$DIMSHO
 70
     1
  9
$DIMPOST
  1

  9
$DIMAPOST
  1

  9
$DIMALT
 70
     0
  9
$DIMALTD
 70
     2
  9
$DIMALTF
 40
25.399999999999999
  9
$DIMLFAC
 40
1.0
  9
$DIMTOFL
 70
     1
  9
$DIMTVP
 40
0.0
  9
$DIMTIX
 70
     0
  9
$DIMSOXD
 70
     0
  9
$DIMSAH
 70
     1
  9
$DIMBLK1
  1
2
  9
$DIMBLK2
  1
2
  9
$DIMSTYLE
  2
M
  9
$DIMCLRD
 70
     0
  9
$DIMCLRE
 70
     0
  9
$DIMCLRT
 70
     0
  9
$DIMTFAC
 40
1.0
  9
$DIMGAP
 40
0.5
  9
$LUNITS
 70
     2
  9
$LUPREC
 70
     3
  9
$SKETCHINC
 40
1.0
  9
$FILLETRAD
 40
0.0
  9
$AUNITS
 70
     0
  9
$AUPREC
 70
     1
  9
$MENU
  1
.
  9
$ELEVATION
 40
0.0
  9
$PELEVATION
 40
0.0
  9
$THICKNESS
 40
0.0
  9
$LIMCHECK
 70
     0
  9
$BLIPMODE
 70
     0
  9
$CHAMFERA
 40
10.0
  9
$CHAMFERB
 40
10.0
  9
$SKPOLY
 70
     0
  9
$TDCREATE
 40
2454393.806994895
  9
$TDUPDATE
 40
2454396.460228947
  9
$TDINDWG
 40
0.0454307755
  9
$TDUSRTIMER
 40
0.0454305903
  9
$USRTIMER
 70
     1
  9
$ANGBASE
 50
0.0
  9
$ANGDIR
 70
     0
  9
$PDMODE
 70
     0
  9
$PDSIZE
 40
0.0
  9
$PLINEWID
 40
0.0
  9
$COORDS
 70
     0
  9
$SPLFRAME
 70
     0
  9
$SPLINETYPE
 70
     6
  9
$SPLINESEGS
 70
     8
  9
$ATTDIA
 70
     1
  9
$ATTREQ
 70
     1
  9
$HANDLING
 70
     1
  9
$HANDSEED
  5
564A
  9
$SURFTAB1
 70
     6
  9
$SURFTAB2
 70
     6
  9
$SURFTYPE
 70
     6
  9
$SURFU
 70
     6
  9
$SURFV
 70
     6
  9
$UCSNAME
  2

  9
$UCSORG
 10
0.0
 20
0.0
 30
0.0
  9
$UCSXDIR
 10
1.0
 20
0.0
 30
0.0
  9
$UCSYDIR
 10
0.0
 20
1.0
 30
0.0
  9
$PUCSNAME
  2

  9
$PUCSORG
 10
0.0
 20
0.0
 30
0.0
  9
$PUCSXDIR
 10
1.0
 20
0.0
 30
0.0
  9
$PUCSYDIR
 10
0.0
 20
1.0
 30
0.0
  9
$USERI1
 70
     0
  9
$USERI2
 70
     0
  9
$USERI3
 70
     0
  9
$USERI4
 70
     0
  9
$USERI5
 70
     0
  9
$USERR1
 40
0.0
  9
$USERR2
 40
0.0
  9
$USERR3
 40
0.0
  9
$USERR4
 40
0.0
  9
$USERR5
 40
0.0
  9
$WORLDVIEW
 70
     1
  9
$SHADEDGE
 70
     3
  9
$SHADEDIF
 70
    70
  9
$TILEMODE
 70
     1
  9
$MAXACTVP
 70
    48
  9
$PLIMCHECK
 70
     0
  9
$PEXTMIN
 10
1.0000000000000000E+020
 20
1.0000000000000000E+020
 30
1.0000000000000000E+020
  9
$PEXTMAX
 10
-1.0000000000000000E+020
 20
-1.0000000000000000E+020
 30
-1.0000000000000000E+020
  9
$PLIMMIN
 10
0.0
 20
0.0
  9
$PLIMMAX
 10
420.0
 20
297.0
  9
$UNITMODE
 70
     0
  9
$VISRETAIN
 70
     1
  9
$PLINEGEN
 70
     0
  9
$PSLTSCALE
 70
     1
  0
ENDSEC
  0
SECTION
  2
TABLES
  0
TABLE
  2
VPORT
 70
     3
  0
VPORT
  2
*ACTIVE
 70
     0
 10
0.0
 20
0.0
 11
1.0
 21
1.0
 12
316.71994137690677
 22
-1334.431654490699
 13
0.0
 23
0.0
 14
10.0
 24
10.0
 15
10.0
 25
10.0
 16
0.0
 26
0.0
 36
1.0
 17
0.0
 27
0.0
 37
0.0
 40
702.85621656011006
 41
1.5937904269081491
 42
50.0
 43
0.0
 44
0.0
 50
0.0
 51
0.0
 71
     0
 72
   100
 73
     1
 74
     1
 75
     0
 76
     0
 77
     0
 78
     0
  0
ENDTAB
  0
TABLE
  2
LTYPE
 70
     4
  0
LTYPE
  2
CONTINUOUS
 70
     0
  3
Solid line
 72
    65
 73
     0
 40
0.0
  0
ENDTAB
  0
TABLE
  2
LAYER
 70
    10
  0
LAYER
  2
0
 70
     0
 62
     7
  6
CONTINUOUS
  0
LAYER
  2
2寸法線
 70
     0
 62
     2
  6
CONTINUOUS
  0
LAYER
  2
1外形線
 70
     0
 62
     3
  6
CONTINUOUS
  0
LAYER
  2
DEFPOINTS
 70
     0
 62
     7
  6
CONTINUOUS
  0
ENDTAB
  0
TABLE
  2
STYLE
 70
     3
  0
STYLE
  2
STANDARD
 70
     0
 40
0.0
 41
1.0
 50
0.0
 71
     0
 42
2.5
  3
txt
  4

  0
STYLE
  2
KANJI
 70
     0
 40
0.0
 41
1.0
 50
0.0
 71
     0
 42
2.5
  3
simplex.shx
  4
bigfont.shx
  0
ENDTAB
  0
TABLE
  2
VIEW
 70
     0
  0
ENDTAB
  0
TABLE
  2
UCS
 70
     0
  0
ENDTAB
  0
TABLE
  2
APPID
 70
     1
  0
APPID
  2
ACAD
 70
     0
  0
ENDTAB
  0
TABLE
  2
DIMSTYLE
 70
     5
  0
DIMSTYLE
  2
STANDARD
 70
     0
  3

  4

  5

  6

  7

 40
1.0
 41
0.18
 42
0.0625
 43
0.38
 44
0.18
 45
0.0
 46
0.0
 47
0.0
 48
0.0
140
0.18
141
0.09
142
0.0
143
25.399999999999999
144
1.0
145
0.0
146
1.0
147
0.09
 71
     0
 72
     0
 73
     0
 74
     0
 75
     0
 76
     0
 77
     0
 78
     0
170
     0
171
     2
172
     1
173
     0
174
     0
175
     0
176
     0
177
     0
178
     0
  0
DIMSTYLE
  2
M
 70
     0
  3

  4

  5

  6

  7

 40
0.0
 41
2.0
 42
1.0
 43
0.0
 44
1.0
 45
0.0
 46
0.0
 47
0.0
 48
0.0
140
2.5
141
0.0
142
0.0
143
25.399999999999999
144
1.0
145
0.0
146
1.0
147
0.5
 71
     0
 72
     0
 73
     0
 74
     0
 75
     0
 76
     0
 77
     1
 78
     8
170
     0
171
     2
172
     1
173
     1
174
     0
175
     0
176
     0
177
     0
178
     0
  0
ENDTAB
  0
ENDSEC
  0
SECTION
  2
BLOCKS
  0
BLOCK
  8
0
  2
$MODEL_SPACE
 70
     0
 10
0.0
 20
0.0
 30
0.0
  3
$MODEL_SPACE
  1

  0
ENDBLK
  5
5237
  8
0
  0
BLOCK
 67
     1
  8
0
  2
$PAPER_SPACE
 70
     0
 10
0.0
 20
0.0
 30
0.0
  3
$PAPER_SPACE
  1

  0
ENDBLK
  5
5233
 67
     1
  8
0
  0
BLOCK
  8
0
  2
2
 70
     0
 10
0.0
 20
0.0
 30
0.0
  3
2
  1

  0
INSERT
  5
131
  8
0
  6
CONTINUOUS
 62
     0
  2
*U3
 10
0.0
 20
0.0
 30
0.0
1001
ACAD
1002
{
1000
R14_HATCH_DATA
1000
131
1011
1.0
1021
-0.0
1031
0.0
1021
0.0
1031
0.0
1011
0.0
1021
-0.0
1031
0.0
1021
1.0
1031
0.0
1011
0.0
1021
-0.0
1031
0.0
1021
0.0
1031
1.0
1040
0.0
1010
0.0
1020
0.0
1030
1.0
1000
SOLID
1070
     1
1070
     0
1071
        1
1071
        1
1071
        3
1070
     1
1040
-0.9999999999983517
1040
0.2679491924306774
1040
0.0
1040
0.0
1070
     1
1040
0.0
1040
0.0
1040
-0.9999999999983517
1040
-0.2679491924306765
1070
     1
1040
-0.9999999999983524
1040
-0.267949192430676
1040
-0.9999999999983524
1040
0.2679491924306774
1071
        0
1070
     0
1070
     1
1071
        1
1040
2.9957451172313361
1040
-4.1249460962632014
1040
0.0
1002
}
  0
ENDBLK
  5
132
  8
0
  0
BLOCK
  8
0
  2
*U3
 70
     1
 10
0.0
 20
0.0
 30
0.0
  3
*U3
  1

  0
SOLID
  5
510C
  8
0
  6
CONTINUOUS
 62
     0
 10
0.666666666665568
 20
0.0000000000000004
 30
0.0
 11
0.9999999999983517
 21
0.2679491924306774
 31
0.0
 12
0.0
 22
0.0
 32
0.0
 13
0.0
 23
0.0
 33
0.0
210
0.0
220
0.0
230
-1.0
  0
SOLID
  5
510D
  8
0
  6
CONTINUOUS
 62
     0
 10
0.666666666665568
 20
0.0000000000000004
 30
0.0
 11
0.0
 21
0.0
 31
0.0
 12
0.9999999999983524
 22
-0.267949192430676
 32
0.0
 13
0.9999999999983524
 23
-0.267949192430676
 33
0.0
210
0.0
220
0.0
230
-1.0
  0
SOLID
  5
510E
  8
0
  6
CONTINUOUS
 62
     0
 10
0.666666666665568
 20
0.0000000000000004
 30
0.0
 11
0.9999999999983524
 21
-0.267949192430676
 31
0.0
 12
0.9999999999983517
 22
0.2679491924306774
 32
0.0
 13
0.9999999999983517
 23
0.2679491924306774
 33
0.0
210
0.0
220
0.0
230
-1.0
  0
ENDBLK
  5
5110
  8
0
  0
ENDSEC
  0
SECTION
  2
ENTITIES
  0
ARC
  5
495D
  8
1外形線
 10
454.1670723749906
 20
-1335.096138546128
 30
0.0
 40
38.0
 50
180.0
 51
228.86048958513331
  0
ARC
  5
495E
  8
1外形線
 10
490.76707237498931
 20
-1335.096138546128
 30
0.0
 40
38.0
 50
311.13951041486649
 51
0.0
  0
ARC
  5
4960
  8
1外形線
 10
4.0042840316059483
 20
-1334.1506507420561
 30
0.0
 40
38.0
 50
180.0
 51
228.86048958513331
  0
ARC
  5
4961
  8
1外形線
 10
40.604284031608067
 20
-1334.1506507420561
 30
0.0
 40
38.0
 50
311.13951041486649
 51
0.0
  0
LINE
  5
4966
  8
1外形線
 10
-20.995715968386751
 20
-1299.7688267845699
 30
0.0
 11
-20.995715968392229
 21
-1380.9494404405259
 31
0.0
  0
LINE
  5
496E
  8
1外形線
 10
65.604284031602504
 20
-1299.7688267845699
 30
0.0
 11
65.604284031608074
 21
-1380.9494404405259
 31
0.0
  0
ARC
  5
4972
  8
1外形線
 10
369.738126735447
 20
-1378.6120472938301
 30
0.0
 40
200.0
 50
169.99999999999471
 51
180.0
  0
LINE
  5
4973
  8
1外形線
 10
219.73812673545069
 20
-1381.614314588644
 30
0.0
 11
219.73812673545069
 21
-1285.614314588644
 31
0.0
  0
LINE
  5
4975
  8
1外形線
  6
CONTINUOUS
 10
219.73812673545069
 20
-1382.387897025204
 30
0.0
 11
219.73812673545069
 21
-1285.7143145886439
 31
0.0
  0
LINE
  5
4976
  8
1外形線
  6
CONTINUOUS
 10
296.73812673545069
 20
-1253.7143145886439
 30
0.0
 11
296.73812673545069
 21
-1364.8143145886461
 31
0.0
  0
LINE
  5
4979
  8
1外形線
 10
429.1670723749906
 20
-1363.7143145886439
 30
0.0
 11
429.16707237498878
 21
-1381.8949282445981
 31
0.0
  0
LINE
  5
497A
  8
1外形線
 10
431.16707237502351
 20
-1364.814314588677
 30
0.0
 11
431.16707237502351
 21
-1300.7143145886421
 31
0.0
  0
LINE
  5
497B
  8
1外形線
 10
515.76707237498931
 20
-1363.7143145886439
 30
0.0
 11
515.76707237499113
 21
-1381.8949282445981
 31
0.0
  0
LINE
  5
497C
  8
1外形線
 10
513.76707237495987
 20
-1364.8143145886461
 30
0.0
 11
513.76707237495816
 21
-1300.71431458864
 31
0.0
  0
LINE
  5
497D
  8
1外形線
 10
65.604284031609893
 20
-1639.3512846859981
 30
0.0
 11
60.404284031605528
 21
-1562.3512846860001
 31
0.0
  0
LINE
  5
497E
  8
1外形線
 10
-20.995715968396119
 20
-1639.3512846860001
 30
0.0
 11
-15.7957159683915
 21
-1562.3512846860001
 31
0.0
  0
LINE
  5
497F
  8
1外形線
 10
9.0542840316074145
 20
-1639.351284685999
 30
0.0
 11
64.604284031608074
 21
-1639.3512846859981
 31
0.0
  0
LINE
  5
4980
  8
1外形線
 10
-33.995715968399509
 20
-1639.3512846860001
 30
0.0
 11
22.304284031606901
 21
-1639.3512846860001
 31
0.0
  0
LINE
  5
4988
  8
1外形線
 10
-33.995715968399509
 20
-1639.351284685898
 30
0.0
 11
-33.995715968394023
 21
-1636.3512846860001
 31
0.0
  0
LINE
  5
499B
  8
1外形線
 10
-33.995715968394023
 20
-1636.3512846860001
 30
0.0
 11
-20.99571596839402
 21
-1636.3512846860001
 31
0.0
  0
LINE
  5
49B7
  8
1外形線
 10
78.604284031606312
 20
-1639.3512846860001
 30
0.0
 11
78.604284031606312
 21
-1636.3512846860001
 31
0.0
  0
LINE
  5
49CA
  8
1外形線
 10
78.604284031606312
 20
-1636.3512846860001
 30
0.0
 11
65.604284031608074
 21
-1636.3512846860001
 31
0.0
  0
LINE
  5
49DA
  8
1外形線
 10
78.604284031606312
 20
-1639.3512846860001
 30
0.0
 11
22.304284031606901
 21
-1639.3512846860001
 31
0.0
  0
LINE
  5
49ED
  8
1外形線
 10
22.304284031606901
 20
-1562.3512846860001
 30
0.0
 11
-15.795715968393321
 21
-1562.3512846860001
 31
0.0
  0
ARC
  5
49EE
  8
1外形線
 10
13.998123846461111
 20
-1537.3512846860001
 30
0.0
 40
25.0
 50
90.0
 51
169.99999999999471
  0
LINE
  5
49EF
  8
1外形線
 10
-15.7957159683915
 20
-1562.3512846860001
 30
0.0
 11
22.304284031606901
 21
-1562.3512846860001
 31
0.0
  0
LINE
  5
49F0
  8
1外形線
 10
22.304284031606901
 20
-1562.3512846860001
 30
0.0
 11
-15.7957159683915
 21
-1562.3512846860001
 31
0.0
  0
LINE
  5
49F1
  8
1外形線
  6
CONTINUOUS
 10
-14.945715968393101
 20
-1440.7688267845699
 30
0.0
 11
59.554284031606912
 21
-1440.7688267845699
 31
0.0
  0
LINE
  5
49F2
  8
1外形線
  6
CONTINUOUS
 10
-14.945715968393101
 20
-1435.7688267845699
 30
0.0
 11
59.554284031606898
 21
-1435.7688267845699
 31
0.0
  0
LINE
  5
49FB
  8
1外形線
 10
-20.995715968392229
 20
-1380.6688267845709
 30
0.0
 11
22.304284031606901
 21
-1380.668826784568
 31
0.0
  0
LINE
  5
49FC
  8
1外形線
 10
-15.12396893406992
 20
-1421.0157720052091
 30
0.0
 11
-20.639210037039021
 21
-1385.5606506289839
 31
0.0
  0
LINE
  5
4A03
  8
1外形線
 10
-15.795715968393321
 20
-1562.3512846860001
 30
0.0
 11
-10.62206997884231
 21
-1533.0100802443269
 31
0.0
  0
LINE
  5
4A24
  8
1外形線
 10
-6.2301591975315196
 20
-1562.3512846859919
 30
0.0
 11
-4.1088388539733671
 21
-1562.3512846859919
 31
0.0
  0
LINE
  5
4A27
  8
1外形線
 10
-6.2301591975333386
 20
-1562.3512846859919
 30
0.0
 11
-3.1754871241824101
 21
-1562.3512846859919
 31
0.0
  0
ARC
  5
4A33
  8
1外形線
 10
9.0042840316077672
 20
-1380.9494404405259
 30
0.0
 40
30.0
 50
180.0
 51
188.8418145601886
  0
LINE
  5
4A3C
  8
1外形線
 10
59.732536997285621
 20
-1421.01577200521
 30
0.0
 11
65.247778100252901
 21
-1385.5606506289839
 31
0.0
  0
LINE
  5
4A47
  8
1外形線
 10
50.838727260780097
 20
-1562.3512846859689
 30
0.0
 11
48.717406917221894
 21
-1562.3512846859719
 31
0.0
  0
LINE
  5
4A49
  8
1外形線
 10
50.838727260781887
 20
-1562.3512846859689
 30
0.0
 11
47.784055187430909
 21
-1562.351284685974
 31
0.0
  0
LINE
  5
4A4F
  8
1外形線
 10
60.404284031641879
 20
-1562.3512846859719
 30
0.0
 11
55.230638042070893
 21
-1533.0100802443019
 31
0.0
  0
ARC
  5
4A5D
  8
1外形線
 10
30.610444216769281
 20
-1537.3512846859919
 30
0.0
 40
25.0
 50
10.00000000003153
 51
90.000000000052125
  0
LINE
  5
4A6B
  8
1外形線
 10
60.40428403160729
 20
-1562.3512846860001
 30
0.0
 11
22.304284031606901
 21
-1562.3512846860001
 31
0.0
  0
LINE
  5
4A6C
  8
1外形線
 10
22.304284031606901
 20
-1562.3512846860001
 30
0.0
 11
60.40428403160729
 21
-1562.3512846860001
 31
0.0
  0
LINE
  5
4A73
  8
1外形線
 10
30.610444216752882
 20
-1512.3512846860001
 30
0.0
 11
22.304284031606901
 21
-1512.3512846860001
 31
0.0
  0
LINE
  5
4A77
  8
1外形線
 10
13.998123846461111
 20
-1512.3512846860001
 30
0.0
 11
22.304284031606901
 21
-1512.3512846860001
 31
0.0
  0
LINE
  5
4A83
  8
1外形線
 10
22.304284031606901
 20
-1562.3512846860001
 30
0.0
 11
60.40428403160908
 21
-1562.3512846860001
 31
0.0
  0
LINE
  5
4A84
  8
1外形線
 10
60.404284031605528
 20
-1562.3512846860001
 30
0.0
 11
22.304284031606901
 21
-1562.3512846860001
 31
0.0
  0
LINE
  5
4A91
  8
1外形線
 10
65.604284031608074
 20
-1380.6688267845709
 30
0.0
 11
22.304284031606901
 21
-1380.668826784568
 31
0.0
  0
ARC
  5
4A92
  8
1外形線
 10
35.604284031608067
 20
-1380.9494404405259
 30
0.0
 40
30.0
 50
351.15818543981118
 51
0.0
  0
LINE
  5
4A9A
  8
1外形線
 10
296.73812673545069
 20
-1441.7143145886439
 30
0.0
 11
256.93812673544971
 21
-1441.7143145886439
 31
0.0
  0
LINE
  5
4A9B
  8
1外形線
 10
296.73812673545069
 20
-1436.7143145886421
 30
0.0
 11
261.93812673544971
 21
-1436.7143145886421
 31
0.0
  0
LINE
  5
4AAB
  8
1外形線
  6
CONTINUOUS
 10
261.93812673544971
 20
-1436.7143145886421
 30
0.0
 11
234.23812673545081
 21
-1436.7143145886421
 31
0.0
  0
LINE
  5
4AAC
  8
1外形線
  6
CONTINUOUS
 10
261.93812673544971
 20
-1441.7143145886439
 30
0.0
 11
234.23812673545069
 21
-1441.7143145886439
 31
0.0
  0
LINE
  5
4AAE
  8
1外形線
  6
CONTINUOUS
 10
232.2285077922179
 20
-1412.060347394354
 30
0.0
 11
223.75736462191571
 21
-1397.3878970251999
 31
0.0
  0
ARC
  5
4AAF
  8
1外形線
  6
CONTINUOUS
 10
249.7381267354489
 20
-1382.3878970252019
 30
0.0
 40
30.0
 50
180.0
 51
210.00000000001381
  0
LINE
  5
4AB5
  8
1外形線
 10
169.73812673545069
 20
-1381.614314588644
 30
0.0
 11
169.73812673545069
 21
-1378.6120472938319
 31
0.0
  0
LINE
  5
4AB6
  8
1外形線
 10
219.73812673545069
 20
-1381.614314588644
 30
0.0
 11
169.73812673545069
 21
-1381.614314588644
 31
0.0
  0
LINE
  5
4AB7
  8
1外形線
 10
296.73812673545069
 20
-1441.7143145886439
 30
0.0
 11
296.73812673545251
 21
-1364.814314588644
 31
0.0
  0
LINE
  5
4AC7
  8
1外形線
  6
CONTINUOUS
 10
509.89532534068792
 20
-1421.9612598091469
 30
0.0
 11
515.41056644363584
 21
-1386.5061384330529
 31
0.0
  0
LINE
  5
4AC8
  8
1外形線
  6
CONTINUOUS
 10
509.89532534068968
 20
-1421.9612598091469
 30
0.0
 11
515.41056644363789
 21
-1386.5061384330561
 31
0.0
  0
LINE
  5
4AD3
  8
1外形線
  6
CONTINUOUS
 10
508.66707237498878
 20
-1441.7143145886439
 30
0.0
 11
472.46707237498811
 21
-1441.7143145886439
 31
0.0
  0
LINE
  5
4AD4
  8
1外形線
  6
CONTINUOUS
 10
508.66707237498878
 20
-1441.7143145886439
 30
0.0
 11
472.46707237498811
 21
-1441.7143145886439
 31
0.0
  0
LINE
  5
4ADB
  8
1外形線
 10
509.46707237498981
 20
-1364.8143145886461
 30
0.0
 11
512.76707237498749
 21
-1364.8143145886461
 31
0.0
  0
ARC
  5
4ADC
  8
1外形線
 10
485.76707237498931
 20
-1381.894928244596
 30
0.0
 40
30.0
 50
351.15818543981118
 51
0.0
  0
ARC
  5
4ADD
  8
1外形線
 10
505.96334082387727
 20
-1365.814314588644
 30
0.0
 40
1.0
 50
89.999999999947889
 51
143.8173383140622
  0
LINE
  5
4ADE
  8
1外形線
 10
515.76707237498931
 20
-1364.8143145886461
 30
0.0
 11
515.76707237498931
 21
-1381.894928244596
 31
0.0
  0
LINE
  5
4ADF
  8
1外形線
 10
505.96334082387727
 20
-1364.8143145886461
 30
0.0
 11
509.46707237498981
 21
-1364.8143145886461
 31
0.0
  0
LINE
  5
4AE0
  8
1外形線
 10
509.46707237498981
 20
-1364.8143145886461
 30
0.0
 11
515.76707237498931
 21
-1364.8143145886461
 31
0.0
  0
ARC
  5
4AE1
  8
1外形線
 10
485.76707237499102
 20
-1381.8949282445999
 30
0.0
 40
30.0
 50
351.15818543981118
 51
0.0
  0
LINE
  5
4AE2
  8
1外形線
 10
513.76707237495646
 20
-1364.8143145886429
 30
0.0
 11
515.76707237498931
 21
-1364.8143145886429
 31
0.0
  0
LINE
  5
4AE3
  8
1外形線
  6
CONTINUOUS
 10
435.03881940931291
 20
-1421.961259809131
 30
0.0
 11
429.52357830634378
 21
-1386.5061384330861
 31
0.0
  0
LINE
  5
4AE4
  8
1外形線
  6
CONTINUOUS
 10
435.03881940929199
 20
-1421.961259809146
 30
0.0
 11
429.52357830634378
 21
-1386.5061384330561
 31
0.0
  0
LINE
  5
4AF2
  8
1外形線
 10
435.46707237498799
 20
-1364.8143145886461
 30
0.0
 11
432.16707237498878
 21
-1364.8143145886461
 31
0.0
  0
ARC
  5
4AF3
  8
1外形線
 10
438.97080392608808
 20
-1365.81431458867
 30
0.0
 40
1.0
 50
36.182661685984222
 51
90.000000000052125
  0
ARC
  5
4AF4
  8
1外形線
 10
438.97080392609888
 20
-1365.814314588642
 30
0.0
 40
1.0
 50
36.182661685870251
 51
90.0
  0
LINE
  5
4AF5
  8
1外形線
 10
438.97080392608632
 20
-1364.81431458867
 30
0.0
 11
435.46707237497372
 21
-1364.8143145886729
 31
0.0
  0
LINE
  5
4AF6
  8
1外形線
 10
429.1670723749744
 20
-1364.814314588677
 30
0.0
 11
429.16707237498707
 21
-1381.8949282446299
 31
0.0
  0
ARC
  5
4AF7
  8
1外形線
 10
459.16707237498707
 20
-1381.894928244606
 30
0.0
 40
30.0
 50
180.0000000000521
 51
188.8418145602414
  0
LINE
  5
4AF8
  8
1外形線
 10
435.46707237497372
 20
-1364.8143145886729
 30
0.0
 11
429.1670723749744
 21
-1364.814314588677
 31
0.0
  0
ARC
  5
4AF9
  8
1外形線
 10
459.16707237498878
 20
-1381.8949282445999
 30
0.0
 40
30.0
 50
180.0
 51
188.8418145601886
  0
LINE
  5
4AFA
  8
1外形線
 10
431.16707237502351
 20
-1364.8143145886429
 30
0.0
 11
429.1670723749906
 21
-1364.8143145886429
 31
0.0
  0
LINE
  5
4AFB
  8
1外形線
  6
CONTINUOUS
 10
436.26707237498931
 20
-1441.7143145886439
 30
0.0
 11
472.46707237498811
 21
-1441.7143145886439
 31
0.0
  0
LINE
  5
4AFC
  8
1外形線
  6
CONTINUOUS
 10
436.26707237498931
 20
-1441.7143145886439
 30
0.0
 11
472.46707237498811
 21
-1441.7143145886439
 31
0.0
  0
LINE
  5
4AFD
  8
1外形線
  6
CONTINUOUS
 10
435.21707237499157
 20
-1441.7143145886439
 30
0.0
 11
509.71707237498458
 21
-1441.7143145886439
 31
0.0
  0
LINE
  5
4AFE
  8
1外形線
  6
CONTINUOUS
 10
435.21707237499157
 20
-1436.7143145886421
 30
0.0
 11
459.46707237498811
 21
-1436.7143145886421
 31
0.0
  0
ARC
  5
4AFF
  8
1外形線
 10
472.46707237498811
 20
-1341.314314588644
 30
0.0
 40
40.499999999999979
 50
216.1826616859199
 51
323.81733831407979
  0
LINE
  5
4B00
  8
1外形線
 10
22.304284031606901
 20
-1252.7688267845699
 30
0.0
 11
4.0042840316077672
 21
-1252.7688267845699
 31
0.0
  0
LINE
  5
4B09
  8
1外形線
 10
22.304284031606901
 20
-1274.7688267845699
 30
0.0
 11
4.0042840316132242
 21
-1274.7688267845699
 31
0.0
  0
LINE
  5
4B0C
  8
1外形線
 10
-33.995715968392233
 20
-1312.7688267845699
 30
0.0
 11
-33.995715968392233
 21
-1290.7688267845699
 31
0.0
  0
LINE
  5
4B0D
  8
1外形線
 10
-33.995715968392233
 20
-1312.7688267845699
 30
0.0
 11
-33.995715968392233
 21
-1334.1506507420561
 31
0.0
  0
ARC
  5
4B0E
  8
1外形線
 10
4.0042840316095294
 20
-1290.768826784572
 30
0.0
 40
38.0
 50
90.0
 51
180.0
  0
ARC
  5
4B12
  8
1外形線
 10
4.0042840316132242
 20
-1299.7688267845699
 30
0.0
 40
25.0
 50
90.0
 51
180.0
  0
LINE
  5
4B1D
  8
1外形線
 10
22.304284031606901
 20
-1252.7688267845699
 30
0.0
 11
40.604284031606277
 21
-1252.7688267845699
 31
0.0
  0
ARC
  5
4B1E
  8
1外形線
 10
40.604284031604493
 20
-1290.768826784572
 30
0.0
 40
38.0
 50
0.0
 51
90.0
  0
LINE
  5
4B1F
  8
1外形線
 10
78.604284031606312
 20
-1312.7688267845699
 30
0.0
 11
78.604284031606312
 21
-1290.7688267845699
 31
0.0
  0
LINE
  5
4B20
  8
1外形線
 10
78.604284031606312
 20
-1312.7688267845699
 30
0.0
 11
78.604284031606312
 21
-1334.1506507420561
 31
0.0
  0
ARC
  5
4B31
  8
1外形線
 10
40.604284031602468
 20
-1299.7688267845699
 30
0.0
 40
25.0
 50
0.0
 51
90.0
  0
LINE
  5
4B33
  8
1外形線
 10
22.304284031606901
 20
-1274.7688267845699
 30
0.0
 11
40.604284031602468
 21
-1274.7688267845699
 31
0.0
  0
ARC
  5
4B3A
  8
1外形線
 10
454.16707237499242
 20
-1291.7143145886439
 30
0.0
 40
38.0
 50
90.0
 51
180.0
  0
LINE
  5
4B3C
  8
1外形線
 10
284.71923439431538
 20
-1276.1328044690381
 30
0.0
 11
289.9126242189634
 21
-1275.9514473000879
 31
0.0
  0
LINE
  5
4B3D
  8
1外形線
 10
256.969498201421
 20
-1279.049419270412
 30
0.0
 11
219.73812673545069
 21
-1285.614314588644
 31
0.0
  0
LINE
  5
4B3F
  8
1外形線
 10
219.73812673545069
 20
-1287.7833805841519
 30
0.0
 11
219.73812673545069
 21
-1285.614314588644
 31
0.0
  0
ARC
  5
4B40
  8
1外形線
 10
291.69913373480659
 20
-1476.010969872862
 30
0.0
 40
200.0
 50
92.00000000000351
 51
100.0000000000045
  0
ARC
  5
4B41
  8
1外形線
 10
203.45400851743781
 20
-1313.8713092846699
 30
0.0
 40
25.0
 50
100.0000000000045
 51
169.99999999999471
  0
LINE
  5
4B42
  8
1外形線
 10
178.8338146921308
 20
-1309.530104842996
 30
0.0
 11
172.77657613300491
 21
-1343.8824117604479
 31
0.0
  0
LINE
  5
4B45
  8
1外形線
 10
219.73812673545069
 20
-1285.614314588644
 30
0.0
 11
199.11280407576169
 21
-1289.251115459364
 31
0.0
  0
LINE
  5
4B49
  8
1外形線
 10
416.1670723749906
 20
-1313.7143145886439
 30
0.0
 11
416.1670723749906
 21
-1335.096138546128
 31
0.0
  0
LINE
  5
4B4B
  8
1外形線
 10
416.16707237499242
 20
-1313.7143145886439
 30
0.0
 11
416.16707237499242
 21
-1291.7143145886439
 31
0.0
  0
LINE
  5
4B4E
  8
1外形線
  6
CONTINUOUS
 10
296.73812673545069
 20
-1363.7143145886421
 30
0.0
 11
293.73812673545069
 21
-1363.7143145886421
 31
0.0
  0
ARC
  5
4B4F
  8
1外形線
 10
289.73812673545069
 20
-1270.9544931649921
 30
0.0
 40
5.0
 50
272.0000000000033
 51
323.13010235416391
  0
LINE
  5
4B51
  8
1外形線
  6
CONTINUOUS
 10
296.73812673545069
 20
-1253.7143145886439
 30
0.0
 11
293.73812673545069
 21
-1253.7143145886439
 31
0.0
  0
LINE
  5
4B52
  8
1外形線
  6
CONTINUOUS
 10
293.73812673545069
 20
-1363.7143145886421
 30
0.0
 11
293.73812673545069
 21
-1253.7143145886439
 31
0.0
  0
LINE
  5
4B56
  8
1外形線
 10
454.16707237499242
 20
-1253.7143145886471
 30
0.0
 11
490.76707237498732
 21
-1253.7143145886439
 31
0.0
  0
LINE
  5
4B57
  8
1外形線
 10
528.76707237498749
 20
-1313.7143145886439
 30
0.0
 11
528.76707237498749
 21
-1291.7143145886439
 31
0.0
  0
ARC
  5
4B58
  8
1外形線
 10
490.76707237498732
 20
-1291.7143145886439
 30
0.0
 40
38.0
 50
0.0
 51
90.0
  0
LINE
  5
4B5B
  8
1外形線
 10
528.76707237498931
 20
-1313.7143145886439
 30
0.0
 11
528.76707237498931
 21
-1335.096138546128
 31
0.0
  0
LINE
  5
4B6D
  8
1外形線
 10
472.46707237498811
 20
-1357.936115326288
 30
0.0
 11
459.0452716373444
 21
-1357.936115326288
 31
0.0
  0
LINE
  5
4B70
  8
1外形線
 10
472.46707237498811
 20
-1289.492513851
 30
0.0
 11
459.0452716373444
 21
-1289.492513851
 31
0.0
  0
LINE
  5
4B73
  8
1外形線
 10
472.46707237498811
 20
-1277.7143145886439
 30
0.0
 11
454.16707237502351
 21
-1277.7143145886421
 31
0.0
  0
ARC
  5
4C4E
  8
1外形線
 10
485.88887311263932
 20
-1337.1361153262881
 30
0.0
 40
20.799999999999599
 50
270.0
 51
0.0
  0
LINE
  5
4C59
  8
1外形線
 10
506.68887311263848
 20
-1310.292513851
 30
0.0
 11
506.68887311263848
 21
-1337.1361153262881
 31
0.0
  0
ARC
  5
4C98
  8
1外形線
 10
485.88887311263932
 20
-1310.2925138509991
 30
0.0
 40
20.799999999999599
 50
0.0
 51
90.0
  0
LINE
  5
4CEE
  8
1外形線
 10
472.46707237498811
 20
-1357.936115326288
 30
0.0
 11
485.8888731126338
 21
-1357.936115326288
 31
0.0
  0
ARC
  5
4CF5
  8
1外形線
 10
490.7670723749581
 20
-1300.71431458864
 30
0.0
 40
23.0
 50
0.0
 51
90.0
  0
LINE
  5
4CFA
  8
1外形線
 10
472.46707237499157
 20
-1277.7143145886439
 30
0.0
 11
490.7670723749581
 21
-1277.7143145886421
 31
0.0
  0
LINE
  5
4CFD
  8
1外形線
 10
472.46707237498811
 20
-1289.492513851
 30
0.0
 11
485.8888731126338
 21
-1289.492513851
 31
0.0
  0
LINE
  5
4D47
  8
1外形線
 10
438.24527163734479
 20
-1337.1361153262901
 30
0.0
 11
438.24527163734479
 21
-1310.2925138509991
 31
0.0
  0
ARC
  5
4D88
  8
1外形線
 10
454.16707237502351
 20
-1300.71431458864
 30
0.0
 40
23.0
 50
90.0
 51
180.0
  0
ARC
  5
4D8A
  8
1外形線
 10
459.0452716373444
 20
-1310.2925138509991
 30
0.0
 40
20.799999999999599
 50
90.0
 51
180.0
  0
ARC
  5
4D8B
  8
1外形線
 10
459.0452716373444
 20
-1337.1361153262881
 30
0.0
 40
20.799999999999599
 50
180.0
 51
270.0
  0
LINE
  5
4E91
  8
1外形線
 62
     2
 10
22.304284031606901
 20
-1241.78158611205
 30
0.0
 11
22.304284031606901
 21
-1454.8937404339381
 31
0.0
  0
LINE
  5
4E92
  8
1外形線
 62
     2
 10
22.304284031606901
 20
-1646.6862991995879
 30
0.0
 11
22.304284031606901
 21
-1502.6873196806439
 31
0.0
  0
LINE
  5
4E93
  8
1外形線
 62
     2
 10
472.46707237499157
 20
-1453.168726649028
 30
0.0
 11
472.46707237499157
 21
-1243.453264853684
 31
0.0
  0
LINE
  5
4FAC
  8
1外形線
 10
-33.995715968399509
 20
-1046.73876228368
 30
0.0
 11
22.304284031606901
 21
-1046.73876228368
 31
0.0
  0
LINE
  5
4FAD
  8
1外形線
 10
-33.995715968394023
 20
-1049.7387622836791
 30
0.0
 11
22.304284031606901
 21
-1049.7387622836791
 31
0.0
  0
LINE
  5
4FAE
  8
1外形線
 10
-33.995715968399509
 20
-1046.73876228378
 30
0.0
 11
-33.995715968394023
 21
-1049.7387622836791
 31
0.0
  0
LINE
  5
4FAF
  8
1外形線
 10
78.604284031606312
 20
-1046.73876228368
 30
0.0
 11
22.304284031606901
 21
-1046.73876228368
 31
0.0
  0
LINE
  5
4FB0
  8
1外形線
 10
-19.99571596839408
 20
-1046.73876228368
 30
0.0
 11
64.604284031608074
 21
-1046.73876228368
 31
0.0
  0
LINE
  5
4FB4
  8
1外形線
 10
60.404284031605528
 20
-1123.73876228368
 30
0.0
 11
22.304284031606901
 21
-1123.73876228368
 31
0.0
  0
LINE
  5
4FB5
  8
1外形線
 10
22.304284031606901
 20
-1123.73876228368
 30
0.0
 11
60.40428403160908
 21
-1123.73876228368
 31
0.0
  0
LINE
  5
4FB6
  8
1外形線
 10
22.304284031606901
 20
-1123.73876228368
 30
0.0
 11
60.40428403160729
 21
-1123.73876228368
 31
0.0
  0
LINE
  5
4FB7
  8
1外形線
 10
60.40428403160729
 20
-1123.73876228368
 30
0.0
 11
22.304284031606901
 21
-1123.73876228368
 31
0.0
  0
ARC
  5
4FB8
  8
1外形線
 10
30.610444216769281
 20
-1148.738762283685
 30
0.0
 40
25.0
 50
269.99999999994782
 51
349.99999999996828
  0
LINE
  5
4FBB
  8
1外形線
 10
22.304284031606901
 20
-1123.73876228368
 30
0.0
 11
-15.7957159683915
 21
-1123.73876228368
 31
0.0
  0
LINE
  5
4FBC
  8
1外形線
 10
-15.7957159683915
 20
-1123.73876228368
 30
0.0
 11
22.304284031606901
 21
-1123.73876228368
 31
0.0
  0
LINE
  5
4FBD
  8
1外形線
 10
22.304284031606901
 20
-1123.73876228368
 30
0.0
 11
-15.795715968393321
 21
-1123.73876228368
 31
0.0
  0
ARC
  5
4FC0
  8
1外形線
 10
13.998123846461111
 20
-1148.73876228368
 30
0.0
 40
25.0
 50
190.00000000000509
 51
270.0
  0
LINE
  5
4FC1
  8
1外形線
 10
-15.795715968393321
 20
-1123.73876228368
 30
0.0
 11
-10.62206997884231
 21
-1153.0799667253521
 31
0.0
  0
LINE
  5
4FC2
  8
1外形線
 10
-20.793118565798519
 20
-1049.7387622836791
 30
0.0
 11
-15.7957159683915
 21
-1123.73876228368
 31
0.0
  0
LINE
  5
4FCB
  8
1外形線
 10
-6.2301591975333386
 20
-1123.7387622836859
 30
0.0
 11
-3.1754871241824101
 21
-1123.7387622836859
 31
0.0
  0
LINE
  5
4FCC
  8
1外形線
 10
-6.2301591975315196
 20
-1123.7387622836859
 30
0.0
 11
-4.1088388539733671
 21
-1123.7387622836859
 31
0.0
  0
LINE
  5
4FCD
  8
1外形線
 62
     2
 10
22.304284031606901
 20
-1039.4037477700899
 30
0.0
 11
22.304284031606901
 21
-1183.402727289033
 31
0.0
  0
LINE
  5
4FD2
  8
1外形線
 10
13.998123846461111
 20
-1173.73876228368
 30
0.0
 11
22.304284031606901
 21
-1173.73876228368
 31
0.0
  0
LINE
  5
4FD3
  8
1外形線
 10
30.610444216752882
 20
-1173.73876228368
 30
0.0
 11
22.304284031606901
 21
-1173.73876228368
 31
0.0
  0
LINE
  5
4FD4
  8
1外形線
 10
65.401686629012474
 20
-1049.7387622836791
 30
0.0
 11
60.404284031605528
 21
-1123.73876228368
 31
0.0
  0
LINE
  5
4FD5
  8
1外形線
 10
60.404284031641879
 20
-1123.7387622837059
 30
0.0
 11
55.230638042070893
 21
-1153.0799667253759
 31
0.0
  0
LINE
  5
4FD6
  8
1外形線
 10
50.838727260781887
 20
-1123.738762283708
 30
0.0
 11
47.784055187430909
 21
-1123.7387622837041
 31
0.0
  0
LINE
  5
4FDD
  8
1外形線
 10
50.838727260780097
 20
-1123.738762283708
 30
0.0
 11
48.717406917221894
 21
-1123.7387622837059
 31
0.0
  0
LINE
  5
4FE6
  8
1外形線
 10
78.604284031606312
 20
-1049.7387622836791
 30
0.0
 11
22.304284031606901
 21
-1049.7387622836791
 31
0.0
  0
LINE
  5
4FE7
  8
1外形線
 10
78.604284031606312
 20
-1046.73876228368
 30
0.0
 11
78.604284031606312
 21
-1049.7387622836791
 31
0.0
  0
LINE
  5
5602
  8
1外形線
 10
-14.945715968393101
 20
-1615.351284685999
 30
0.0
 11
-14.945715968393101
 21
-1602.851284685999
 31
0.0
  0
ARC
  5
5603
  8
1外形線
 10
9.0542840316068993
 20
-1615.351284685999
 30
0.0
 40
24.0
 50
180.0
 51
270.00000000000119
  0
LINE
  5
5604
  8
1外形線
 10
11.05428403160645
 20
-1576.851284685999
 30
0.0
 11
22.304284031606901
 21
-1576.851284685999
 31
0.0
  0
ARC
  5
5605
  8
1外形線
 10
11.05428403160689
 20
-1602.851284685999
 30
0.0
 40
26.0
 50
90.000000000000966
 51
180.0
  0
LINE
  5
5606
  8
1外形線
 10
33.554284031607338
 20
-1576.851284685999
 30
0.0
 11
22.304284031606901
 21
-1576.851284685999
 31
0.0
  0
ARC
  5
5607
  8
1外形線
 10
33.554284031606898
 20
-1602.851284685999
 30
0.0
 40
26.0
 50
0.000000000000007
 51
89.999999999999034
  0
ARC
  5
5608
  8
1外形線
 10
35.55428403160689
 20
-1615.351284685999
 30
0.0
 40
24.0
 50
269.99999999999869
 51
0.000000000000007
  0
LINE
  5
5609
  8
1外形線
 10
59.554284031606898
 20
-1615.351284685999
 30
0.0
 11
59.554284031606898
 21
-1602.851284685999
 31
0.0
  0
LINE
  5
5624
  8
1外形線
  6
CONTINUOUS
 10
-14.945715968393101
 20
-1423.3213770994371
 30
0.0
 11
-14.945715968393101
 21
-1440.7688267845699
 31
0.0
  0
ARC
  5
5626
  8
1外形線
  6
CONTINUOUS
 10
-29.94571596839355
 20
-1423.3213770994371
 30
0.0
 40
15.0
 50
359.99999999999909
 51
8.8418145601920202
  0
LINE
  5
5627
  8
1外形線
  6
CONTINUOUS
 10
59.554284031606898
 20
-1423.3213770994371
 30
0.0
 11
59.554284031606898
 21
-1440.7688267845699
 31
0.0
  0
ARC
  5
5628
  8
1外形線
  6
CONTINUOUS
 10
74.554284031607338
 20
-1423.3213770994371
 30
0.0
 40
15.0
 50
171.15818543980799
 51
180.0000000000008
  0
LINE
  5
5637
  8
1外形線
 10
234.23812673545069
 20
-1441.7143145886439
 30
0.0
 11
234.2381267354512
 21
-1419.560347394354
 31
0.0
  0
ARC
  5
5638
  8
1外形線
 10
219.2381267354512
 20
-1419.560347394354
 30
0.0
 40
15.0
 50
359.99999999999869
 51
29.999999999998789
  0
LINE
  5
5639
  8
1外形線
  6
CONTINUOUS
 10
435.21707237499157
 20
-1441.7143145886439
 30
0.0
 11
435.21707237499157
 21
-1424.266864903371
 31
0.0
  0
ARC
  5
563A
  8
1外形線
  6
CONTINUOUS
 10
420.21707237499152
 20
-1424.266864903371
 30
0.0
 40
15.0
 50
0.0
 51
8.8418145602371059
  0
LINE
  5
563B
  8
1外形線
  6
CONTINUOUS
 10
509.71707237498458
 20
-1441.7143145886439
 30
0.0
 11
509.71707237498458
 21
-1424.266864903371
 31
0.0
  0
ARC
  5
563C
  8
1外形線
  6
CONTINUOUS
 10
524.71707237498447
 20
-1424.266864903371
 30
0.0
 40
15.0
 50
171.1581854397628
 51
180.0
  0
LINE
  5
563D
  8
1外形線
  6
CONTINUOUS
 10
509.71707237498458
 20
-1436.7143145886421
 30
0.0
 11
485.46707237498799
 21
-1436.7143145886421
 31
0.0
  0
ENDSEC
  0
EOF
