  0
SECTION
  2
HEADER
  9
$ACADVER
  1
AC1009
  9
$INSBASE
 10
0.0
 20
0.0
 30
0.0
  9
$EXTMIN
 10
-125.1299776715182
 20
-1383.3354591844991
 30
0.0
  9
$EXTMAX
 10
555.02061710935698
 20
-650.18751997327263
 30
0.0
  9
$LIMMIN
 10
0.0
 20
0.0
  9
$LIMMAX
 10
420.0
 20
297.0
  9
$ORTHOMODE
 70
     1
  9
$REGENMODE
 70
     1
  9
$FILLMODE
 70
     1
  9
$QTEXTMODE
 70
     0
  9
$MIRRTEXT
 70
     1
  9
$DRAGMODE
 70
     2
  9
$LTSCALE
 40
1.0
  9
$OSMODE
 70
    37
  9
$ATTMODE
 70
     1
  9
$TEXTSIZE
 40
2.5
  9
$TRACEWID
 40
1.0
  9
$TEXTSTYLE
  7
KANJI
  9
$CLAYER
  8
2寸法線
  9
$CELTYPE
  6
BYLAYER
  9
$CECOLOR
 62
   256
  9
$DIMSCALE
 40
0.0
  9
$DIMASZ
 40
1.8
  9
$DIMEXO
 40
1.0
  9
$DIMDLI
 40
0.0
  9
$DIMRND
 40
0.0
  9
$DIMDLE
 40
0.0
  9
$DIMEXE
 40
1.0
  9
$DIMTP
 40
0.0
  9
$DIMTM
 40
0.0
  9
$DIMTXT
 40
2.5
  9
$DIMCEN
 40
0.0
  9
$DIMTSZ
 40
0.0
  9
$DIMTOL
 70
     0
  9
$DIMLIM
 70
     0
  9
$DIMTIH
 70
     0
  9
$DIMTOH
 70
     0
  9
$DIMSE1
 70
     0
  9
$DIMSE2
 70
     0
  9
$DIMTAD
 70
     1
  9
$DIMZIN
 70
     8
  9
$DIMBLK
  1

  9
$DIMASO
 70
     1
  9
$DIMSHO
 70
     1
  9
$DIMPOST
  1

  9
$DIMAPOST
  1

  9
$DIMALT
 70
     0
  9
$DIMALTD
 70
     2
  9
$DIMALTF
 40
25.399999999999999
  9
$DIMLFAC
 40
1.0
  9
$DIMTOFL
 70
     1
  9
$DIMTVP
 40
0.0
  9
$DIMTIX
 70
     0
  9
$DIMSOXD
 70
     0
  9
$DIMSAH
 70
     1
  9
$DIMBLK1
  1
2
  9
$DIMBLK2
  1
2
  9
$DIMSTYLE
  2
M
  9
$DIMCLRD
 70
     0
  9
$DIMCLRE
 70
     0
  9
$DIMCLRT
 70
     0
  9
$DIMTFAC
 40
1.0
  9
$DIMGAP
 40
0.5
  9
$LUNITS
 70
     2
  9
$LUPREC
 70
     3
  9
$SKETCHINC
 40
1.0
  9
$FILLETRAD
 40
0.0
  9
$AUNITS
 70
     0
  9
$AUPREC
 70
     1
  9
$MENU
  1
.
  9
$ELEVATION
 40
0.0
  9
$PELEVATION
 40
0.0
  9
$THICKNESS
 40
0.0
  9
$LIMCHECK
 70
     0
  9
$BLIPMODE
 70
     0
  9
$CHAMFERA
 40
10.0
  9
$CHAMFERB
 40
10.0
  9
$SKPOLY
 70
     0
  9
$TDCREATE
 40
2454393.806994895
  9
$TDUPDATE
 40
2454396.4639284839
  9
$TDINDWG
 40
0.0494209259
  9
$TDUSRTIMER
 40
0.0494207407
  9
$USRTIMER
 70
     1
  9
$ANGBASE
 50
0.0
  9
$ANGDIR
 70
     0
  9
$PDMODE
 70
     0
  9
$PDSIZE
 40
0.0
  9
$PLINEWID
 40
0.0
  9
$COORDS
 70
     0
  9
$SPLFRAME
 70
     0
  9
$SPLINETYPE
 70
     6
  9
$SPLINESEGS
 70
     8
  9
$ATTDIA
 70
     1
  9
$ATTREQ
 70
     1
  9
$HANDLING
 70
     1
  9
$HANDSEED
  5
602D
  9
$SURFTAB1
 70
     6
  9
$SURFTAB2
 70
     6
  9
$SURFTYPE
 70
     6
  9
$SURFU
 70
     6
  9
$SURFV
 70
     6
  9
$UCSNAME
  2

  9
$UCSORG
 10
0.0
 20
0.0
 30
0.0
  9
$UCSXDIR
 10
1.0
 20
0.0
 30
0.0
  9
$UCSYDIR
 10
0.0
 20
1.0
 30
0.0
  9
$PUCSNAME
  2

  9
$PUCSORG
 10
0.0
 20
0.0
 30
0.0
  9
$PUCSXDIR
 10
1.0
 20
0.0
 30
0.0
  9
$PUCSYDIR
 10
0.0
 20
1.0
 30
0.0
  9
$USERI1
 70
     0
  9
$USERI2
 70
     0
  9
$USERI3
 70
     0
  9
$USERI4
 70
     0
  9
$USERI5
 70
     0
  9
$USERR1
 40
0.0
  9
$USERR2
 40
0.0
  9
$USERR3
 40
0.0
  9
$USERR4
 40
0.0
  9
$USERR5
 40
0.0
  9
$WORLDVIEW
 70
     1
  9
$SHADEDGE
 70
     3
  9
$SHADEDIF
 70
    70
  9
$TILEMODE
 70
     1
  9
$MAXACTVP
 70
    48
  9
$PLIMCHECK
 70
     0
  9
$PEXTMIN
 10
1.0000000000000000E+020
 20
1.0000000000000000E+020
 30
1.0000000000000000E+020
  9
$PEXTMAX
 10
-1.0000000000000000E+020
 20
-1.0000000000000000E+020
 30
-1.0000000000000000E+020
  9
$PLIMMIN
 10
0.0
 20
0.0
  9
$PLIMMAX
 10
420.0
 20
297.0
  9
$UNITMODE
 70
     0
  9
$VISRETAIN
 70
     1
  9
$PLINEGEN
 70
     0
  9
$PSLTSCALE
 70
     1
  0
ENDSEC
  0
SECTION
  2
TABLES
  0
TABLE
  2
VPORT
 70
     4
  0
VPORT
  2
*ACTIVE
 70
     0
 10
0.0
 20
0.0
 11
1.0
 21
1.0
 12
219.98592728797121
 22
-1046.40620595987
 13
0.0
 23
0.0
 14
10.0
 24
10.0
 15
10.0
 25
10.0
 16
0.0
 26
0.0
 36
1.0
 17
0.0
 27
0.0
 37
0.0
 40
724.90315633824218
 41
1.5937904269081491
 42
50.0
 43
0.0
 44
0.0
 50
0.0
 51
0.0
 71
     0
 72
   100
 73
     1
 74
     1
 75
     0
 76
     0
 77
     0
 78
     0
  0
ENDTAB
  0
TABLE
  2
LTYPE
 70
     4
  0
LTYPE
  2
CONTINUOUS
 70
     0
  3
Solid line
 72
    65
 73
     0
 40
0.0
  0
ENDTAB
  0
TABLE
  2
LAYER
 70
    10
  0
LAYER
  2
0
 70
     0
 62
     7
  6
CONTINUOUS
  0
LAYER
  2
2寸法線
 70
     0
 62
     2
  6
CONTINUOUS
  0
LAYER
  2
1外形線
 70
     0
 62
     3
  6
CONTINUOUS
  0
LAYER
  2
DEFPOINTS
 70
     0
 62
     7
  6
CONTINUOUS
  0
ENDTAB
  0
TABLE
  2
STYLE
 70
     3
  0
STYLE
  2
STANDARD
 70
     0
 40
0.0
 41
1.0
 50
0.0
 71
     0
 42
2.5
  3
txt
  4

  0
STYLE
  2
KANJI
 70
     0
 40
0.0
 41
1.0
 50
0.0
 71
     0
 42
2.5
  3
simplex.shx
  4
bigfont.shx
  0
ENDTAB
  0
TABLE
  2
VIEW
 70
     0
  0
ENDTAB
  0
TABLE
  2
UCS
 70
     0
  0
ENDTAB
  0
TABLE
  2
APPID
 70
     1
  0
APPID
  2
ACAD
 70
     0
  0
ENDTAB
  0
TABLE
  2
DIMSTYLE
 70
     5
  0
DIMSTYLE
  2
STANDARD
 70
     0
  3

  4

  5

  6

  7

 40
1.0
 41
0.18
 42
0.0625
 43
0.38
 44
0.18
 45
0.0
 46
0.0
 47
0.0
 48
0.0
140
0.18
141
0.09
142
0.0
143
25.399999999999999
144
1.0
145
0.0
146
1.0
147
0.09
 71
     0
 72
     0
 73
     0
 74
     0
 75
     0
 76
     0
 77
     0
 78
     0
170
     0
171
     2
172
     1
173
     0
174
     0
175
     0
176
     0
177
     0
178
     0
  0
DIMSTYLE
  2
M
 70
     0
  3

  4

  5

  6

  7

 40
0.0
 41
2.0
 42
1.0
 43
0.0
 44
1.0
 45
0.0
 46
0.0
 47
0.0
 48
0.0
140
2.5
141
0.0
142
0.0
143
25.399999999999999
144
1.0
145
0.0
146
1.0
147
0.5
 71
     0
 72
     0
 73
     0
 74
     0
 75
     0
 76
     0
 77
     1
 78
     8
170
     0
171
     2
172
     1
173
     1
174
     0
175
     0
176
     0
177
     0
178
     0
  0
ENDTAB
  0
ENDSEC
  0
SECTION
  2
BLOCKS
  0
BLOCK
  8
0
  2
$MODEL_SPACE
 70
     0
 10
0.0
 20
0.0
 30
0.0
  3
$MODEL_SPACE
  1

  0
ENDBLK
  5
5BC5
  8
0
  0
BLOCK
 67
     1
  8
0
  2
$PAPER_SPACE
 70
     0
 10
0.0
 20
0.0
 30
0.0
  3
$PAPER_SPACE
  1

  0
ENDBLK
  5
5BC1
 67
     1
  8
0
  0
BLOCK
  8
0
  2
2
 70
     0
 10
0.0
 20
0.0
 30
0.0
  3
2
  1

  0
INSERT
  5
131
  8
0
  6
CONTINUOUS
 62
     0
  2
*U3
 10
0.0
 20
0.0
 30
0.0
1001
ACAD
1002
{
1000
R14_HATCH_DATA
1000
131
1011
1.0
1021
0.0
1031
0.0
1021
0.0
1031
0.0
1011
0.0
1021
0.0
1031
0.0
1021
1.0
1031
0.0
1011
0.0
1021
0.0
1031
0.0
1021
0.0
1031
1.0
1040
0.0
1010
0.0
1020
0.0
1030
1.0
1000
SOLID
1070
     1
1070
     0
1071
        1
1071
        1
1071
        3
1070
     1
1040
-0.9999999999983517
1040
0.2679491924306774
1040
0.0
1040
0.0
1070
     1
1040
0.0
1040
0.0
1040
-0.9999999999983517
1040
-0.2679491924306765
1070
     1
1040
-0.9999999999983524
1040
-0.267949192430676
1040
-0.9999999999983524
1040
0.2679491924306774
1071
        0
1070
     0
1070
     1
1071
        1
1040
2.9957451172313361
1040
-4.1249460962632014
1040
0.0
1002
}
  0
ENDBLK
  5
132
  8
0
  0
BLOCK
  8
0
  2
*U3
 70
     1
 10
0.0
 20
0.0
 30
0.0
  3
*U3
  1

  0
SOLID
  5
5A87
  8
0
  6
CONTINUOUS
 62
     0
 10
0.666666666665568
 20
0.0000000000000004
 30
0.0
 11
0.9999999999983517
 21
0.2679491924306774
 31
0.0
 12
0.0
 22
0.0
 32
0.0
 13
0.0
 23
0.0
 33
0.0
210
0.0
220
0.0
230
-1.0
  0
SOLID
  5
5A88
  8
0
  6
CONTINUOUS
 62
     0
 10
0.666666666665568
 20
0.0000000000000004
 30
0.0
 11
0.0
 21
0.0
 31
0.0
 12
0.9999999999983524
 22
-0.267949192430676
 32
0.0
 13
0.9999999999983524
 23
-0.267949192430676
 33
0.0
210
0.0
220
0.0
230
-1.0
  0
SOLID
  5
5A89
  8
0
  6
CONTINUOUS
 62
     0
 10
0.666666666665568
 20
0.0000000000000004
 30
0.0
 11
0.9999999999983524
 21
-0.267949192430676
 31
0.0
 12
0.9999999999983517
 22
0.2679491924306774
 32
0.0
 13
0.9999999999983517
 23
0.2679491924306774
 33
0.0
210
0.0
220
0.0
230
-1.0
  0
ENDBLK
  5
5A8B
  8
0
  0
ENDSEC
  0
SECTION
  2
ENTITIES
  0
ARC
  5
5456
  8
1外形線
 10
-6.9500406528075009
 20
-1009.046283463131
 30
0.0
 40
48.79999999999999
 50
0.0
 51
180.0
  0
LINE
  5
5457
  8
1外形線
 10
-55.750040652808593
 20
-1061.8462834631291
 30
0.0
 11
41.849959347186342
 21
-1061.8462834631271
 31
0.0
  0
LINE
  5
5458
  8
1外形線
 10
-43.617295682799288
 20
-1125.8462834631309
 30
0.0
 11
29.717214377184291
 21
-1125.8462834631309
 31
0.0
  0
ARC
  5
5459
  8
1外形線
 10
-6.9500406528075009
 20
-1009.046283463129
 30
0.0
 40
73.200000000000003
 50
314.13808952995117
 51
90.0
  0
LINE
  5
545A
  8
1外形線
 10
-43.617295682799288
 20
-1130.8462834631309
 30
0.0
 11
29.717214377184291
 21
-1130.8462834631309
 31
0.0
  0
ARC
  5
545E
  8
1外形線
 10
-6.9500406528075009
 20
-1009.046283463129
 30
0.0
 40
73.200000000000003
 50
90.0
 51
225.86191047006469
  0
LINE
  5
545F
  8
1外形線
 10
-55.750040652806739
 20
-1009.046283463131
 30
0.0
 11
-55.750040652806739
 21
-1066.372483004822
 31
0.0
  0
LINE
  5
5460
  8
1外形線
 10
-56.65698207807668
 20
-1063.6086343153249
 30
0.0
 11
-47.873127665503262
 21
-1090.3768950105029
 31
0.0
  0
POINT
  5
5461
  8
DEFPOINTS
  6
BYBLOCK
 62
     0
 10
-6.9500406528075009
 20
-1125.8462834631309
 30
0.0
  0
POINT
  5
5462
  8
DEFPOINTS
  6
BYBLOCK
 62
     0
 10
-6.9500406528075009
 20
-1125.8462834631309
 30
0.0
  0
ARC
  5
5463
  8
1外形線
 10
-43.122367625217287
 20
-1088.817959784262
 30
0.0
 40
5.0
 50
198.1669591838633
 51
238.71637529168589
  0
ARC
  5
5464
  8
1外形線
 10
-51.617295682799302
 20
-1119.122396755223
 30
0.0
 40
8.0
 50
0.0
 51
80.403794958575475
  0
ARC
  5
5465
  8
1外形線
 10
-56.640968816047241
 20
-1089.3159725618041
 30
0.0
 40
8.0
 50
298.73001999065758
 51
18.166959183822001
  0
ARC
  5
5466
  8
1外形線
 10
-56.640968816047241
 20
-1089.3159725618041
 30
0.0
 40
8.0
 50
298.73001999065758
 51
18.166959183822001
  0
ARC
  5
5467
  8
1外形線
 10
-48.950040652807502
 20
-1103.3462834631309
 30
0.0
 40
8.0
 50
118.7300199906576
 51
260.40379495857542
  0
ARC
  5
5469
  8
1外形線
 10
-51.950040652807502
 20
-1103.3462834631309
 30
0.0
 40
12.0
 50
313.97905909325448
 51
58.716375291685999
  0
LINE
  5
546B
  8
1外形線
 10
-43.617295682799288
 20
-1130.8462834631309
 30
0.0
 11
-43.617295682799288
 21
-1111.981407160265
 31
0.0
  0
POINT
  5
546C
  8
1外形線
 10
-33.330934962779587
 20
-1125.8462834631309
 30
0.0
  0
ARC
  5
546D
  8
1外形線
 10
-61.407742118362648
 20
-1065.167569541567
 30
0.0
 40
5.0
 50
18.166959183849791
 51
45.861910469990711
  0
LINE
  5
5499
  8
1外形線
 10
292.87751719607348
 20
-1130.8462834631309
 30
0.0
 11
292.87751719607149
 21
-935.72628346313149
 31
0.0
  0
LINE
  5
54A1
  8
1外形線
 10
427.02838665637148
 20
-1130.846283463135
 30
0.0
 11
427.02838665637148
 21
-1119.204258228267
 31
0.0
  0
LINE
  5
54A7
  8
1外形線
 10
496.36356685766981
 20
-1130.8462834631309
 30
0.0
 11
496.36356685766981
 21
-1119.204258229149
 31
0.0
  0
LINE
  5
54AE
  8
1外形線
 10
292.87751719607348
 20
-1130.8462834631309
 30
0.0
 11
231.87751719607351
 21
-1130.8462834631309
 31
0.0
  0
LINE
  5
54BD
  8
1外形線
 10
425.02872172702519
 20
-1130.8462834631309
 30
0.0
 11
498.36323178701241
 21
-1130.8462834631309
 31
0.0
  0
LINE
  5
54BE
  8
1外形線
 10
277.16974757281253
 20
-1043.624149513149
 30
0.0
 11
277.16974757281253
 21
-954.37885094986359
 31
0.0
  0
LINE
  5
54BF
  8
1外形線
 10
208.87751719607149
 20
-962.04628346313314
 30
0.0
 11
208.877517196068
 21
-1056.046283463133
 31
0.0
  0
ARC
  5
54C0
  8
1外形線
 10
358.87751719607149
 20
-1042.7440161683171
 30
0.0
 40
200.0
 50
170.00000000000779
 51
180.0
  0
CIRCLE
  5
54C2
  8
1外形線
 10
461.69597675702062
 20
-1009.046283463135
 30
0.0
 40
46.600000000000001
  0
CIRCLE
  5
54C3
  8
1外形線
 10
461.69597675702062
 20
-1009.046283463131
 30
0.0
 40
40.0
  0
LINE
  5
54E5
  8
1外形線
 10
509.83058442086451
 20
-1009.046283463129
 30
0.0
 11
509.83058442086451
 21
-1061.9905018196989
 31
0.0
  0
LINE
  5
54E6
  8
1外形線
 10
413.56136909317701
 20
-1009.046283463129
 30
0.0
 11
413.56136909317507
 21
-1061.990501819703
 31
0.0
  0
ARC
  5
54E7
  8
1外形線
 10
461.69597675700788
 20
-1009.046283463127
 30
0.0
 40
71.0
 50
89.999999999991175
 51
225.9462125743878
  0
ARC
  5
54E8
  8
1外形線
 10
461.69597675700788
 20
-1009.046283463127
 30
0.0
 40
73.200000000000003
 50
90.0
 51
225.86191047004851
  0
ARC
  5
54E9
  8
1外形線
 10
461.69597675701891
 20
-1009.046283463127
 30
0.0
 40
71.0
 50
314.05378742561447
 51
90.0
  0
ARC
  5
54EA
  8
1外形線
 10
461.69597675701891
 20
-1009.046283463127
 30
0.0
 40
73.200000000000003
 50
314.13808952995117
 51
90.0
  0
LINE
  5
54EF
  8
1外形線
 10
41.849959347191799
 20
-1009.046283463131
 30
0.0
 11
41.849959347191799
 21
-1066.3724830048091
 31
0.0
  0
ARC
  5
54F0
  8
1外形線
 10
228.87751719607331
 20
-1063.8106626297861
 30
0.0
 40
20.0
 50
180.0
 51
215.570512046044
  0
LINE
  5
54F1
  8
1外形線
 10
42.756900772461648
 20
-1063.608634315327
 30
0.0
 11
33.97304635988823
 21
-1090.3768950105029
 31
0.0
  0
ARC
  5
54F2
  8
1外形線
 10
38.049959347192527
 20
-1103.3462834631309
 30
0.0
 40
12.0
 50
121.28362470831379
 51
226.02094090674521
  0
ARC
  5
54F3
  8
1外形線
 10
35.049959347192498
 20
-1103.3462834631309
 30
0.0
 40
8.0
 50
279.59620504142453
 51
61.26998000934227
  0
ARC
  5
54F4
  8
1外形線
 10
37.717214377184291
 20
-1119.122396755223
 30
0.0
 40
8.0
 50
99.596205041424525
 51
180.0
  0
ARC
  5
54F5
  8
1外形線
 10
29.222286319602318
 20
-1088.817959784262
 30
0.0
 40
5.0
 50
301.28362470831382
 51
341.83304081613647
  0
ARC
  5
54F6
  8
1外形線
 10
42.740887510432231
 20
-1089.3159725618041
 30
0.0
 40
8.0
 50
161.83304081617791
 51
241.26998000934211
  0
ARC
  5
54F7
  8
1外形線
 10
42.740887510432231
 20
-1089.3159725618041
 30
0.0
 40
8.0
 50
161.83304081617791
 51
241.26998000934211
  0
POINT
  5
54F9
  8
1外形線
 10
19.430853657164558
 20
-1125.8462834631309
 30
0.0
  0
LINE
  5
54FA
  8
1外形線
 10
29.717214377184291
 20
-1130.8462834631309
 30
0.0
 11
29.717214377184291
 21
-1111.981407160265
 31
0.0
  0
LINE
  5
54FD
  8
1外形線
 10
292.87751719607149
 20
-1125.8462834631309
 30
0.0
 11
231.87751719607351
 21
-1125.8462834631309
 31
0.0
  0
LINE
  5
5508
  8
1外形線
 10
212.6095121989803
 20
-1075.564751051945
 30
0.0
 11
229.07852094389091
 21
-1098.5934497206781
 31
0.0
  0
LINE
  5
5510
  8
1外形線
 10
208.87751719607149
 20
-1050.246283463131
 30
0.0
 11
158.87751719607149
 21
-1050.246283463131
 31
0.0
  0
LINE
  5
5511
  8
1外形線
 10
158.87751719607149
 20
-1042.7440161683189
 30
0.0
 11
158.87751719607149
 21
-1050.246283463131
 31
0.0
  0
ARC
  5
5512
  8
1外形線
 10
47.507660812747638
 20
-1065.1675695415699
 30
0.0
 40
5.0
 50
134.1380895299489
 51
161.8330408161502
  0
LINE
  5
5513
  8
1外形線
 10
278.44006442726283
 20
-1051.998851825578
 30
0.0
 11
277.16974757281253
 21
-1043.624149513149
 31
0.0
  0
ARC
  5
5514
  8
1外形線
 10
290.2747162991401
 20
-1050.0038418329791
 30
0.0
 40
12.0
 50
188.6251620503086
 51
266.9999999999946
  0
LINE
  5
5515
  8
1外形線
 10
292.87751719607149
 20
-1062.1567169998791
 30
0.0
 11
289.64668482422911
 21
-1061.987396250038
 31
0.0
  0
LINE
  5
5516
  8
1外形線
 10
208.87751719607149
 20
-1056.046283463133
 30
0.0
 11
208.87751719607149
 21
-1063.8979131521189
 31
0.0
  0
LINE
  5
5517
  8
1外形線
 10
208.87751719607149
 20
-1056.046283463133
 30
0.0
 11
208.87751719607149
 21
-1058.6462834631341
 31
0.0
  0
LINE
  5
5518
  8
1外形線
 10
511.40291818229349
 20
-1063.6086343153229
 30
0.0
 11
503.7856888558037
 21
-1086.8216761998181
 31
0.0
  0
LINE
  5
5519
  8
1外形線
 10
509.79055186503513
 20
-1062.107587645592
 30
0.0
 11
501.8854911114995
 21
-1086.1977782524621
 31
0.0
  0
LINE
  5
551A
  8
1外形線
 10
413.60140164900622
 20
-1062.1075876455909
 30
0.0
 11
421.50646240254201
 21
-1086.1977782524621
 31
0.0
  0
LINE
  5
551B
  8
1外形線
 10
411.9890353317515
 20
-1063.6086343153229
 30
0.0
 11
419.60626465823771
 21
-1086.8216761998181
 31
0.0
  0
ARC
  5
551C
  8
1外形線
 10
503.69597675701891
 20
-1103.3462834631309
 30
0.0
 40
8.0
 50
279.59620504142453
 51
61.26998000934227
  0
ARC
  5
551F
  8
1外形線
 10
506.36323178701082
 20
-1119.122396755223
 30
0.0
 40
8.0
 50
99.596205041424525
 51
180.0
  0
ARC
  5
5520
  8
1外形線
 10
506.36323178701082
 20
-1119.122396755223
 30
0.0
 40
10.0
 50
99.596205041424525
 51
180.46903693475559
  0
ARC
  5
5521
  8
1外形線
 10
511.38701119206621
 20
-1089.315648704943
 30
0.0
 40
10.0
 50
161.83304081613639
 51
241.270203756618
  0
ARC
  5
5522
  8
1外形線
 10
511.38690492025842
 20
-1089.3159725618041
 30
0.0
 40
8.0
 50
161.83304081617791
 51
241.26998000934211
  0
ARC
  5
5529
  8
1外形線
 10
503.69597675701891
 20
-1103.3462834631309
 30
0.0
 40
6.000335070655634
 50
279.59620504142453
 51
61.270203756618841
  0
LINE
  5
552E
  8
1外形線
 10
498.36323178701241
 20
-1130.8462834631309
 30
0.0
 11
498.36323178701241
 21
-1119.1223967552251
 31
0.0
  0
ARC
  5
5530
  8
1外形線
 10
419.69597675701527
 20
-1103.346283463135
 30
0.0
 40
8.0
 50
118.7300199906576
 51
260.40379495857542
  0
ARC
  5
5534
  8
1外形線
 10
419.69597675701527
 20
-1103.346283463135
 30
0.0
 40
6.000335070655634
 50
118.72979624336359
 51
260.40379495857542
  0
ARC
  5
5536
  8
1外形線
 10
412.00504859377929
 20
-1089.3159725618041
 30
0.0
 40
8.0
 50
298.73001999065758
 51
18.166959183822001
  0
ARC
  5
5538
  8
1外形線
 10
417.02872172702342
 20
-1119.1223967552289
 30
0.0
 40
10.0
 50
359.53096307032263
 51
80.403794958575475
  0
ARC
  5
5539
  8
1外形線
 10
417.02872172702342
 20
-1119.1223967552289
 30
0.0
 40
8.0
 50
0.0
 51
80.403794958575475
  0
ARC
  5
553A
  8
1外形線
 10
412.00494232197161
 20
-1089.315648704943
 30
0.0
 40
10.0
 50
298.7297962433633
 51
18.16695918386344
  0
LINE
  5
5540
  8
1外形線
 10
425.02872172702519
 20
-1130.8462834631309
 30
0.0
 11
425.0287217270253
 21
-1119.1223967552289
 31
0.0
  0
ARC
  5
5545
  8
1外形線
 10
514.54131190531939
 20
-1063.666522871833
 30
0.0
 40
5.0
 50
134.0537874256259
 51
161.83304081617791
  0
ARC
  5
5546
  8
1外形線
 10
516.15367822257792
 20
-1065.1675695415649
 30
0.0
 40
5.0
 50
134.13808953000921
 51
161.83304081613591
  0
ARC
  5
5556
  8
1外形線
 10
408.85064160871849
 20
-1063.666522871833
 30
0.0
 40
5.0
 50
18.166959183822001
 51
45.946212574374059
  0
ARC
  5
5557
  8
1外形線
 10
407.23827529146013
 20
-1065.1675695415649
 30
0.0
 40
5.0
 50
18.166959183863959
 51
45.861910470050958
  0
LINE
  5
5569
  8
1外形線
 10
208.87751719607149
 20
-960.24628346313136
 30
0.0
 11
272.26143047077318
 21
-959.02925015448784
 31
0.0
  0
ARC
  5
556A
  8
1外形線
 10
191.25601769338411
 20
-985.58794432484365
 30
0.0
 40
25.0
 50
91.095895137404199
 51
170.00000000000779
  0
LINE
  5
556B
  8
1外形線
 10
166.6358238680788
 20
-981.24673988317136
 30
0.0
 11
161.91596659363131
 21
-1008.014380634929
 31
0.0
  0
LINE
  5
556C
  8
1外形線
 10
208.87751719607149
 20
-962.04628346313314
 30
0.0
 11
208.87751719607149
 21
-960.24628346313136
 31
0.0
  0
LINE
  5
556D
  8
1外形線
 10
208.87751719607149
 20
-960.24628346313136
 30
0.0
 11
190.7778723887424
 21
-960.59251720171551
 31
0.0
  0
ARC
  5
556E
  8
1外形線
 10
290.2747162991401
 20
-947.99915863002991
 30
0.0
 40
12.0
 50
93.000000000005414
 51
171.37483794969131
  0
LINE
  5
556F
  8
1外形線
 10
292.87751719607149
 20
-935.84628346313139
 30
0.0
 11
289.64668482422911
 21
-936.0156042129737
 31
0.0
  0
ARC
  5
5570
  8
1外形線
 10
272.16544325877481
 20
-954.03017159387934
 30
0.0
 40
5.0
 50
271.09999999999877
 51
351.3748379496912
  0
LINE
  5
5571
  8
1外形線
 10
278.44006442726283
 20
-946.00414863743345
 30
0.0
 11
277.10889633710588
 21
-954.78001935327927
 31
0.0
  0
ARC
  5
5572
  8
1外形線
 10
461.69597675701891
 20
-1009.046283463129
 30
0.0
 40
48.13460766384263
 50
90.0
 51
180.0
  0
ARC
  5
5573
  8
1外形線
 10
461.69597675701891
 20
-1009.046283463129
 30
0.0
 40
48.13460766384263
 50
0.0
 51
90.0
  0
LINE
  5
581B
  8
1外形線
 62
     2
 10
-6.9500406528075009
 20
-1143.280019166745
 30
0.0
 11
-6.9500406528075009
 21
-926.22919410861823
 31
0.0
  0
LINE
  5
581C
  8
1外形線
 62
     2
 10
461.69597675701891
 20
-1145.0572779644151
 30
0.0
 11
461.69597675701891
 21
-919.51879820608565
 31
0.0
  0
LINE
  5
59CF
  8
1外形線
 10
-6.9500406528056544
 20
-1339.92232668367
 30
0.0
 11
-80.150040652808229
 21
-1339.92232668367
 31
0.0
  0
LINE
  5
59ED
  8
1外形線
 10
-71.649736171608765
 20
-1325.736301035156
 30
0.0
 11
-55.750040652807478
 21
-1323.324555465613
 31
0.0
  0
LINE
  5
5A11
  8
1外形線
 10
-6.9500406528075009
 20
-1255.9223266836641
 30
0.0
 11
-55.750040652808593
 21
-1255.9223266836641
 31
0.0
  0
LINE
  5
5A44
  8
1外形線
 62
     2
 10
-6.9500406528075009
 20
-1355.2363104682991
 30
0.0
 11
-6.9500406528075009
 21
-1192.451365811457
 31
0.0
  0
LINE
  5
5FE0
  8
1外形線
 10
-80.150040652808229
 20
-1339.92232668367
 30
0.0
 11
-80.150040652808229
 21
-1335.62320719183
 31
0.0
  0
ARC
  5
5FE1
  8
1外形線
 10
-70.150040652808229
 20
-1335.62320719183
 30
0.0
 40
10.0
 50
98.625162050333543
 51
180.0
  0
LINE
  5
5FE2
  8
1外形線
 10
-6.9500406528056544
 20
-1278.92232668367
 30
0.0
 11
-18.200040652807498
 21
-1278.92232668367
 31
0.0
  0
LINE
  5
5FE3
  8
1外形線
 10
-44.200040652807502
 20
-1339.92232668367
 30
0.0
 11
-44.200040652807502
 21
-1304.92232668367
 31
0.0
  0
ARC
  5
5FE4
  8
1外形線
 10
-18.200040652807498
 20
-1304.92232668367
 30
0.0
 40
26.0
 50
90.0
 51
180.0
  0
LINE
  5
5FE5
  8
1外形線
 10
-55.750040652807478
 20
-1323.324555465613
 30
0.0
 11
-55.750040652807478
 21
-1230.9223266836609
 31
0.0
  0
LINE
  5
5FE7
  8
1外形線
 10
-6.9500406528074894
 20
-1205.9223266836609
 30
0.0
 11
-30.750040652807481
 21
-1205.9223266836609
 31
0.0
  0
ARC
  5
5FE8
  8
1外形線
 10
-30.750040652807481
 20
-1230.9223266836609
 30
0.0
 40
25.0
 50
90.0
 51
180.0
  0
ARC
  5
5FE9
  8
1外形線
 10
16.84995934719247
 20
-1230.9223266836609
 30
0.0
 40
25.0
 50
0.000000000000007
 51
90.0
  0
LINE
  5
5FEA
  8
1外形線
 10
-6.9500406528075009
 20
-1255.9223266836641
 30
0.0
 11
41.84995934719359
 21
-1255.9223266836641
 31
0.0
  0
LINE
  5
5FEB
  8
1外形線
 10
-6.9500406528093492
 20
-1339.92232668367
 30
0.0
 11
66.249959347193226
 21
-1339.92232668367
 31
0.0
  0
LINE
  5
5FEC
  8
1外形線
 10
41.849959347192481
 20
-1323.324555465613
 30
0.0
 11
41.849959347192481
 21
-1230.9223266836609
 31
0.0
  0
LINE
  5
5FED
  8
1外形線
 10
57.749654865993762
 20
-1325.736301035156
 30
0.0
 11
41.849959347192481
 21
-1323.324555465613
 31
0.0
  0
ARC
  5
5FEE
  8
1外形線
 10
56.249959347193219
 20
-1335.62320719183
 30
0.0
 40
10.0
 50
0.000000000000007
 51
81.374837949666457
  0
LINE
  5
5FEF
  8
1外形線
 10
66.249959347193226
 20
-1339.92232668367
 30
0.0
 11
66.249959347193226
 21
-1335.62320719183
 31
0.0
  0
ARC
  5
5FF0
  8
1外形線
 10
4.2999593471924982
 20
-1304.92232668367
 30
0.0
 40
26.0
 50
0.000000000000007
 51
90.0
  0
LINE
  5
5FF1
  8
1外形線
 10
30.299959347192491
 20
-1339.92232668367
 30
0.0
 11
30.299959347192491
 21
-1304.92232668367
 31
0.0
  0
LINE
  5
5FF2
  8
1外形線
 10
-6.9500406528093492
 20
-1278.92232668367
 30
0.0
 11
4.2999593471924982
 21
-1278.92232668367
 31
0.0
  0
LINE
  5
5FF3
  8
1外形線
 10
-6.9500406528075143
 20
-1205.9223266836609
 30
0.0
 11
16.84995934719247
 21
-1205.9223266836609
 31
0.0
  0
LINE
  5
5FF5
  8
1外形線
 10
-6.9500406528075009
 20
-810.49214015543157
 30
0.0
 11
-55.750040652808593
 21
-810.49214015543157
 31
0.0
  0
LINE
  5
5FF6
  8
1外形線
 10
-6.9500406528056544
 20
-726.4921401554252
 30
0.0
 11
-80.150040652808229
 21
-726.4921401554252
 31
0.0
  0
ARC
  5
5FF7
  8
1外形線
 10
-30.750040652807481
 20
-835.49214015543384
 30
0.0
 40
25.0
 50
180.0
 51
270.0
  0
LINE
  5
5FF8
  8
1外形線
 10
-55.750040652807478
 20
-743.08991137348175
 30
0.0
 11
-55.750040652807478
 21
-835.49214015543384
 31
0.0
  0
LINE
  5
5FF9
  8
1外形線
 10
-71.649736171608765
 20
-740.67816580393924
 30
0.0
 11
-55.750040652807478
 21
-743.08991137348175
 31
0.0
  0
ARC
  5
5FFA
  8
1外形線
 10
-70.150040652808229
 20
-730.79125964726472
 30
0.0
 40
10.0
 50
180.0
 51
261.37483794966641
  0
LINE
  5
5FFB
  8
1外形線
 10
-80.150040652808229
 20
-726.4921401554252
 30
0.0
 11
-80.150040652808229
 21
-730.79125964726472
 31
0.0
  0
LINE
  5
5FFC
  8
1外形線
 10
41.849959347192481
 20
-743.08991137348175
 30
0.0
 11
41.849959347192481
 21
-835.49214015543384
 31
0.0
  0
LINE
  5
5FFD
  8
1外形線
 62
     2
 10
-6.9500406528075009
 20
-711.17815637079593
 30
0.0
 11
-6.9500406528075009
 21
-873.96310102763846
 31
0.0
  0
LINE
  5
5FFF
  8
1外形線
 10
-6.9500406528093492
 20
-726.4921401554252
 30
0.0
 11
66.249959347193226
 21
-726.4921401554252
 31
0.0
  0
LINE
  5
6000
  8
1外形線
 10
-6.9500406528075009
 20
-810.49214015543157
 30
0.0
 11
41.84995934719359
 21
-810.49214015543157
 31
0.0
  0
LINE
  5
6005
  8
1外形線
 10
57.749654865993762
 20
-740.67816580393924
 30
0.0
 11
41.849959347192481
 21
-743.08991137348175
 31
0.0
  0
ARC
  5
6007
  8
1外形線
 10
56.249959347193219
 20
-730.79125964726472
 30
0.0
 40
10.0
 50
278.62516205033347
 51
0.0
  0
LINE
  5
6008
  8
1外形線
 10
66.249959347193226
 20
-726.4921401554252
 30
0.0
 11
66.249959347193226
 21
-730.79125964726472
 31
0.0
  0
LINE
  5
6009
  8
1外形線
 10
-6.9500406528075009
 20
-860.49214015543384
 30
0.0
 11
16.849959347192481
 21
-860.49214015543384
 31
0.0
  0
LINE
  5
600A
  8
1外形線
 10
-6.9500406528075009
 20
-860.49214015543384
 30
0.0
 11
-30.750040652807481
 21
-860.49214015543384
 31
0.0
  0
ARC
  5
600B
  8
1外形線
 10
16.849959347192481
 20
-835.49214015543384
 30
0.0
 40
25.0
 50
270.0
 51
0.0
  0
LINE
  5
600C
  8
1外形線
 10
-55.750040652807478
 20
-743.08991137348175
 30
0.0
 11
41.849959347192481
 21
-743.08991137348175
 31
0.0
  0
LINE
  5
601A
  8
1外形線
 10
231.87751719607351
 20
-1130.8462834631321
 30
0.0
 11
231.87751719607331
 21
-1107.3190160372981
 31
0.0
  0
ARC
  5
601B
  8
1外形線
 10
216.87751719607331
 20
-1107.3190160372981
 30
0.0
 40
15.0
 50
0.0000000000006107
 51
35.570512045978717
  0
ENDSEC
  0
EOF
