  0
SECTION
  2
HEADER
  9
$ACADVER
  1
AC1015
  9
$ACADMAINTVER
 70
    20
  9
$DWGCODEPAGE
  3
ANSI_932
  9
$INSBASE
 10
0.0
 20
0.0
 30
0.0
  9
$EXTMIN
 10
43.22528529756708
 20
43.56663879534107
 30
0.0
  9
$EXTMAX
 10
2248.225285297567
 20
707.8866356249884
 30
0.0
  9
$LIMMIN
 10
0.0
 20
0.0
  9
$LIMMAX
 10
420.0
 20
297.0
  9
$ORTHOMODE
 70
     0
  9
$REGENMODE
 70
     1
  9
$FILLMODE
 70
     1
  9
$QTEXTMODE
 70
     0
  9
$MIRRTEXT
 70
     1
  9
$LTSCALE
 40
1.0
  9
$ATTMODE
 70
     1
  9
$TEXTSIZE
 40
2.5
  9
$TRACEWID
 40
1.0
  9
$TEXTSTYLE
  7
STANDARD
  9
$CLAYER
  8
2寸法線
  9
$CELTYPE
  6
ByLayer
  9
$CECOLOR
 62
   256
  9
$CELTSCALE
 40
1.0
  9
$DISPSILH
 70
     0
  9
$DIMSCALE
 40
1.0
  9
$DIMASZ
 40
2.5
  9
$DIMEXO
 40
0.625
  9
$DIMDLI
 40
3.75
  9
$DIMRND
 40
0.0
  9
$DIMDLE
 40
0.0
  9
$DIMEXE
 40
1.25
  9
$DIMTP
 40
0.0
  9
$DIMTM
 40
0.0
  9
$DIMTXT
 40
2.5
  9
$DIMCEN
 40
2.5
  9
$DIMTSZ
 40
0.0
  9
$DIMTOL
 70
     0
  9
$DIMLIM
 70
     0
  9
$DIMTIH
 70
     0
  9
$DIMTOH
 70
     0
  9
$DIMSE1
 70
     0
  9
$DIMSE2
 70
     0
  9
$DIMTAD
 70
     1
  9
$DIMZIN
 70
     8
  9
$DIMBLK
  1

  9
$DIMASO
 70
     1
  9
$DIMSHO
 70
     1
  9
$DIMPOST
  1

  9
$DIMAPOST
  1

  9
$DIMALT
 70
     0
  9
$DIMALTD
 70
     3
  9
$DIMALTF
 40
0.03937007874016
  9
$DIMLFAC
 40
1.0
  9
$DIMTOFL
 70
     1
  9
$DIMTVP
 40
0.0
  9
$DIMTIX
 70
     0
  9
$DIMSOXD
 70
     0
  9
$DIMSAH
 70
     0
  9
$DIMBLK1
  1

  9
$DIMBLK2
  1

  9
$DIMSTYLE
  2
ISO-25
  9
$DIMCLRD
 70
     0
  9
$DIMCLRE
 70
     0
  9
$DIMCLRT
 70
     0
  9
$DIMTFAC
 40
1.0
  9
$DIMGAP
 40
0.625
  9
$DIMJUST
 70
     0
  9
$DIMSD1
 70
     0
  9
$DIMSD2
 70
     0
  9
$DIMTOLJ
 70
     1
  9
$DIMTZIN
 70
     0
  9
$DIMALTZ
 70
     0
  9
$DIMALTTZ
 70
     0
  9
$DIMUPT
 70
     0
  9
$DIMDEC
 70
     4
  9
$DIMTDEC
 70
     4
  9
$DIMALTU
 70
     2
  9
$DIMALTTD
 70
     2
  9
$DIMTXSTY
  7
STANDARD
  9
$DIMAUNIT
 70
     0
  9
$DIMADEC
 70
     0
  9
$DIMALTRND
 40
0.0
  9
$DIMAZIN
 70
     0
  9
$DIMDSEP
 70
    46
  9
$DIMATFIT
 70
     3
  9
$DIMFRAC
 70
     0
  9
$DIMLDRBLK
  1

  9
$DIMLUNIT
 70
     2
  9
$DIMLWD
 70
    -2
  9
$DIMLWE
 70
    -2
  9
$DIMTMOVE
 70
     0
  9
$LUNITS
 70
     2
  9
$LUPREC
 70
     4
  9
$SKETCHINC
 40
1.0
  9
$FILLETRAD
 40
0.0
  9
$AUNITS
 70
     0
  9
$AUPREC
 70
     0
  9
$MENU
  1
.
  9
$ELEVATION
 40
0.0
  9
$PELEVATION
 40
0.0
  9
$THICKNESS
 40
0.0
  9
$LIMCHECK
 70
     0
  9
$CHAMFERA
 40
10.0
  9
$CHAMFERB
 40
10.0
  9
$CHAMFERC
 40
0.0
  9
$CHAMFERD
 40
0.0
  9
$SKPOLY
 70
     0
  9
$TDCREATE
 40
2452263.781759259
  9
$TDUCREATE
 40
2452263.406763055
  9
$TDUPDATE
 40
2459989.764710648
  9
$TDUUPDATE
 40
2459989.389710648
  9
$TDINDWG
 40
0.0917706944
  9
$TDUSRTIMER
 40
0.0917694560
  9
$USRTIMER
 70
     1
  9
$ANGBASE
 50
0.0
  9
$ANGDIR
 70
     0
  9
$PDMODE
 70
     0
  9
$PDSIZE
 40
0.0
  9
$PLINEWID
 40
0.0
  9
$SPLFRAME
 70
     0
  9
$SPLINETYPE
 70
     6
  9
$SPLINESEGS
 70
     8
  9
$HANDSEED
  5
E67
  9
$SURFTAB1
 70
     6
  9
$SURFTAB2
 70
     6
  9
$SURFTYPE
 70
     6
  9
$SURFU
 70
     6
  9
$SURFV
 70
     6
  9
$UCSBASE
  2

  9
$UCSNAME
  2

  9
$UCSORG
 10
0.0
 20
0.0
 30
0.0
  9
$UCSXDIR
 10
1.0
 20
0.0
 30
0.0
  9
$UCSYDIR
 10
0.0
 20
1.0
 30
0.0
  9
$UCSORTHOREF
  2

  9
$UCSORTHOVIEW
 70
     0
  9
$UCSORGTOP
 10
0.0
 20
0.0
 30
0.0
  9
$UCSORGBOTTOM
 10
0.0
 20
0.0
 30
0.0
  9
$UCSORGLEFT
 10
0.0
 20
0.0
 30
0.0
  9
$UCSORGRIGHT
 10
0.0
 20
0.0
 30
0.0
  9
$UCSORGFRONT
 10
0.0
 20
0.0
 30
0.0
  9
$UCSORGBACK
 10
0.0
 20
0.0
 30
0.0
  9
$PUCSBASE
  2

  9
$PUCSNAME
  2

  9
$PUCSORG
 10
0.0
 20
0.0
 30
0.0
  9
$PUCSXDIR
 10
1.0
 20
0.0
 30
0.0
  9
$PUCSYDIR
 10
0.0
 20
1.0
 30
0.0
  9
$PUCSORTHOREF
  2

  9
$PUCSORTHOVIEW
 70
     0
  9
$PUCSORGTOP
 10
0.0
 20
0.0
 30
0.0
  9
$PUCSORGBOTTOM
 10
0.0
 20
0.0
 30
0.0
  9
$PUCSORGLEFT
 10
0.0
 20
0.0
 30
0.0
  9
$PUCSORGRIGHT
 10
0.0
 20
0.0
 30
0.0
  9
$PUCSORGFRONT
 10
0.0
 20
0.0
 30
0.0
  9
$PUCSORGBACK
 10
0.0
 20
0.0
 30
0.0
  9
$USERI1
 70
     0
  9
$USERI2
 70
     0
  9
$USERI3
 70
     0
  9
$USERI4
 70
     0
  9
$USERI5
 70
     0
  9
$USERR1
 40
0.0
  9
$USERR2
 40
0.0
  9
$USERR3
 40
0.0
  9
$USERR4
 40
0.0
  9
$USERR5
 40
0.0
  9
$WORLDVIEW
 70
     1
  9
$SHADEDGE
 70
     3
  9
$SHADEDIF
 70
    70
  9
$TILEMODE
 70
     1
  9
$MAXACTVP
 70
    64
  9
$PINSBASE
 10
0.0
 20
0.0
 30
0.0
  9
$PLIMCHECK
 70
     0
  9
$PEXTMIN
 10
1.000000000000000E+20
 20
1.000000000000000E+20
 30
1.000000000000000E+20
  9
$PEXTMAX
 10
-1.000000000000000E+20
 20
-1.000000000000000E+20
 30
-1.000000000000000E+20
  9
$PLIMMIN
 10
0.0
 20
0.0
  9
$PLIMMAX
 10
420.0
 20
297.0
  9
$UNITMODE
 70
     0
  9
$VISRETAIN
 70
     1
  9
$PLINEGEN
 70
     0
  9
$PSLTSCALE
 70
     1
  9
$TREEDEPTH
 70
  3020
  9
$CMLSTYLE
  2
Standard
  9
$CMLJUST
 70
     0
  9
$CMLSCALE
 40
1.0
  9
$PROXYGRAPHICS
 70
     1
  9
$MEASUREMENT
 70
     0
  9
$CELWEIGHT
370
    -1
  9
$ENDCAPS
280
     0
  9
$JOINSTYLE
280
     0
  9
$LWDISPLAY
290
     0
  9
$INSUNITS
 70
     0
  9
$HYPERLINKBASE
  1

  9
$STYLESHEET
  1

  9
$XEDIT
290
     1
  9
$CEPSNTYPE
380
     0
  9
$PSTYLEMODE
290
     1
  9
$FINGERPRINTGUID
  2
{EA06FDBC-803A-4741-A3B3-DE79639C706D}
  9
$VERSIONGUID
  2
{B4F0C0B1-BBDB-E645-A5C7-E70F1DF6B970}
  9
$EXTNAMES
290
     1
  9
$PSVPSCALE
 40
0.0
  9
$OLESTARTUP
290
     0
  0
ENDSEC
  0
SECTION
  2
CLASSES
  0
CLASS
  1
ACDBDICTIONARYWDFLT
  2
AcDbDictionaryWithDefault
  3
ObjectDBX Classes
 90
        0
280
     0
281
     0
  0
CLASS
  1
ACDBPLACEHOLDER
  2
AcDbPlaceHolder
  3
ObjectDBX Classes
 90
        0
280
     0
281
     0
  0
CLASS
  1
LAYOUT
  2
AcDbLayout
  3
ObjectDBX Classes
 90
        0
280
     0
281
     0
  0
CLASS
  1
DICTIONARYVAR
  2
AcDbDictionaryVar
  3
ObjectDBX Classes
 90
        0
280
     0
281
     0
  0
CLASS
  1
MATERIAL
  2
AcDbMaterial
  3
ObjectDBX Classes
 90
     1153
280
     0
281
     0
  0
CLASS
  1
VISUALSTYLE
  2
AcDbVisualStyle
  3
ObjectDBX Classes
 90
     4095
280
     0
281
     0
  0
CLASS
  1
TABLESTYLE
  2
AcDbTableStyle
  3
ObjectDBX Classes
 90
     4095
280
     0
281
     0
  0
CLASS
  1
SCALE
  2
AcDbScale
  3
ObjectDBX Classes
 90
     1153
280
     0
281
     0
  0
CLASS
  1
MLEADERSTYLE
  2
AcDbMLeaderStyle
  3
ACDB_MLEADERSTYLE_CLASS
 90
     4095
280
     0
281
     0
  0
CLASS
  1
ACDBSECTIONVIEWSTYLE
  2
AcDbSectionViewStyle
  3
ObjectDBX Classes
 90
     1025
280
     0
281
     0
  0
CLASS
  1
ACDBDETAILVIEWSTYLE
  2
AcDbDetailViewStyle
  3
ObjectDBX Classes
 90
     1025
280
     0
281
     0
  0
CLASS
  1
CELLSTYLEMAP
  2
AcDbCellStyleMap
  3
ObjectDBX Classes
 90
     1152
280
     0
281
     0
  0
CLASS
  1
SORTENTSTABLE
  2
AcDbSortentsTable
  3
ObjectDBX Classes
 90
    32768
280
     0
281
     0
  0
ENDSEC
  0
SECTION
  2
TABLES
  0
TABLE
  2
VPORT
  5
26C
330
0
100
AcDbSymbolTable
 70
     1
  0
VPORT
  5
69A
330
26C
100
AcDbSymbolTableRecord
100
AcDbViewportTableRecord
  2
*Active
 70
     0
 10
0.0
 20
0.0
 11
1.0
 21
1.0
 12
1123.93504681777
 22
381.0129887331082
 13
0.0
 23
0.0
 14
10.0
 24
10.0
 15
10.0
 25
10.0
 16
0.0
 26
0.0
 36
1.0
 17
0.0
 27
0.0
 37
0.0
 40
1031.189349721582
 41
2.209439528023598
 42
50.0
 43
0.0
 44
0.0
 50
0.0
 51
0.0
 71
     0
 72
   100
 73
     1
 74
     3
 75
     0
 76
     0
 77
     0
 78
     0
281
     0
 65
     1
110
0.0
120
0.0
130
0.0
111
1.0
121
0.0
131
0.0
112
0.0
122
1.0
132
0.0
 79
     0
146
0.0
1001
ACAD_NAV_VCDISPLAY
1070
     3
  0
ENDTAB
  0
TABLE
  2
LTYPE
  5
269
330
0
100
AcDbSymbolTable
 70
     3
  0
LTYPE
  5
277
330
269
100
AcDbSymbolTableRecord
100
AcDbLinetypeTableRecord
  2
ByBlock
 70
     0
  3

 72
    65
 73
     0
 40
0.0
  0
LTYPE
  5
278
330
269
100
AcDbSymbolTableRecord
100
AcDbLinetypeTableRecord
  2
ByLayer
 70
     0
  3

 72
    65
 73
     0
 40
0.0
  0
LTYPE
  5
279
330
269
100
AcDbSymbolTableRecord
100
AcDbLinetypeTableRecord
  2
CONTINUOUS
 70
     0
  3
Solid line
 72
    65
 73
     0
 40
0.0
  0
LTYPE
  5
A9C
330
269
100
AcDbSymbolTableRecord
100
AcDbLinetypeTableRecord
  2
CENTER
 70
     0
  3
Center ____ _ ____ _ ____ _ ____ _ ____ _ ____
 72
    65
 73
     4
 40
50.8
 49
31.75
 74
     0
 49
-6.349999999999998
 74
     0
 49
6.349999999999998
 74
     0
 49
-6.349999999999998
 74
     0
  0
LTYPE
  5
A9D
330
269
100
AcDbSymbolTableRecord
100
AcDbLinetypeTableRecord
  2
PHANTOM
 70
     0
  3
Phantom ______  __  __  ______  __  __  ______
 72
    65
 73
     6
 40
63.5
 49
31.75
 74
     0
 49
-6.349999999999998
 74
     0
 49
6.349999999999998
 74
     0
 49
-6.349999999999998
 74
     0
 49
6.349999999999998
 74
     0
 49
-6.349999999999998
 74
     0
  0
ENDTAB
  0
TABLE
  2
LAYER
  5
266
102
{ACAD_XDICTIONARY
360
6F3
102
}
330
0
100
AcDbSymbolTable
 70
     6
  0
LAYER
  5
274
102
{ACAD_XDICTIONARY
360
D5A
102
}
330
266
100
AcDbSymbolTableRecord
100
AcDbLayerTableRecord
  2
0
 70
     0
 62
     7
  6
CONTINUOUS
370
    -3
390
273
  0
LAYER
  5
287
102
{ACAD_XDICTIONARY
360
D5C
102
}
330
266
100
AcDbSymbolTableRecord
100
AcDbLayerTableRecord
  2
1外形線
 70
     0
 62
     3
  6
CONTINUOUS
370
    -3
390
273
  0
LAYER
  5
2AF
102
{ACAD_XDICTIONARY
360
D5E
102
}
330
266
100
AcDbSymbolTableRecord
100
AcDbLayerTableRecord
  2
2寸法線
 70
     0
 62
     2
  6
CONTINUOUS
370
    -3
390
273
  0
LAYER
  5
2B0
330
266
100
AcDbSymbolTableRecord
100
AcDbLayerTableRecord
  2
DEFPOINTS
 70
     0
 62
     7
  6
CONTINUOUS
290
     0
370
    -3
390
273
  0
LAYER
  5
6EE
102
{ACAD_XDICTIONARY
360
6EF
102
}
330
266
100
AcDbSymbolTableRecord
100
AcDbLayerTableRecord
  2
3補助線
 70
     0
 62
     4
  6
CONTINUOUS
370
    -3
390
273
  0
LAYER
  5
79F
102
{ACAD_XDICTIONARY
360
7A0
102
}
330
266
100
AcDbSymbolTableRecord
100
AcDbLayerTableRecord
  2
6図枠
 70
     0
 62
     7
  6
CONTINUOUS
370
    -3
390
273
  0
ENDTAB
  0
TABLE
  2
STYLE
  5
267
330
0
100
AcDbSymbolTable
 70
     2
  0
STYLE
  5
275
330
267
100
AcDbSymbolTableRecord
100
AcDbTextStyleTableRecord
  2
STANDARD
 70
     0
 40
0.0
 41
1.0
 50
0.0
 71
     0
 42
2.5
  3
txt
  4

  0
STYLE
  5
289
330
267
100
AcDbSymbolTableRecord
100
AcDbTextStyleTableRecord
  2
KANJI
 70
     0
 40
0.0
 41
1.0
 50
0.0
 71
     0
 42
2.5
  3
simplex.shx
  4
extfont.shx
  0
ENDTAB
  0
TABLE
  2
VIEW
  5
26A
330
0
100
AcDbSymbolTable
 70
     0
  0
ENDTAB
  0
TABLE
  2
UCS
  5
26B
330
0
100
AcDbSymbolTable
 70
     0
  0
ENDTAB
  0
TABLE
  2
APPID
  5
26D
330
0
100
AcDbSymbolTable
 70
     6
  0
APPID
  5
276
330
26D
100
AcDbSymbolTableRecord
100
AcDbRegAppTableRecord
  2
ACAD
 70
     0
  0
APPID
  5
6F0
330
26D
100
AcDbSymbolTableRecord
100
AcDbRegAppTableRecord
  2
ACAD_PSEXT
 70
     0
  0
APPID
  5
6F1
330
26D
100
AcDbSymbolTableRecord
100
AcDbRegAppTableRecord
  2
ACAD_NAV_VCDISPLAY
 70
     0
  0
APPID
  5
775
330
26D
100
AcDbSymbolTableRecord
100
AcDbRegAppTableRecord
  2
ACAD_EXEMPT_FROM_CAD_STANDARDS
 70
     0
  0
APPID
  5
8DD
330
26D
100
AcDbSymbolTableRecord
100
AcDbRegAppTableRecord
  2
ACAD_MLEADERVER
 70
     0
  0
APPID
  5
8E8
330
26D
100
AcDbSymbolTableRecord
100
AcDbRegAppTableRecord
  2
ACAD_OBJECT_CHANGE_GUID
 70
     0
  0
ENDTAB
  0
TABLE
  2
DIMSTYLE
  5
26E
330
0
100
AcDbSymbolTable
 70
     3
100
AcDbDimStyleTable
 71
     1
340
28A
  0
DIMSTYLE
105
28A
330
26E
100
AcDbSymbolTableRecord
100
AcDbDimStyleTableRecord
  2
ISO-25
 70
     0
 41
2.5
 42
0.625
 43
3.75
 44
1.25
 73
     0
 74
     0
 77
     1
 78
     8
140
2.5
141
2.5
143
0.03937007874016
147
0.625
171
     3
172
     1
274
     3
279
     2
284
     8
285
     8
286
     8
340
275
  0
DIMSTYLE
105
28B
330
26E
100
AcDbSymbolTableRecord
100
AcDbDimStyleTableRecord
  2
STANDARD
 70
     0
274
     3
279
     2
284
     8
285
     8
286
     8
340
275
  0
DIMSTYLE
105
71C
330
26E
100
AcDbSymbolTableRecord
100
AcDbDimStyleTableRecord
  2
M
 70
     0
 40
0.0
 41
2.0
 42
1.0
 43
0.0
 44
1.0
 73
     0
 74
     0
 77
     1
 78
     8
140
2.5
141
0.0
147
0.5
172
     1
173
     1
284
     8
340
289
341
293
343
293
344
293
  0
ENDTAB
  0
TABLE
  2
BLOCK_RECORD
  5
265
330
0
100
AcDbSymbolTable
 70
    19
  0
BLOCK_RECORD
  5
282
330
265
100
AcDbSymbolTableRecord
100
AcDbBlockTableRecord
  2
*Model_Space
340
285
  0
BLOCK_RECORD
  5
27E
330
265
100
AcDbSymbolTableRecord
100
AcDbBlockTableRecord
  2
*Paper_Space
340
281
  0
BLOCK_RECORD
  5
293
330
265
100
AcDbSymbolTableRecord
100
AcDbBlockTableRecord
  2
2
340
0
102
{BLKREFS
331
C06
331
C07
331
C0F
331
C10
331
C18
331
C19
331
C21
331
C22
331
A71
331
A72
331
A7D
331
A7E
331
A89
331
A8A
331
A95
331
A96
331
715
331
716
331
76B
331
76C
102
}
  0
BLOCK_RECORD
  5
295
330
265
100
AcDbSymbolTableRecord
100
AcDbBlockTableRecord
  2
*U1
340
0
102
{BLKREFS
331
2C
102
}
  0
BLOCK_RECORD
  5
710
330
265
100
AcDbSymbolTableRecord
100
AcDbBlockTableRecord
  2
*D2
340
0
  0
BLOCK_RECORD
  5
740
330
265
100
AcDbSymbolTableRecord
100
AcDbBlockTableRecord
  2
*D3
340
0
  0
BLOCK_RECORD
  5
A53
330
265
100
AcDbSymbolTableRecord
100
AcDbBlockTableRecord
  2
*D4
340
0
  0
BLOCK_RECORD
  5
A60
330
265
100
AcDbSymbolTableRecord
100
AcDbBlockTableRecord
  2
*D5
340
0
  0
BLOCK_RECORD
  5
A6C
330
265
100
AcDbSymbolTableRecord
100
AcDbBlockTableRecord
  2
*D6
340
0
  0
BLOCK_RECORD
  5
A78
330
265
100
AcDbSymbolTableRecord
100
AcDbBlockTableRecord
  2
*D7
340
0
  0
BLOCK_RECORD
  5
A84
330
265
100
AcDbSymbolTableRecord
100
AcDbBlockTableRecord
  2
*D8
340
0
  0
BLOCK_RECORD
  5
A90
330
265
100
AcDbSymbolTableRecord
100
AcDbBlockTableRecord
  2
*D9
340
0
  0
BLOCK_RECORD
  5
BAF
330
265
100
AcDbSymbolTableRecord
100
AcDbBlockTableRecord
  2
*D10
340
0
  0
BLOCK_RECORD
  5
BBB
330
265
100
AcDbSymbolTableRecord
100
AcDbBlockTableRecord
  2
*D11
340
0
  0
BLOCK_RECORD
  5
BC7
330
265
100
AcDbSymbolTableRecord
100
AcDbBlockTableRecord
  2
*D12
340
0
  0
BLOCK_RECORD
  5
BD3
330
265
100
AcDbSymbolTableRecord
100
AcDbBlockTableRecord
  2
*D13
340
0
  0
BLOCK_RECORD
  5
DB3
330
265
100
AcDbSymbolTableRecord
100
AcDbBlockTableRecord
  2
*D14
340
0
  0
BLOCK_RECORD
  5
DD2
330
265
100
AcDbSymbolTableRecord
100
AcDbBlockTableRecord
  2
*D15
340
0
  0
BLOCK_RECORD
  5
DDF
330
265
100
AcDbSymbolTableRecord
100
AcDbBlockTableRecord
  2
*D16
340
0
  0
BLOCK_RECORD
  5
DFE
330
265
100
AcDbSymbolTableRecord
100
AcDbBlockTableRecord
  2
*D17
340
0
  0
BLOCK_RECORD
  5
E0B
330
265
100
AcDbSymbolTableRecord
100
AcDbBlockTableRecord
  2
*D18
340
0
  0
ENDTAB
  0
ENDSEC
  0
SECTION
  2
BLOCKS
  0
BLOCK
  5
283
330
282
100
AcDbEntity
  8
0
100
AcDbBlockBegin
  2
*Model_Space
 70
     0
 10
0.0
 20
0.0
 30
0.0
  3
*Model_Space
  1

  0
ENDBLK
  5
284
330
282
100
AcDbEntity
  8
0
100
AcDbBlockEnd
  0
BLOCK
  5
27F
330
27E
100
AcDbEntity
 67
     1
  8
0
100
AcDbBlockBegin
  2
*Paper_Space
 70
     0
 10
0.0
 20
0.0
 30
0.0
  3
*Paper_Space
  1

  0
ENDBLK
  5
280
330
27E
100
AcDbEntity
 67
     1
  8
0
100
AcDbBlockEnd
  0
BLOCK
  5
294
330
293
100
AcDbEntity
  8
0
100
AcDbBlockBegin
  2
2
 70
     0
 10
0.0
 20
0.0
 30
0.0
  3
2
  1

  0
INSERT
  5
2C
330
293
100
AcDbEntity
  8
0
  6
Continuous
100
AcDbBlockReference
  2
*U1
 10
0.0
 20
0.0
 30
0.0
1001
ACAD
1002
{
1000
R14_HATCH_DATA
1000
2C
1011
1.0
1021
0.0
1031
0.0
1011
0.0
1021
1.0
1031
0.0
1011
0.0
1021
0.0
1031
1.0
1040
0.0
1010
0.0
1020
0.0
1030
1.0
1000
SOLID
1070
     1
1070
     1
1071
        1
1071
        7
1070
     0
1070
     1
1071
        3
1040
0.0000000000000284
1040
0.0
1040
-0.899999999998343
1040
0.2411542731875897
1040
-0.8999999999983572
1040
-0.2411542731875613
1071
        3
1005
2F
1005
2D
1005
30
1070
     0
1070
     1
1040
0.0028941747346077
1071
        1
1040
-0.5303136156475148
1040
-0.0796654556697263
1040
0.0
1002
}
  0
LINE
  5
2D
330
293
100
AcDbEntity
  8
0
100
AcDbLine
 10
-0.8999999999983572
 20
0.2411542731879876
 30
0.0
 11
-0.8999999999983572
 21
-0.2411542731880445
 31
0.0
  0
LINE
  5
2E
330
293
100
AcDbEntity
  8
0
100
AcDbLine
 10
-0.9999999999983517
 20
0.0
 30
0.0
 11
0.0
 21
0.0
 31
0.0
  0
LINE
  5
2F
330
293
100
AcDbEntity
  8
0
100
AcDbLine
 10
-0.8999999999984423
 20
0.2411542731875897
 30
0.0
 11
0.0
 21
0.0
 31
0.0
  0
LINE
  5
30
330
293
100
AcDbEntity
  8
0
100
AcDbLine
 10
-0.8999999999984423
 20
-0.2411542731875897
 30
0.0
 11
0.0
 21
0.0
 31
0.0
  0
ENDBLK
  5
32
330
293
100
AcDbEntity
  8
0
100
AcDbBlockEnd
  0
BLOCK
  5
296
330
295
100
AcDbEntity
  8
0
100
AcDbBlockBegin
  2
*U1
 70
     1
 10
0.0
 20
0.0
 30
0.0
  3
*U1
  1

  0
SOLID
  5
260
330
295
100
AcDbEntity
  8
0
  6
Continuous
100
AcDbTrace
 10
-0.5999999999988905
 20
0.0000000000000095
 30
0.0
 11
0.0000000000000284
 21
0.0
 31
0.0
 12
-0.899999999998343
 22
0.2411542731875897
 32
0.0
 13
-0.899999999998343
 23
0.2411542731875897
 33
0.0
  0
SOLID
  5
261
330
295
100
AcDbEntity
  8
0
  6
Continuous
100
AcDbTrace
 10
-0.5999999999988905
 20
0.0000000000000095
 30
0.0
 11
-0.899999999998343
 21
0.2411542731875897
 31
0.0
 12
-0.8999999999983572
 22
-0.2411542731875613
 32
0.0
 13
-0.8999999999983572
 23
-0.2411542731875613
 33
0.0
  0
SOLID
  5
262
330
295
100
AcDbEntity
  8
0
  6
Continuous
100
AcDbTrace
 10
-0.5999999999988905
 20
0.0000000000000095
 30
0.0
 11
-0.8999999999983572
 21
-0.2411542731875613
 31
0.0
 12
0.0000000000000284
 22
0.0
 32
0.0
 13
0.0000000000000284
 23
0.0
 33
0.0
  0
ENDBLK
  5
264
330
295
100
AcDbEntity
  8
0
100
AcDbBlockEnd
  0
BLOCK
  5
711
330
710
100
AcDbEntity
  8
0
100
AcDbBlockBegin
  2
*D2
 70
     1
 10
0.0
 20
0.0
 30
0.0
  3
*D2
  1

  0
LINE
  5
712
330
710
100
AcDbEntity
  8
2寸法線
 62
     0
370
    -2
100
AcDbLine
 10
184.6582369231176
 20
127.5673654119923
 30
0.0
 11
184.6582369231176
 21
138.9298122778696
 31
0.0
  0
LINE
  5
713
330
710
100
AcDbEntity
  8
2寸法線
 62
     0
370
    -2
100
AcDbLine
 10
256.5567395885387
 20
127.5673654119923
 30
0.0
 11
256.5567395885387
 21
138.9298122778696
 31
0.0
  0
LINE
  5
714
330
710
100
AcDbEntity
  8
2寸法線
 62
     0
370
    -2
100
AcDbLine
 10
186.4582369231178
 20
137.9298122778696
 30
0.0
 11
254.7567395885387
 21
137.9298122778696
 31
0.0
  0
INSERT
  5
715
330
710
100
AcDbEntity
  8
2寸法線
 62
     0
370
    -2
100
AcDbBlockReference
  2
2
 10
184.6582369231176
 20
137.9298122778696
 30
0.0
 41
1.8
 42
1.8
 43
1.8
 50
180.0
  0
INSERT
  5
716
330
710
100
AcDbEntity
  8
2寸法線
 62
     0
370
    -2
100
AcDbBlockReference
  2
2
 10
256.5567395885387
 20
137.9298122778696
 30
0.0
 41
1.8
 42
1.8
 43
1.8
  0
MTEXT
  5
717
330
710
100
AcDbEntity
  8
2寸法線
 62
     0
100
AcDbMText
 10
220.6074882558282
 20
139.6798122778696
 30
0.0
 40
2.5
 41
0.0
 71
     5
 72
     1
  1
\A1;2000
  7
KANJI
 73
     1
 44
1.0
1001
ACAD
1000
MTEXTBEGIN
1070
    73
1070
     1
1070
    44
1040
1.0
1070
    74
1070
     0
1000
MTEXTEND
  0
POINT
  5
718
330
710
100
AcDbEntity
  8
DEFPOINTS
 62
     0
100
AcDbPoint
 10
184.6582369231176
 20
126.5673654119923
 30
0.0
  0
POINT
  5
719
330
710
100
AcDbEntity
  8
DEFPOINTS
 62
     0
100
AcDbPoint
 10
256.5567395885387
 20
126.5673654119923
 30
0.0
  0
POINT
  5
71A
330
710
100
AcDbEntity
  8
DEFPOINTS
 62
     0
100
AcDbPoint
 10
256.5567395885387
 20
137.9298122778696
 30
0.0
  0
ENDBLK
  5
71B
330
710
100
AcDbEntity
  8
0
100
AcDbBlockEnd
  0
BLOCK
  5
741
330
740
100
AcDbEntity
  8
0
100
AcDbBlockBegin
  2
*D3
 70
     1
 10
0.0
 20
0.0
 30
0.0
  3
*D3
  1

  0
LINE
  5
768
330
740
100
AcDbEntity
  8
2寸法線
 62
     0
370
    -2
100
AcDbLine
 10
-163.5677634278982
 20
288.1971881266956
 30
0.0
 11
-163.5677634278982
 21
299.5596349925728
 31
0.0
  0
LINE
  5
769
330
740
100
AcDbEntity
  8
2寸法線
 62
     0
370
    -2
100
AcDbLine
 10
-91.66926076247728
 20
288.1971881266956
 30
0.0
 11
-91.66926076247728
 21
299.5596349925728
 31
0.0
  0
LINE
  5
76A
330
740
100
AcDbEntity
  8
2寸法線
 62
     0
370
    -2
100
AcDbLine
 10
-161.7677634278981
 20
298.5596349925728
 30
0.0
 11
-93.46926076247729
 21
298.5596349925728
 31
0.0
  0
INSERT
  5
76B
330
740
100
AcDbEntity
  8
2寸法線
 62
     0
370
    -2
100
AcDbBlockReference
  2
2
 10
-163.5677634278982
 20
298.5596349925728
 30
0.0
 41
1.8
 42
1.8
 43
1.8
 50
180.0
  0
INSERT
  5
76C
330
740
100
AcDbEntity
  8
2寸法線
 62
     0
370
    -2
100
AcDbBlockReference
  2
2
 10
-91.66926076247728
 20
298.5596349925728
 30
0.0
 41
1.8
 42
1.8
 43
1.8
  0
MTEXT
  5
76D
330
740
100
AcDbEntity
  8
2寸法線
 62
     0
100
AcDbMText
 10
-127.6185120951877
 20
300.3096349925728
 30
0.0
 40
2.5
 41
0.0
 71
     5
 72
     1
  1
\A1;2000
  7
KANJI
 73
     1
 44
1.0
1001
ACAD
1000
MTEXTBEGIN
1070
    73
1070
     1
1070
    44
1040
1.0
1070
    74
1070
     0
1000
MTEXTEND
  0
POINT
  5
76E
330
740
100
AcDbEntity
  8
DEFPOINTS
 62
     0
100
AcDbPoint
 10
-163.5677634278982
 20
287.1971881266956
 30
0.0
  0
POINT
  5
76F
330
740
100
AcDbEntity
  8
DEFPOINTS
 62
     0
100
AcDbPoint
 10
-91.66926076247728
 20
287.1971881266956
 30
0.0
  0
POINT
  5
770
330
740
100
AcDbEntity
  8
DEFPOINTS
 62
     0
100
AcDbPoint
 10
-91.66926076247728
 20
298.5596349925728
 30
0.0
  0
ENDBLK
  5
742
330
740
100
AcDbEntity
  8
0
100
AcDbBlockEnd
  0
BLOCK
  5
A54
330
A53
100
AcDbEntity
  8
0
100
AcDbBlockBegin
  2
*D4
 70
     1
 10
0.0
 20
0.0
 30
0.0
  3
*D4
  1

  0
LINE
  5
C39
330
A53
100
AcDbEntity
  8
2寸法線
 62
     0
370
    -2
100
AcDbLine
 10
-732.494590922108
 20
502.193307233478
 30
0.0
 11
-732.494590922108
 21
484.3230427173002
 31
0.0
  0
LINE
  5
C3A
330
A53
100
AcDbEntity
  8
2寸法線
 62
     0
370
    -2
100
AcDbLine
 10
-647.4945909228384
 20
502.1933072335029
 30
0.0
 11
-647.4945909228384
 21
484.3230427173002
 31
0.0
  0
LINE
  5
C3B
330
A53
100
AcDbEntity
  8
2寸法線
 62
     0
370
    -2
100
AcDbLine
 10
-729.994590922108
 20
485.5730427173003
 30
0.0
 11
-649.9945909228385
 21
485.5730427173003
 31
0.0
  0
SOLID
  5
C3C
330
A53
100
AcDbEntity
  8
2寸法線
 62
     0
100
AcDbTrace
 10
-729.994590922108
 20
485.9897093839669
 30
0.0
 11
-729.994590922108
 21
485.1563760506334
 31
0.0
 12
-732.494590922108
 22
485.5730427173003
 32
0.0
 13
-732.494590922108
 23
485.5730427173003
 33
0.0
  0
SOLID
  5
C3D
330
A53
100
AcDbEntity
  8
2寸法線
 62
     0
100
AcDbTrace
 10
-649.9945909228385
 20
485.9897093839669
 30
0.0
 11
-649.9945909228385
 21
485.1563760506334
 31
0.0
 12
-647.4945909228384
 22
485.5730427173003
 32
0.0
 13
-647.4945909228384
 23
485.5730427173003
 33
0.0
  0
MTEXT
  5
C3E
330
A53
100
AcDbEntity
  8
2寸法線
 62
     0
100
AcDbMText
 10
-689.9945909224733
 20
487.4480427173002
 30
0.0
 40
2.5
 41
0.0
 71
     5
 72
     1
  1
\A1;85
 73
     1
 44
1.0
1001
ACAD
1000
MTEXTBEGIN
1070
    73
1070
     1
1070
    44
1040
1.0
1070
    74
1070
     0
1000
MTEXTEND
  0
POINT
  5
C3F
330
A53
100
AcDbEntity
  8
DEFPOINTS
 62
     0
100
AcDbPoint
 10
-732.494590922108
 20
502.818307233478
 30
0.0
  0
POINT
  5
C40
330
A53
100
AcDbEntity
  8
DEFPOINTS
 62
     0
100
AcDbPoint
 10
-647.4945909228384
 20
502.8183072335028
 30
0.0
  0
POINT
  5
C41
330
A53
100
AcDbEntity
  8
DEFPOINTS
 62
     0
100
AcDbPoint
 10
-647.4945909228384
 20
485.5730427173003
 30
0.0
  0
ENDBLK
  5
A55
330
A53
100
AcDbEntity
  8
0
100
AcDbBlockEnd
  0
BLOCK
  5
A61
330
A60
100
AcDbEntity
  8
0
100
AcDbBlockBegin
  2
*D5
 70
     1
 10
0.0
 20
0.0
 30
0.0
  3
*D5
  1

  0
LINE
  5
C63
330
A60
100
AcDbEntity
  8
2寸法線
 62
     0
370
    -2
100
AcDbLine
 10
-647.8695909228382
 20
500.3183072335032
 30
0.0
 11
-622.5228360877672
 21
500.3183072335032
 31
0.0
  0
LINE
  5
C64
330
A60
100
AcDbEntity
  8
2寸法線
 62
     0
370
    -2
100
AcDbLine
 10
-665.2589972879777
 20
570.3183072335093
 30
0.0
 11
-622.5228360877672
 21
570.3183072335093
 31
0.0
  0
LINE
  5
C65
330
A60
100
AcDbEntity
  8
2寸法線
 62
     0
370
    -2
100
AcDbLine
 10
-623.7728360877674
 20
502.8183072335031
 30
0.0
 11
-623.7728360877674
 21
567.8183072335095
 31
0.0
  0
SOLID
  5
C66
330
A60
100
AcDbEntity
  8
2寸法線
 62
     0
100
AcDbTrace
 10
-624.1895027544338
 20
502.8183072335031
 30
0.0
 11
-623.3561694211007
 21
502.8183072335031
 31
0.0
 12
-623.7728360877674
 22
500.3183072335032
 32
0.0
 13
-623.7728360877674
 23
500.3183072335032
 33
0.0
  0
SOLID
  5
C67
330
A60
100
AcDbEntity
  8
2寸法線
 62
     0
100
AcDbTrace
 10
-624.1895027544338
 20
567.8183072335095
 30
0.0
 11
-623.3561694211007
 21
567.8183072335095
 31
0.0
 12
-623.7728360877674
 22
570.3183072335093
 32
0.0
 13
-623.7728360877674
 23
570.3183072335093
 33
0.0
  0
MTEXT
  5
C68
330
A60
100
AcDbEntity
  8
2寸法線
 62
     0
100
AcDbMText
 10
-625.6478360877671
 20
535.3183072335062
 30
0.0
 40
2.5
 41
0.0
 71
     5
 72
     1
  1
\A1;70
 11
0.0000000000000001
 21
1.0
 31
0.0
 73
     1
 44
1.0
1001
ACAD
1000
MTEXTBEGIN
1070
    73
1070
     1
1070
    44
1040
1.0
1070
    74
1070
     0
1000
MTEXTEND
  0
POINT
  5
C69
330
A60
100
AcDbEntity
  8
DEFPOINTS
 62
     0
100
AcDbPoint
 10
-648.4945909228382
 20
500.3183072335032
 30
0.0
  0
POINT
  5
C6A
330
A60
100
AcDbEntity
  8
DEFPOINTS
 62
     0
100
AcDbPoint
 10
-665.8839972879778
 20
570.3183072335093
 30
0.0
  0
POINT
  5
C6B
330
A60
100
AcDbEntity
  8
DEFPOINTS
 62
     0
100
AcDbPoint
 10
-623.7728360877674
 20
570.3183072335093
 30
0.0
  0
ENDBLK
  5
A62
330
A60
100
AcDbEntity
  8
0
100
AcDbBlockEnd
  0
BLOCK
  5
A6D
330
A6C
100
AcDbEntity
  8
0
100
AcDbBlockBegin
  2
*D6
 70
     1
 10
0.0
 20
0.0
 30
0.0
  3
*D6
  1

  0
LINE
  5
A6E
330
A6C
100
AcDbEntity
  8
2寸法線
 62
     0
370
    -2
100
AcDbLine
 10
53.42933245023957
 20
-79.58304110484994
 30
0.0
 11
53.42933245023957
 21
-93.44721319785968
 31
0.0
  0
LINE
  5
A6F
330
A6C
100
AcDbEntity
  8
2寸法線
 62
     0
370
    -2
100
AcDbLine
 10
136.8105535348259
 20
-79.58304110484994
 30
0.0
 11
136.8105535348259
 21
-93.44721319785968
 31
0.0
  0
LINE
  5
A70
330
A6C
100
AcDbEntity
  8
2寸法線
 62
     0
370
    -2
100
AcDbLine
 10
55.22933245023956
 20
-92.44721319785972
 30
0.0
 11
135.0105535348259
 21
-92.44721319785972
 31
0.0
  0
INSERT
  5
A71
330
A6C
100
AcDbEntity
  8
2寸法線
 62
     0
370
    -2
100
AcDbBlockReference
  2
2
 10
53.42933245023957
 20
-92.44721319785972
 30
0.0
 41
1.8
 42
1.8
 43
1.8
 50
180.0
  0
INSERT
  5
A72
330
A6C
100
AcDbEntity
  8
2寸法線
 62
     0
370
    -2
100
AcDbBlockReference
  2
2
 10
136.8105535348259
 20
-92.44721319785972
 30
0.0
 41
1.8
 42
1.8
 43
1.8
  0
MTEXT
  5
A73
330
A6C
100
AcDbEntity
  8
2寸法線
 62
     0
100
AcDbMText
 10
95.11994299253272
 20
-90.69721319785967
 30
0.0
 40
2.5
 41
0.0
 71
     5
 72
     1
  1
\A1;83.3812
  7
KANJI
 73
     1
 44
1.0
1001
ACAD
1000
MTEXTBEGIN
1070
    73
1070
     1
1070
    44
1040
1.0
1070
    74
1070
     0
1000
MTEXTEND
  0
POINT
  5
A74
330
A6C
100
AcDbEntity
  8
DEFPOINTS
 62
     0
100
AcDbPoint
 10
53.42933245023957
 20
-78.58304110484993
 30
0.0
  0
POINT
  5
A75
330
A6C
100
AcDbEntity
  8
DEFPOINTS
 62
     0
100
AcDbPoint
 10
136.8105535348259
 20
-78.58304110484993
 30
0.0
  0
POINT
  5
A76
330
A6C
100
AcDbEntity
  8
DEFPOINTS
 62
     0
100
AcDbPoint
 10
136.8105535348259
 20
-92.44721319785972
 30
0.0
  0
ENDBLK
  5
A77
330
A6C
100
AcDbEntity
  8
0
100
AcDbBlockEnd
  0
BLOCK
  5
A79
330
A78
100
AcDbEntity
  8
0
100
AcDbBlockBegin
  2
*D7
 70
     1
 10
0.0
 20
0.0
 30
0.0
  3
*D7
  1

  0
LINE
  5
A7A
330
A78
100
AcDbEntity
  8
2寸法線
 62
     0
370
    -2
100
AcDbLine
 10
52.61994299253274
 20
-113.8264412386052
 30
0.0
 11
52.61994299253274
 21
-127.2968255245362
 31
0.0
  0
LINE
  5
A7B
330
A78
100
AcDbEntity
  8
2寸法線
 62
     0
370
    -2
100
AcDbLine
 10
137.6199429925327
 20
-113.8264412386052
 30
0.0
 11
137.6199429925327
 21
-127.2968255245362
 31
0.0
  0
LINE
  5
A7C
330
A78
100
AcDbEntity
  8
2寸法線
 62
     0
370
    -2
100
AcDbLine
 10
54.41994299253273
 20
-126.2968255245362
 30
0.0
 11
135.8199429925327
 21
-126.2968255245362
 31
0.0
  0
INSERT
  5
A7D
330
A78
100
AcDbEntity
  8
2寸法線
 62
     0
370
    -2
100
AcDbBlockReference
  2
2
 10
52.61994299253274
 20
-126.2968255245362
 30
0.0
 41
1.8
 42
1.8
 43
1.8
 50
180.0
  0
INSERT
  5
A7E
330
A78
100
AcDbEntity
  8
2寸法線
 62
     0
370
    -2
100
AcDbBlockReference
  2
2
 10
137.6199429925327
 20
-126.2968255245362
 30
0.0
 41
1.8
 42
1.8
 43
1.8
  0
MTEXT
  5
A7F
330
A78
100
AcDbEntity
  8
2寸法線
 62
     0
100
AcDbMText
 10
95.11994299253272
 20
-124.5468255245362
 30
0.0
 40
2.5
 41
0.0
 71
     5
 72
     1
  1
\A1;85
  7
KANJI
 73
     1
 44
1.0
1001
ACAD
1000
MTEXTBEGIN
1070
    73
1070
     1
1070
    44
1040
1.0
1070
    74
1070
     0
1000
MTEXTEND
  0
POINT
  5
A80
330
A78
100
AcDbEntity
  8
DEFPOINTS
 62
     0
100
AcDbPoint
 10
52.61994299253274
 20
-112.8264412386052
 30
0.0
  0
POINT
  5
A81
330
A78
100
AcDbEntity
  8
DEFPOINTS
 62
     0
100
AcDbPoint
 10
137.6199429925327
 20
-112.8264412386052
 30
0.0
  0
POINT
  5
A82
330
A78
100
AcDbEntity
  8
DEFPOINTS
 62
     0
100
AcDbPoint
 10
137.6199429925327
 20
-126.2968255245362
 30
0.0
  0
ENDBLK
  5
A83
330
A78
100
AcDbEntity
  8
0
100
AcDbBlockEnd
  0
BLOCK
  5
A85
330
A84
100
AcDbEntity
  8
0
100
AcDbBlockBegin
  2
*D8
 70
     1
 10
0.0
 20
0.0
 30
0.0
  3
*D8
  1

  0
LINE
  5
A86
330
A84
100
AcDbEntity
  8
2寸法線
 62
     0
370
    -2
100
AcDbLine
 10
53.91994299253272
 20
-56.82644123860518
 30
0.0
 11
53.91994299253272
 21
-24.75442792947911
 31
0.0
  0
LINE
  5
A87
330
A84
100
AcDbEntity
  8
2寸法線
 62
     0
370
    -2
100
AcDbLine
 10
136.3199429925327
 20
-56.8264412386053
 30
0.0
 11
136.3199429925327
 21
-24.75442792947911
 31
0.0
  0
LINE
  5
A88
330
A84
100
AcDbEntity
  8
2寸法線
 62
     0
370
    -2
100
AcDbLine
 10
55.71994299253272
 20
-25.75442792947911
 30
0.0
 11
134.5199429925327
 21
-25.75442792947911
 31
0.0
  0
INSERT
  5
A89
330
A84
100
AcDbEntity
  8
2寸法線
 62
     0
370
    -2
100
AcDbBlockReference
  2
2
 10
53.91994299253272
 20
-25.75442792947911
 30
0.0
 41
1.8
 42
1.8
 43
1.8
 50
180.0
  0
INSERT
  5
A8A
330
A84
100
AcDbEntity
  8
2寸法線
 62
     0
370
    -2
100
AcDbBlockReference
  2
2
 10
136.3199429925327
 20
-25.75442792947911
 30
0.0
 41
1.8
 42
1.8
 43
1.8
  0
MTEXT
  5
A8B
330
A84
100
AcDbEntity
  8
2寸法線
 62
     0
100
AcDbMText
 10
95.11994299253272
 20
-24.00442792947911
 30
0.0
 40
2.5
 41
0.0
 71
     5
 72
     1
  1
\A1;82.4
  7
KANJI
 73
     1
 44
1.0
1001
ACAD
1000
MTEXTBEGIN
1070
    73
1070
     1
1070
    44
1040
1.0
1070
    74
1070
     0
1000
MTEXTEND
  0
POINT
  5
A8C
330
A84
100
AcDbEntity
  8
DEFPOINTS
 62
     0
100
AcDbPoint
 10
53.91994299253272
 20
-57.82644123860517
 30
0.0
  0
POINT
  5
A8D
330
A84
100
AcDbEntity
  8
DEFPOINTS
 62
     0
100
AcDbPoint
 10
136.3199429925327
 20
-57.8264412386053
 30
0.0
  0
POINT
  5
A8E
330
A84
100
AcDbEntity
  8
DEFPOINTS
 62
     0
100
AcDbPoint
 10
136.3199429925327
 20
-25.75442792947911
 30
0.0
  0
ENDBLK
  5
A8F
330
A84
100
AcDbEntity
  8
0
100
AcDbBlockEnd
  0
BLOCK
  5
A91
330
A90
100
AcDbEntity
  8
0
100
AcDbBlockBegin
  2
*D9
 70
     1
 10
0.0
 20
0.0
 30
0.0
  3
*D9
  1

  0
LINE
  5
A92
330
A90
100
AcDbEntity
  8
2寸法線
 62
     0
370
    -2
100
AcDbLine
 10
52.6438586560079
 20
-112.8264412386052
 30
0.0
 11
40.58265603979474
 21
-112.8264412386052
 31
0.0
  0
LINE
  5
A93
330
A90
100
AcDbEntity
  8
2寸法線
 62
     0
370
    -2
100
AcDbLine
 10
71.23365149151752
 20
-42.82644123860517
 30
0.0
 11
40.58265603979474
 21
-42.82644123860516
 31
0.0
  0
LINE
  5
A94
330
A90
100
AcDbEntity
  8
2寸法線
 62
     0
370
    -2
100
AcDbLine
 10
41.58265603979474
 20
-111.0264412386052
 30
0.0
 11
41.58265603979475
 21
-44.62644123860517
 31
0.0
  0
INSERT
  5
A95
330
A90
100
AcDbEntity
  8
2寸法線
 62
     0
370
    -2
100
AcDbBlockReference
  2
2
 10
41.58265603979472
 20
-112.8264412386052
 30
0.0
 41
1.8
 42
1.8
 43
1.8
 50
270.0
  0
INSERT
  5
A96
330
A90
100
AcDbEntity
  8
2寸法線
 62
     0
370
    -2
100
AcDbBlockReference
  2
2
 10
41.58265603979475
 20
-42.82644123860516
 30
0.0
 41
1.8
 42
1.8
 43
1.8
 50
90.0
  0
MTEXT
  5
A97
330
A90
100
AcDbEntity
  8
2寸法線
 62
     0
100
AcDbMText
 10
39.83265603979475
 20
-77.82644123860517
 30
0.0
 40
2.5
 41
0.0
 71
     5
 72
     1
  1
\A1;70
  7
KANJI
 11
0.0000000000000001
 21
1.0
 31
0.0
 73
     1
 44
1.0
1001
ACAD
1000
MTEXTBEGIN
1070
    73
1070
     1
1070
    44
1040
1.0
1070
    74
1070
     0
1000
MTEXTEND
  0
POINT
  5
A98
330
A90
100
AcDbEntity
  8
DEFPOINTS
 62
     0
100
AcDbPoint
 10
53.64385865600789
 20
-112.8264412386052
 30
0.0
  0
POINT
  5
A99
330
A90
100
AcDbEntity
  8
DEFPOINTS
 62
     0
100
AcDbPoint
 10
72.23365149151752
 20
-42.82644123860517
 30
0.0
  0
POINT
  5
A9A
330
A90
100
AcDbEntity
  8
DEFPOINTS
 62
     0
100
AcDbPoint
 10
41.58265603979475
 20
-42.82644123860516
 30
0.0
  0
ENDBLK
  5
A9B
330
A90
100
AcDbEntity
  8
0
100
AcDbBlockEnd
  0
BLOCK
  5
BB0
330
BAF
100
AcDbEntity
  8
0
100
AcDbBlockBegin
  2
*D10
 70
     1
 10
0.0
 20
0.0
 30
0.0
  3
*D10
  1

  0
LINE
  5
C03
330
BAF
100
AcDbEntity
  8
2寸法線
 62
     0
370
    -2
100
AcDbLine
 10
-868.9173037831547
 20
533.561707367258
 30
0.0
 11
-868.9173037831547
 21
519.6975352742482
 31
0.0
  0
LINE
  5
C04
330
BAF
100
AcDbEntity
  8
2寸法線
 62
     0
370
    -2
100
AcDbLine
 10
-785.5360826985685
 20
533.561707367258
 30
0.0
 11
-785.5360826985685
 21
519.6975352742482
 31
0.0
  0
LINE
  5
C05
330
BAF
100
AcDbEntity
  8
2寸法線
 62
     0
370
    -2
100
AcDbLine
 10
-867.1173037831549
 20
520.6975352742484
 30
0.0
 11
-787.3360826985686
 21
520.6975352742484
 31
0.0
  0
INSERT
  5
C06
330
BAF
100
AcDbEntity
  8
2寸法線
 62
     0
370
    -2
100
AcDbBlockReference
  2
2
 10
-868.9173037831547
 20
520.6975352742484
 30
0.0
 41
1.8
 42
1.8
 43
1.8
 50
180.0
  0
INSERT
  5
C07
330
BAF
100
AcDbEntity
  8
2寸法線
 62
     0
370
    -2
100
AcDbBlockReference
  2
2
 10
-785.5360826985685
 20
520.6975352742484
 30
0.0
 41
1.8
 42
1.8
 43
1.8
  0
MTEXT
  5
C08
330
BAF
100
AcDbEntity
  8
2寸法線
 62
     0
100
AcDbMText
 10
-827.2266932408616
 20
522.4475352742484
 30
0.0
 40
2.5
 41
0.0
 71
     5
 72
     1
  1
\A1;83.3812
  7
KANJI
 73
     1
 44
1.0
1001
ACAD
1000
MTEXTBEGIN
1070
    73
1070
     1
1070
    44
1040
1.0
1070
    74
1070
     0
1000
MTEXTEND
  0
POINT
  5
C09
330
BAF
100
AcDbEntity
  8
DEFPOINTS
 62
     0
100
AcDbPoint
 10
-868.9173037831547
 20
534.5617073672581
 30
0.0
  0
POINT
  5
C0A
330
BAF
100
AcDbEntity
  8
DEFPOINTS
 62
     0
100
AcDbPoint
 10
-785.5360826985685
 20
534.5617073672581
 30
0.0
  0
POINT
  5
C0B
330
BAF
100
AcDbEntity
  8
DEFPOINTS
 62
     0
100
AcDbPoint
 10
-785.5360826985685
 20
520.6975352742484
 30
0.0
  0
ENDBLK
  5
BB1
330
BAF
100
AcDbEntity
  8
0
100
AcDbBlockEnd
  0
BLOCK
  5
BBC
330
BBB
100
AcDbEntity
  8
0
100
AcDbBlockBegin
  2
*D11
 70
     1
 10
0.0
 20
0.0
 30
0.0
  3
*D11
  1

  0
LINE
  5
C0C
330
BBB
100
AcDbEntity
  8
2寸法線
 62
     0
370
    -2
100
AcDbLine
 10
-869.7266932408616
 20
499.3183072335028
 30
0.0
 11
-869.7266932408616
 21
485.8479229475718
 31
0.0
  0
LINE
  5
C0D
330
BBB
100
AcDbEntity
  8
2寸法線
 62
     0
370
    -2
100
AcDbLine
 10
-784.7266932408616
 20
499.3183072335028
 30
0.0
 11
-784.7266932408616
 21
485.8479229475718
 31
0.0
  0
LINE
  5
C0E
330
BBB
100
AcDbEntity
  8
2寸法線
 62
     0
370
    -2
100
AcDbLine
 10
-867.9266932408618
 20
486.8479229475719
 30
0.0
 11
-786.5266932408616
 21
486.8479229475719
 31
0.0
  0
INSERT
  5
C0F
330
BBB
100
AcDbEntity
  8
2寸法線
 62
     0
370
    -2
100
AcDbBlockReference
  2
2
 10
-869.7266932408616
 20
486.8479229475719
 30
0.0
 41
1.8
 42
1.8
 43
1.8
 50
180.0
  0
INSERT
  5
C10
330
BBB
100
AcDbEntity
  8
2寸法線
 62
     0
370
    -2
100
AcDbBlockReference
  2
2
 10
-784.7266932408616
 20
486.8479229475719
 30
0.0
 41
1.8
 42
1.8
 43
1.8
  0
MTEXT
  5
C11
330
BBB
100
AcDbEntity
  8
2寸法線
 62
     0
100
AcDbMText
 10
-827.2266932408616
 20
488.5979229475719
 30
0.0
 40
2.5
 41
0.0
 71
     5
 72
     1
  1
\A1;85
  7
KANJI
 73
     1
 44
1.0
1001
ACAD
1000
MTEXTBEGIN
1070
    73
1070
     1
1070
    44
1040
1.0
1070
    74
1070
     0
1000
MTEXTEND
  0
POINT
  5
C12
330
BBB
100
AcDbEntity
  8
DEFPOINTS
 62
     0
100
AcDbPoint
 10
-869.7266932408616
 20
500.3183072335028
 30
0.0
  0
POINT
  5
C13
330
BBB
100
AcDbEntity
  8
DEFPOINTS
 62
     0
100
AcDbPoint
 10
-784.7266932408616
 20
500.3183072335028
 30
0.0
  0
POINT
  5
C14
330
BBB
100
AcDbEntity
  8
DEFPOINTS
 62
     0
100
AcDbPoint
 10
-784.7266932408616
 20
486.8479229475719
 30
0.0
  0
ENDBLK
  5
BBD
330
BBB
100
AcDbEntity
  8
0
100
AcDbBlockEnd
  0
BLOCK
  5
BC8
330
BC7
100
AcDbEntity
  8
0
100
AcDbBlockBegin
  2
*D12
 70
     1
 10
0.0
 20
0.0
 30
0.0
  3
*D12
  1

  0
LINE
  5
C15
330
BC7
100
AcDbEntity
  8
2寸法線
 62
     0
370
    -2
100
AcDbLine
 10
-868.4266932408618
 20
556.3183072335029
 30
0.0
 11
-868.4266932408618
 21
588.3903205426291
 31
0.0
  0
LINE
  5
C16
330
BC7
100
AcDbEntity
  8
2寸法線
 62
     0
370
    -2
100
AcDbLine
 10
-786.0266932408616
 20
556.3183072335028
 30
0.0
 11
-786.0266932408616
 21
588.3903205426291
 31
0.0
  0
LINE
  5
C17
330
BC7
100
AcDbEntity
  8
2寸法線
 62
     0
370
    -2
100
AcDbLine
 10
-866.6266932408618
 20
587.390320542629
 30
0.0
 11
-787.8266932408616
 21
587.390320542629
 31
0.0
  0
INSERT
  5
C18
330
BC7
100
AcDbEntity
  8
2寸法線
 62
     0
370
    -2
100
AcDbBlockReference
  2
2
 10
-868.4266932408618
 20
587.390320542629
 30
0.0
 41
1.8
 42
1.8
 43
1.8
 50
180.0
  0
INSERT
  5
C19
330
BC7
100
AcDbEntity
  8
2寸法線
 62
     0
370
    -2
100
AcDbBlockReference
  2
2
 10
-786.0266932408616
 20
587.390320542629
 30
0.0
 41
1.8
 42
1.8
 43
1.8
  0
MTEXT
  5
C1A
330
BC7
100
AcDbEntity
  8
2寸法線
 62
     0
100
AcDbMText
 10
-827.2266932408616
 20
589.140320542629
 30
0.0
 40
2.5
 41
0.0
 71
     5
 72
     1
  1
\A1;82.4
  7
KANJI
 73
     1
 44
1.0
1001
ACAD
1000
MTEXTBEGIN
1070
    73
1070
     1
1070
    44
1040
1.0
1070
    74
1070
     0
1000
MTEXTEND
  0
POINT
  5
C1B
330
BC7
100
AcDbEntity
  8
DEFPOINTS
 62
     0
100
AcDbPoint
 10
-868.4266932408618
 20
555.318307233503
 30
0.0
  0
POINT
  5
C1C
330
BC7
100
AcDbEntity
  8
DEFPOINTS
 62
     0
100
AcDbPoint
 10
-786.0266932408616
 20
555.3183072335026
 30
0.0
  0
POINT
  5
C1D
330
BC7
100
AcDbEntity
  8
DEFPOINTS
 62
     0
100
AcDbPoint
 10
-786.0266932408616
 20
587.390320542629
 30
0.0
  0
ENDBLK
  5
BC9
330
BC7
100
AcDbEntity
  8
0
100
AcDbBlockEnd
  0
BLOCK
  5
BD4
330
BD3
100
AcDbEntity
  8
0
100
AcDbBlockBegin
  2
*D13
 70
     1
 10
0.0
 20
0.0
 30
0.0
  3
*D13
  1

  0
LINE
  5
C1E
330
BD3
100
AcDbEntity
  8
2寸法線
 62
     0
370
    -2
100
AcDbLine
 10
-869.7027775773868
 20
500.3183072335032
 30
0.0
 11
-881.7639801936005
 21
500.3183072335032
 31
0.0
  0
LINE
  5
C1F
330
BD3
100
AcDbEntity
  8
2寸法線
 62
     0
370
    -2
100
AcDbLine
 10
-851.1129847418773
 20
570.3183072335032
 30
0.0
 11
-881.7639801936005
 21
570.3183072335032
 31
0.0
  0
LINE
  5
C20
330
BD3
100
AcDbEntity
  8
2寸法線
 62
     0
370
    -2
100
AcDbLine
 10
-880.7639801936003
 20
502.1183072335031
 30
0.0
 11
-880.7639801936003
 21
568.5183072335032
 31
0.0
  0
INSERT
  5
C21
330
BD3
100
AcDbEntity
  8
2寸法線
 62
     0
370
    -2
100
AcDbBlockReference
  2
2
 10
-880.7639801936003
 20
500.3183072335032
 30
0.0
 41
1.8
 42
1.8
 43
1.8
 50
270.0
  0
INSERT
  5
C22
330
BD3
100
AcDbEntity
  8
2寸法線
 62
     0
370
    -2
100
AcDbBlockReference
  2
2
 10
-880.7639801936003
 20
570.3183072335032
 30
0.0
 41
1.8
 42
1.8
 43
1.8
 50
90.0
  0
MTEXT
  5
C23
330
BD3
100
AcDbEntity
  8
2寸法線
 62
     0
100
AcDbMText
 10
-882.5139801936003
 20
535.3183072335033
 30
0.0
 40
2.5
 41
0.0
 71
     5
 72
     1
  1
\A1;70
  7
KANJI
 11
0.0000000000000001
 21
1.0
 31
0.0
 73
     1
 44
1.0
1001
ACAD
1000
MTEXTBEGIN
1070
    73
1070
     1
1070
    44
1040
1.0
1070
    74
1070
     0
1000
MTEXTEND
  0
POINT
  5
C24
330
BD3
100
AcDbEntity
  8
DEFPOINTS
 62
     0
100
AcDbPoint
 10
-868.7027775773868
 20
500.3183072335032
 30
0.0
  0
POINT
  5
C25
330
BD3
100
AcDbEntity
  8
DEFPOINTS
 62
     0
100
AcDbPoint
 10
-850.1129847418773
 20
570.3183072335032
 30
0.0
  0
POINT
  5
C26
330
BD3
100
AcDbEntity
  8
DEFPOINTS
 62
     0
100
AcDbPoint
 10
-880.7639801936003
 20
570.3183072335032
 30
0.0
  0
ENDBLK
  5
BD5
330
BD3
100
AcDbEntity
  8
0
100
AcDbBlockEnd
  0
BLOCK
  5
DB4
330
DB3
100
AcDbEntity
  8
0
100
AcDbBlockBegin
  2
*D14
 70
     1
 10
0.0
 20
0.0
 30
0.0
  3
*D14
  1

  0
LINE
  5
DC8
330
DB3
100
AcDbEntity
  8
2寸法線
 62
     0
370
    -2
100
AcDbLine
 10
88.71309083197177
 20
570.1696879356127
 30
0.0
 11
88.71309083197177
 21
553.5258441561377
 31
0.0
  0
LINE
  5
DC9
330
DB3
100
AcDbEntity
  8
2寸法線
 62
     0
370
    -2
100
AcDbLine
 10
163.6953558386179
 20
570.8572888513194
 30
0.0
 11
163.6953558386179
 21
553.5258441561377
 31
0.0
  0
LINE
  5
DCA
330
DB3
100
AcDbEntity
  8
2寸法線
 62
     0
370
    -2
100
AcDbLine
 10
91.21309083197177
 20
554.7758441561377
 30
0.0
 11
161.1953558386179
 21
554.7758441561377
 31
0.0
  0
SOLID
  5
DCB
330
DB3
100
AcDbEntity
  8
2寸法線
 62
     0
100
AcDbTrace
 10
91.21309083197177
 20
555.1925108228044
 30
0.0
 11
91.21309083197177
 21
554.3591774894711
 31
0.0
 12
88.71309083197177
 22
554.7758441561377
 32
0.0
 13
88.71309083197177
 23
554.7758441561377
 33
0.0
  0
SOLID
  5
DCC
330
DB3
100
AcDbEntity
  8
2寸法線
 62
     0
100
AcDbTrace
 10
161.1953558386179
 20
555.1925108228044
 30
0.0
 11
161.1953558386179
 21
554.3591774894711
 31
0.0
 12
163.6953558386179
 22
554.7758441561377
 32
0.0
 13
163.6953558386179
 23
554.7758441561377
 33
0.0
  0
MTEXT
  5
DCD
330
DB3
100
AcDbEntity
  8
2寸法線
 62
     0
100
AcDbMText
 10
126.2042233352948
 20
556.6508441561377
 30
0.0
 40
2.5
 41
0.0
 71
     5
 72
     1
  1
\A1;74.9823
 73
     1
 44
1.0
1001
ACAD
1000
MTEXTBEGIN
1070
    73
1070
     1
1070
    44
1040
1.0
1070
    74
1070
     0
1000
MTEXTEND
  0
POINT
  5
DCE
330
DB3
100
AcDbEntity
  8
DEFPOINTS
 62
     0
100
AcDbPoint
 10
88.71309083197177
 20
570.7946879356127
 30
0.0
  0
POINT
  5
DCF
330
DB3
100
AcDbEntity
  8
DEFPOINTS
 62
     0
100
AcDbPoint
 10
163.6953558386179
 20
571.4822888513195
 30
0.0
  0
POINT
  5
DD0
330
DB3
100
AcDbEntity
  8
DEFPOINTS
 62
     0
100
AcDbPoint
 10
163.6953558386179
 20
554.7758441561377
 30
0.0
  0
ENDBLK
  5
DB5
330
DB3
100
AcDbEntity
  8
0
100
AcDbBlockEnd
  0
BLOCK
  5
DD3
330
DD2
100
AcDbEntity
  8
0
100
AcDbBlockBegin
  2
*D15
 70
     1
 10
0.0
 20
0.0
 30
0.0
  3
*D15
  1

  0
LINE
  5
E1B
330
DD2
100
AcDbEntity
  8
2寸法線
 62
     0
370
    -2
100
AcDbLine
 10
152.2492880268625
 20
634.64331920832
 30
0.0
 11
181.3428509723236
 21
634.64331920832
 31
0.0
  0
LINE
  5
E1C
330
DD2
100
AcDbEntity
  8
2寸法線
 62
     0
370
    -2
100
AcDbLine
 10
163.302772734622
 20
569.6433192083204
 30
0.0
 11
181.3428509723236
 21
569.6433192083204
 31
0.0
  0
LINE
  5
E1D
330
DD2
100
AcDbEntity
  8
2寸法線
 62
     0
370
    -2
100
AcDbLine
 10
180.0928509723236
 20
632.1433192083199
 30
0.0
 11
180.0928509723236
 21
572.1433192083204
 31
0.0
  0
SOLID
  5
E1E
330
DD2
100
AcDbEntity
  8
2寸法線
 62
     0
100
AcDbTrace
 10
179.6761843056569
 20
632.1433192083199
 30
0.0
 11
180.5095176389903
 21
632.1433192083199
 31
0.0
 12
180.0928509723236
 22
634.64331920832
 32
0.0
 13
180.0928509723236
 23
634.64331920832
 33
0.0
  0
SOLID
  5
E1F
330
DD2
100
AcDbEntity
  8
2寸法線
 62
     0
100
AcDbTrace
 10
179.676184305657
 20
572.1433192083204
 30
0.0
 11
180.5095176389903
 21
572.1433192083204
 31
0.0
 12
180.0928509723236
 22
569.6433192083204
 32
0.0
 13
180.0928509723236
 23
569.6433192083204
 33
0.0
  0
MTEXT
  5
E20
330
DD2
100
AcDbEntity
  8
2寸法線
 62
     0
100
AcDbMText
 10
178.2178509723237
 20
602.14331920832
 30
0.0
 40
2.5
 41
0.0
 71
     5
 72
     1
  1
\A1;65
 11
0.0000000000000001
 21
1.0
 31
0.0
 73
     1
 44
1.0
1001
ACAD
1000
MTEXTBEGIN
1070
    73
1070
     1
1070
    44
1040
1.0
1070
    74
1070
     0
1000
MTEXTEND
  0
POINT
  5
E21
330
DD2
100
AcDbEntity
  8
DEFPOINTS
 62
     0
100
AcDbPoint
 10
151.6242880268625
 20
634.64331920832
 30
0.0
  0
POINT
  5
E22
330
DD2
100
AcDbEntity
  8
DEFPOINTS
 62
     0
100
AcDbPoint
 10
162.677772734622
 20
569.6433192083204
 30
0.0
  0
POINT
  5
E23
330
DD2
100
AcDbEntity
  8
DEFPOINTS
 62
     0
100
AcDbPoint
 10
180.0928509723236
 20
569.6433192083204
 30
0.0
  0
ENDBLK
  5
DD4
330
DD2
100
AcDbEntity
  8
0
100
AcDbBlockEnd
  0
BLOCK
  5
DE0
330
DDF
100
AcDbEntity
  8
0
100
AcDbBlockBegin
  2
*D16
 70
     1
 10
0.0
 20
0.0
 30
0.0
  3
*D16
  1

  0
LINE
  5
DF4
330
DDF
100
AcDbEntity
  8
2寸法線
 62
     0
370
    -2
100
AcDbLine
 10
88.69535583935373
 20
571.1133093944832
 30
0.0
 11
88.69535583935373
 21
558.3502973871832
 31
0.0
  0
LINE
  5
DF5
330
DDF
100
AcDbEntity
  8
2寸法線
 62
     0
370
    -2
100
AcDbLine
 10
163.6953558386129
 20
571.1133093944832
 30
0.0
 11
163.6953558386129
 21
558.3502973871832
 31
0.0
  0
LINE
  5
DF6
330
DDF
100
AcDbEntity
  8
2寸法線
 62
     0
370
    -2
100
AcDbLine
 10
91.19535583935373
 20
559.6002973871832
 30
0.0
 11
161.1953558386129
 21
559.6002973871832
 31
0.0
  0
SOLID
  5
DF7
330
DDF
100
AcDbEntity
  8
2寸法線
 62
     0
100
AcDbTrace
 10
91.19535583935373
 20
560.0169640538498
 30
0.0
 11
91.19535583935373
 21
559.1836307205166
 31
0.0
 12
88.69535583935373
 22
559.6002973871832
 32
0.0
 13
88.69535583935373
 23
559.6002973871832
 33
0.0
  0
SOLID
  5
DF8
330
DDF
100
AcDbEntity
  8
2寸法線
 62
     0
100
AcDbTrace
 10
161.1953558386129
 20
560.0169640538498
 30
0.0
 11
161.1953558386129
 21
559.1836307205166
 31
0.0
 12
163.6953558386129
 22
559.6002973871832
 32
0.0
 13
163.6953558386129
 23
559.6002973871832
 33
0.0
  0
MTEXT
  5
DF9
330
DDF
100
AcDbEntity
  8
2寸法線
 62
     0
100
AcDbMText
 10
126.1953558389833
 20
561.4752973871832
 30
0.0
 40
2.5
 41
0.0
 71
     5
 72
     1
  1
\A1;75
 73
     1
 44
1.0
1001
ACAD
1000
MTEXTBEGIN
1070
    73
1070
     1
1070
    44
1040
1.0
1070
    74
1070
     0
1000
MTEXTEND
  0
POINT
  5
DFA
330
DDF
100
AcDbEntity
  8
DEFPOINTS
 62
     0
100
AcDbPoint
 10
88.69535583935373
 20
571.7383093944833
 30
0.0
  0
POINT
  5
DFB
330
DDF
100
AcDbEntity
  8
DEFPOINTS
 62
     0
100
AcDbPoint
 10
163.6953558386129
 20
571.7383093944833
 30
0.0
  0
POINT
  5
DFC
330
DDF
100
AcDbEntity
  8
DEFPOINTS
 62
     0
100
AcDbPoint
 10
163.6953558386129
 20
559.6002973871832
 30
0.0
  0
ENDBLK
  5
DE1
330
DDF
100
AcDbEntity
  8
0
100
AcDbBlockEnd
  0
BLOCK
  5
DFF
330
DFE
100
AcDbEntity
  8
0
100
AcDbBlockBegin
  2
*D17
 70
     1
 10
0.0
 20
0.0
 30
0.0
  3
*D17
  1

  0
LINE
  5
E01
330
DFE
100
AcDbEntity
  8
2寸法線
 62
     0
370
    -2
100
AcDbLine
 10
150.9309494734793
 20
286.2754795374136
 30
0.0
 11
186.3983083853036
 21
286.2754795374136
 31
0.0
  0
LINE
  5
E02
330
DFE
100
AcDbEntity
  8
2寸法線
 62
     0
370
    -2
100
AcDbLine
 10
168.3203558386188
 20
216.2754795374136
 30
0.0
 11
186.3983083853036
 21
216.2754795374136
 31
0.0
  0
LINE
  5
E03
330
DFE
100
AcDbEntity
  8
2寸法線
 62
     0
370
    -2
100
AcDbLine
 10
185.1483083853036
 20
283.7754795374136
 30
0.0
 11
185.1483083853036
 21
218.7754795374136
 31
0.0
  0
SOLID
  5
E04
330
DFE
100
AcDbEntity
  8
2寸法線
 62
     0
100
AcDbTrace
 10
184.731641718637
 20
283.7754795374136
 30
0.0
 11
185.5649750519703
 21
283.7754795374136
 31
0.0
 12
185.1483083853036
 22
286.2754795374136
 32
0.0
 13
185.1483083853036
 23
286.2754795374136
 33
0.0
  0
SOLID
  5
E05
330
DFE
100
AcDbEntity
  8
2寸法線
 62
     0
100
AcDbTrace
 10
184.731641718637
 20
218.7754795374136
 30
0.0
 11
185.5649750519703
 21
218.7754795374136
 31
0.0
 12
185.1483083853036
 22
216.2754795374136
 32
0.0
 13
185.1483083853036
 23
216.2754795374136
 33
0.0
  0
MTEXT
  5
E06
330
DFE
100
AcDbEntity
  8
2寸法線
 62
     0
100
AcDbMText
 10
183.2733083853037
 20
251.2754795374135
 30
0.0
 40
2.5
 41
0.0
 71
     5
 72
     1
  1
\A1;70
 11
0.0000000000000001
 21
1.0
 31
0.0
 73
     1
 44
1.0
1001
ACAD
1000
MTEXTBEGIN
1070
    73
1070
     1
1070
    44
1040
1.0
1070
    74
1070
     0
1000
MTEXTEND
  0
POINT
  5
E07
330
DFE
100
AcDbEntity
  8
DEFPOINTS
 62
     0
100
AcDbPoint
 10
150.3059494734793
 20
286.2754795374136
 30
0.0
  0
POINT
  5
E08
330
DFE
100
AcDbEntity
  8
DEFPOINTS
 62
     0
100
AcDbPoint
 10
167.6953558386188
 20
216.2754795374136
 30
0.0
  0
POINT
  5
E09
330
DFE
100
AcDbEntity
  8
DEFPOINTS
 62
     0
100
AcDbPoint
 10
185.1483083853036
 20
216.2754795374136
 30
0.0
  0
ENDBLK
  5
E00
330
DFE
100
AcDbEntity
  8
0
100
AcDbBlockEnd
  0
BLOCK
  5
E0C
330
E0B
100
AcDbEntity
  8
0
100
AcDbBlockBegin
  2
*D18
 70
     1
 10
0.0
 20
0.0
 30
0.0
  3
*D18
  1

  0
LINE
  5
E0E
330
E0B
100
AcDbEntity
  8
2寸法線
 62
     0
370
    -2
100
AcDbLine
 10
168.6953558386139
 20
233.3242696946288
 30
0.0
 11
168.6953558386139
 21
198.4436856249326
 31
0.0
  0
LINE
  5
E0F
330
E0B
100
AcDbEntity
  8
2寸法線
 62
     0
370
    -2
100
AcDbLine
 10
83.69535583935471
 20
233.3242696946288
 30
0.0
 11
83.69535583935471
 21
198.4436856249326
 31
0.0
  0
LINE
  5
E10
330
E0B
100
AcDbEntity
  8
2寸法線
 62
     0
370
    -2
100
AcDbLine
 10
166.1953558386139
 20
199.6936856249326
 30
0.0
 11
86.19535583935471
 21
199.6936856249326
 31
0.0
  0
SOLID
  5
E11
330
E0B
100
AcDbEntity
  8
2寸法線
 62
     0
100
AcDbTrace
 10
166.1953558386139
 20
200.1103522915993
 30
0.0
 11
166.1953558386139
 21
199.277018958266
 31
0.0
 12
168.6953558386139
 22
199.6936856249326
 32
0.0
 13
168.6953558386139
 23
199.6936856249326
 33
0.0
  0
SOLID
  5
E12
330
E0B
100
AcDbEntity
  8
2寸法線
 62
     0
100
AcDbTrace
 10
86.19535583935471
 20
200.1103522915993
 30
0.0
 11
86.19535583935471
 21
199.277018958266
 31
0.0
 12
83.69535583935471
 22
199.6936856249326
 32
0.0
 13
83.69535583935471
 23
199.6936856249326
 33
0.0
  0
MTEXT
  5
E13
330
E0B
100
AcDbEntity
  8
2寸法線
 62
     0
100
AcDbMText
 10
126.1953558389843
 20
201.5686856249327
 30
0.0
 40
2.5
 41
0.0
 71
     5
 72
     1
  1
\A1;85
 73
     1
 44
1.0
1001
ACAD
1000
MTEXTBEGIN
1070
    73
1070
     1
1070
    44
1040
1.0
1070
    74
1070
     0
1000
MTEXTEND
  0
POINT
  5
E14
330
E0B
100
AcDbEntity
  8
DEFPOINTS
 62
     0
100
AcDbPoint
 10
168.6953558386139
 20
233.9492696946288
 30
0.0
  0
POINT
  5
E15
330
E0B
100
AcDbEntity
  8
DEFPOINTS
 62
     0
100
AcDbPoint
 10
83.69535583935471
 20
233.9492696946288
 30
0.0
  0
POINT
  5
E16
330
E0B
100
AcDbEntity
  8
DEFPOINTS
 62
     0
100
AcDbPoint
 10
83.69535583935471
 20
199.6936856249326
 30
0.0
  0
ENDBLK
  5
E0D
330
E0B
100
AcDbEntity
  8
0
100
AcDbBlockEnd
  0
ENDSEC
  0
SECTION
  2
ENTITIES
  0
LINE
  5
152
330
282
100
AcDbEntity
  8
1外形線
100
AcDbLine
 10
2248.225285297567
 20
377.8704974569432
 30
0.0
 11
43.22528529756708
 21
377.8704974569432
 31
0.0
  0
LINE
  5
153
330
282
100
AcDbEntity
  8
1外形線
100
AcDbLine
 10
43.22528529756708
 20
707.8866356249884
 30
0.0
 11
2248.225285297567
 21
707.8866356249884
 31
0.0
  0
LINE
  5
158
330
282
100
AcDbEntity
  8
1外形線
100
AcDbLine
 10
43.22528529756708
 20
707.8866356249884
 30
0.0
 11
43.22528529756708
 21
43.56663879534115
 31
0.0
  0
LINE
  5
200
330
282
100
AcDbEntity
  8
1外形線
100
AcDbLine
 10
2248.225285297567
 20
707.8866356249884
 30
0.0
 11
2248.225285297567
 21
43.56663879534115
 31
0.0
  0
LINE
  5
3CB
330
282
100
AcDbEntity
  8
1外形線
100
AcDbLine
 10
198.6953558389846
 20
569.6433192083202
 30
0.0
 11
2198.695355838984
 21
569.6433192083202
 31
0.0
  0
LINE
  5
3CC
330
282
100
AcDbEntity
  8
1外形線
100
AcDbLine
 10
198.6953558389846
 20
635.1433192083202
 30
0.0
 11
2198.695355838984
 21
635.1433192083202
 31
0.0
  0
LINE
  5
3CE
330
282
100
AcDbEntity
  8
1外形線
100
AcDbLine
 10
198.6953558389846
 20
531.3538711203404
 30
0.0
 11
2198.695355838985
 21
531.3538711203428
 31
0.0
  0
LINE
  5
3D1
330
282
100
AcDbEntity
  8
1外形線
100
AcDbLine
 10
198.6953558389846
 20
456.3538711203403
 30
0.0
 11
2198.695355838985
 21
456.3538711203403
 31
0.0
  0
LINE
  5
3D2
330
282
100
AcDbEntity
  8
1外形線
100
AcDbLine
 10
198.6953558389846
 20
488.8538711203405
 30
0.0
 11
1198.695355838985
 21
488.8538711203387
 31
0.0
  0
LINE
  5
3D4
330
282
100
AcDbEntity
  8
1外形線
100
AcDbLine
 10
198.6953558389846
 20
498.8538711203406
 30
0.0
 11
1198.695355838985
 21
498.8538711203406
 31
0.0
  0
LINE
  5
3D6
330
282
100
AcDbEntity
  8
1外形線
100
AcDbLine
 10
751.6953558389874
 20
495.8538711203407
 30
0.0
 11
748.6953558389874
 21
495.8538711203407
 31
0.0
  0
LINE
  5
3D7
330
282
100
AcDbEntity
  8
1外形線
100
AcDbLine
 10
751.6953558389874
 20
491.8538711203407
 30
0.0
 11
748.6953558389874
 21
491.8538711203407
 31
0.0
  0
LINE
  5
3D8
330
282
100
AcDbEntity
  8
1外形線
100
AcDbLine
 10
745.6953558389876
 20
495.8538711203407
 30
0.0
 11
748.6953558389874
 21
495.8538711203407
 31
0.0
  0
LINE
  5
3D9
330
282
100
AcDbEntity
  8
1外形線
100
AcDbLine
 10
745.6953558389876
 20
491.8538711203407
 30
0.0
 11
748.6953558389874
 21
491.8538711203407
 31
0.0
  0
ARC
  5
3DA
330
282
100
AcDbEntity
  8
1外形線
100
AcDbCircle
 10
745.6953558389876
 20
493.8538711203403
 30
0.0
 40
2.0
100
AcDbArc
 50
90.0
 51
270.0
  0
ARC
  5
3DB
330
282
100
AcDbEntity
  8
1外形線
100
AcDbCircle
 10
751.6953558389874
 20
493.8538711203403
 30
0.0
 40
2.0
100
AcDbArc
 50
270.0
 51
90.0
  0
LINE
  5
3DC
330
282
100
AcDbEntity
  8
1外形線
100
AcDbLine
 10
951.6953558389875
 20
495.8538711203407
 30
0.0
 11
948.6953558389876
 21
495.8538711203407
 31
0.0
  0
LINE
  5
3DD
330
282
100
AcDbEntity
  8
1外形線
100
AcDbLine
 10
951.6953558389875
 20
491.8538711203407
 30
0.0
 11
948.6953558389876
 21
491.8538711203407
 31
0.0
  0
LINE
  5
3DE
330
282
100
AcDbEntity
  8
1外形線
100
AcDbLine
 10
845.6953558389852
 20
495.8538711203407
 30
0.0
 11
848.6953558389851
 21
495.8538711203407
 31
0.0
  0
LINE
  5
3DF
330
282
100
AcDbEntity
  8
1外形線
100
AcDbLine
 10
851.6953558389854
 20
495.8538711203407
 30
0.0
 11
848.6953558389851
 21
495.8538711203407
 31
0.0
  0
LINE
  5
3E0
330
282
100
AcDbEntity
  8
1外形線
100
AcDbLine
 10
845.6953558389852
 20
491.8538711203407
 30
0.0
 11
848.6953558389851
 21
491.8538711203407
 31
0.0
  0
LINE
  5
3E1
330
282
100
AcDbEntity
  8
1外形線
100
AcDbLine
 10
851.6953558389854
 20
491.8538711203407
 30
0.0
 11
848.6953558389851
 21
491.8538711203407
 31
0.0
  0
ARC
  5
3E2
330
282
100
AcDbEntity
  8
1外形線
100
AcDbCircle
 10
851.6953558389854
 20
493.8538711203403
 30
0.0
 40
2.0
100
AcDbArc
 50
270.0
 51
90.0
  0
ARC
  5
3E3
330
282
100
AcDbEntity
  8
1外形線
100
AcDbCircle
 10
845.6953558389852
 20
493.8538711203403
 30
0.0
 40
2.0
100
AcDbArc
 50
90.0
 51
270.0
  0
LINE
  5
3E4
330
282
100
AcDbEntity
  8
1外形線
100
AcDbLine
 10
945.6953558389875
 20
495.8538711203407
 30
0.0
 11
948.6953558389876
 21
495.8538711203407
 31
0.0
  0
LINE
  5
3E5
330
282
100
AcDbEntity
  8
1外形線
100
AcDbLine
 10
945.6953558389875
 20
491.8538711203407
 30
0.0
 11
948.6953558389876
 21
491.8538711203407
 31
0.0
  0
ARC
  5
3E6
330
282
100
AcDbEntity
  8
1外形線
100
AcDbCircle
 10
945.6953558389875
 20
493.8538711203403
 30
0.0
 40
2.0
100
AcDbArc
 50
90.0
 51
270.0
  0
ARC
  5
3E7
330
282
100
AcDbEntity
  8
1外形線
100
AcDbCircle
 10
951.6953558389875
 20
493.8538711203403
 30
0.0
 40
2.0
100
AcDbArc
 50
270.0
 51
90.0
  0
LINE
  5
3E8
330
282
100
AcDbEntity
  8
1外形線
100
AcDbLine
 10
1045.695355838984
 20
495.8538711203407
 30
0.0
 11
1048.695355838985
 21
495.8538711203407
 31
0.0
  0
LINE
  5
3E9
330
282
100
AcDbEntity
  8
1外形線
100
AcDbLine
 10
1051.695355838985
 20
495.8538711203407
 30
0.0
 11
1048.695355838985
 21
495.8538711203407
 31
0.0
  0
LINE
  5
3EA
330
282
100
AcDbEntity
  8
1外形線
100
AcDbLine
 10
1045.695355838984
 20
491.8538711203407
 30
0.0
 11
1048.695355838985
 21
491.8538711203407
 31
0.0
  0
LINE
  5
3EB
330
282
100
AcDbEntity
  8
1外形線
100
AcDbLine
 10
1051.695355838985
 20
491.8538711203407
 30
0.0
 11
1048.695355838985
 21
491.8538711203407
 31
0.0
  0
ARC
  5
3EC
330
282
100
AcDbEntity
  8
1外形線
100
AcDbCircle
 10
1051.695355838985
 20
493.8538711203403
 30
0.0
 40
2.0
100
AcDbArc
 50
270.0
 51
90.0
  0
ARC
  5
3ED
330
282
100
AcDbEntity
  8
1外形線
100
AcDbCircle
 10
1045.695355838984
 20
493.8538711203403
 30
0.0
 40
2.0
100
AcDbArc
 50
90.0
 51
270.0
  0
LINE
  5
3F4
330
282
100
AcDbEntity
  8
1外形線
100
AcDbLine
 10
2198.695355838984
 20
488.8538711203588
 30
0.0
 11
1198.695355838985
 21
488.8538711203387
 31
0.0
  0
LINE
  5
3F5
330
282
100
AcDbEntity
  8
1外形線
100
AcDbLine
 10
2198.695355838984
 20
498.8538711203586
 30
0.0
 11
1198.695355838985
 21
498.8538711203406
 31
0.0
  0
LINE
  5
3F6
330
282
100
AcDbEntity
  8
1外形線
100
AcDbLine
 10
1145.695355838985
 20
495.8538711203407
 30
0.0
 11
1148.695355838986
 21
495.8538711203407
 31
0.0
  0
LINE
  5
3F7
330
282
100
AcDbEntity
  8
1外形線
100
AcDbLine
 10
1145.695355838985
 20
491.8538711203407
 30
0.0
 11
1148.695355838986
 21
491.8538711203407
 31
0.0
  0
ARC
  5
3F8
330
282
100
AcDbEntity
  8
1外形線
100
AcDbCircle
 10
1145.695355838985
 20
493.8538711203403
 30
0.0
 40
2.0
100
AcDbArc
 50
90.0
 51
270.0
  0
LINE
  5
3F9
330
282
100
AcDbEntity
  8
1外形線
100
AcDbLine
 10
1151.695355838985
 20
495.8538711203407
 30
0.0
 11
1148.695355838986
 21
495.8538711203407
 31
0.0
  0
LINE
  5
3FA
330
282
100
AcDbEntity
  8
1外形線
100
AcDbLine
 10
1151.695355838985
 20
491.8538711203407
 30
0.0
 11
1148.695355838986
 21
491.8538711203407
 31
0.0
  0
ARC
  5
3FB
330
282
100
AcDbEntity
  8
1外形線
100
AcDbCircle
 10
1151.695355838985
 20
493.8538711203403
 30
0.0
 40
2.0
100
AcDbArc
 50
270.0
 51
90.0
  0
LINE
  5
3FC
330
282
100
AcDbEntity
  8
1外形線
100
AcDbLine
 10
1245.695355838985
 20
495.8538711203407
 30
0.0
 11
1248.695355838985
 21
495.8538711203407
 31
0.0
  0
LINE
  5
3FD
330
282
100
AcDbEntity
  8
1外形線
100
AcDbLine
 10
1251.695355838985
 20
495.8538711203407
 30
0.0
 11
1248.695355838985
 21
495.8538711203407
 31
0.0
  0
LINE
  5
3FE
330
282
100
AcDbEntity
  8
1外形線
100
AcDbLine
 10
1245.695355838985
 20
491.8538711203407
 30
0.0
 11
1248.695355838985
 21
491.8538711203407
 31
0.0
  0
LINE
  5
3FF
330
282
100
AcDbEntity
  8
1外形線
100
AcDbLine
 10
1251.695355838985
 20
491.8538711203407
 30
0.0
 11
1248.695355838985
 21
491.8538711203407
 31
0.0
  0
ARC
  5
400
330
282
100
AcDbEntity
  8
1外形線
100
AcDbCircle
 10
1251.695355838985
 20
493.8538711203403
 30
0.0
 40
2.0
100
AcDbArc
 50
270.0
 51
90.0
  0
ARC
  5
401
330
282
100
AcDbEntity
  8
1外形線
100
AcDbCircle
 10
1245.695355838985
 20
493.8538711203403
 30
0.0
 40
2.0
100
AcDbArc
 50
90.0
 51
270.0
  0
ARC
  5
402
330
282
100
AcDbEntity
  8
1外形線
100
AcDbCircle
 10
1345.695355838985
 20
493.8538711203403
 30
0.0
 40
2.0
100
AcDbArc
 50
90.0
 51
270.0
  0
LINE
  5
403
330
282
100
AcDbEntity
  8
1外形線
100
AcDbLine
 10
1345.695355838985
 20
495.8538711203407
 30
0.0
 11
1348.695355838986
 21
495.8538711203407
 31
0.0
  0
LINE
  5
404
330
282
100
AcDbEntity
  8
1外形線
100
AcDbLine
 10
1351.695355838986
 20
495.8538711203407
 30
0.0
 11
1348.695355838986
 21
495.8538711203407
 31
0.0
  0
LINE
  5
405
330
282
100
AcDbEntity
  8
1外形線
100
AcDbLine
 10
1345.695355838985
 20
491.8538711203407
 30
0.0
 11
1348.695355838986
 21
491.8538711203407
 31
0.0
  0
LINE
  5
406
330
282
100
AcDbEntity
  8
1外形線
100
AcDbLine
 10
1351.695355838986
 20
491.8538711203407
 30
0.0
 11
1348.695355838986
 21
491.8538711203407
 31
0.0
  0
ARC
  5
407
330
282
100
AcDbEntity
  8
1外形線
100
AcDbCircle
 10
1351.695355838986
 20
493.8538711203403
 30
0.0
 40
2.0
100
AcDbArc
 50
270.0
 51
90.0
  0
LINE
  5
408
330
282
100
AcDbEntity
  8
1外形線
100
AcDbLine
 10
1445.695355838985
 20
495.8538711203407
 30
0.0
 11
1448.695355838985
 21
495.8538711203407
 31
0.0
  0
LINE
  5
409
330
282
100
AcDbEntity
  8
1外形線
100
AcDbLine
 10
1451.695355838984
 20
495.8538711203407
 30
0.0
 11
1448.695355838985
 21
495.8538711203407
 31
0.0
  0
LINE
  5
40A
330
282
100
AcDbEntity
  8
1外形線
100
AcDbLine
 10
1445.695355838985
 20
491.8538711203407
 30
0.0
 11
1448.695355838985
 21
491.8538711203407
 31
0.0
  0
LINE
  5
40B
330
282
100
AcDbEntity
  8
1外形線
100
AcDbLine
 10
1451.695355838984
 20
491.8538711203407
 30
0.0
 11
1448.695355838985
 21
491.8538711203407
 31
0.0
  0
ARC
  5
40C
330
282
100
AcDbEntity
  8
1外形線
100
AcDbCircle
 10
1451.695355838984
 20
493.8538711203403
 30
0.0
 40
2.0
100
AcDbArc
 50
270.0
 51
90.0
  0
ARC
  5
40D
330
282
100
AcDbEntity
  8
1外形線
100
AcDbCircle
 10
1445.695355838985
 20
493.8538711203403
 30
0.0
 40
2.0
100
AcDbArc
 50
90.0
 51
270.0
  0
LINE
  5
40E
330
282
100
AcDbEntity
  8
1外形線
100
AcDbLine
 10
1651.695355838985
 20
495.8538711203407
 30
0.0
 11
1648.695355838984
 21
495.8538711203407
 31
0.0
  0
LINE
  5
40F
330
282
100
AcDbEntity
  8
1外形線
100
AcDbLine
 10
1651.695355838985
 20
491.8538711203407
 30
0.0
 11
1648.695355838984
 21
491.8538711203407
 31
0.0
  0
LINE
  5
410
330
282
100
AcDbEntity
  8
1外形線
100
AcDbLine
 10
1545.695355838986
 20
495.8538711203407
 30
0.0
 11
1548.695355838986
 21
495.8538711203407
 31
0.0
  0
LINE
  5
411
330
282
100
AcDbEntity
  8
1外形線
100
AcDbLine
 10
1551.695355838987
 20
495.8538711203407
 30
0.0
 11
1548.695355838986
 21
495.8538711203407
 31
0.0
  0
LINE
  5
412
330
282
100
AcDbEntity
  8
1外形線
100
AcDbLine
 10
1545.695355838986
 20
491.8538711203407
 30
0.0
 11
1548.695355838986
 21
491.8538711203407
 31
0.0
  0
LINE
  5
413
330
282
100
AcDbEntity
  8
1外形線
100
AcDbLine
 10
1551.695355838987
 20
491.8538711203407
 30
0.0
 11
1548.695355838986
 21
491.8538711203407
 31
0.0
  0
ARC
  5
414
330
282
100
AcDbEntity
  8
1外形線
100
AcDbCircle
 10
1551.695355838987
 20
493.8538711203403
 30
0.0
 40
2.0
100
AcDbArc
 50
270.0
 51
90.0
  0
ARC
  5
415
330
282
100
AcDbEntity
  8
1外形線
100
AcDbCircle
 10
1545.695355838986
 20
493.8538711203403
 30
0.0
 40
2.0
100
AcDbArc
 50
90.0
 51
270.0
  0
LINE
  5
416
330
282
100
AcDbEntity
  8
1外形線
100
AcDbLine
 10
1645.695355838984
 20
495.8538711203407
 30
0.0
 11
1648.695355838984
 21
495.8538711203407
 31
0.0
  0
LINE
  5
417
330
282
100
AcDbEntity
  8
1外形線
100
AcDbLine
 10
1645.695355838984
 20
491.8538711203407
 30
0.0
 11
1648.695355838984
 21
491.8538711203407
 31
0.0
  0
ARC
  5
418
330
282
100
AcDbEntity
  8
1外形線
100
AcDbCircle
 10
1645.695355838984
 20
493.8538711203403
 30
0.0
 40
2.0
100
AcDbArc
 50
90.0
 51
270.0
  0
ARC
  5
419
330
282
100
AcDbEntity
  8
1外形線
100
AcDbCircle
 10
1651.695355838985
 20
493.8538711203403
 30
0.0
 40
2.0
100
AcDbArc
 50
270.0
 51
90.0
  0
LINE
  5
41A
330
282
100
AcDbEntity
  8
1外形線
100
AcDbLine
 10
1745.695355838987
 20
495.8538711203407
 30
0.0
 11
1748.695355838986
 21
495.8538711203407
 31
0.0
  0
LINE
  5
41B
330
282
100
AcDbEntity
  8
1外形線
100
AcDbLine
 10
1751.695355838987
 20
495.8538711203407
 30
0.0
 11
1748.695355838986
 21
495.8538711203407
 31
0.0
  0
LINE
  5
41C
330
282
100
AcDbEntity
  8
1外形線
100
AcDbLine
 10
1745.695355838987
 20
491.8538711203407
 30
0.0
 11
1748.695355838986
 21
491.8538711203407
 31
0.0
  0
LINE
  5
41D
330
282
100
AcDbEntity
  8
1外形線
100
AcDbLine
 10
1751.695355838987
 20
491.8538711203407
 30
0.0
 11
1748.695355838986
 21
491.8538711203407
 31
0.0
  0
ARC
  5
41E
330
282
100
AcDbEntity
  8
1外形線
100
AcDbCircle
 10
1751.695355838987
 20
493.8538711203403
 30
0.0
 40
2.0
100
AcDbArc
 50
270.0
 51
90.0
  0
ARC
  5
41F
330
282
100
AcDbEntity
  8
1外形線
100
AcDbCircle
 10
1745.695355838987
 20
493.8538711203403
 30
0.0
 40
2.0
100
AcDbArc
 50
90.0
 51
270.0
  0
LINE
  5
420
330
282
100
AcDbEntity
  8
1外形線
100
AcDbLine
 10
2198.695355838984
 20
569.6433192083202
 30
0.0
 11
2198.695355838984
 21
635.1433192083202
 31
0.0
  0
LINE
  5
421
330
282
100
AcDbEntity
  8
1外形線
100
AcDbLine
 10
1851.695355838985
 20
495.8538711203407
 30
0.0
 11
1848.695355838985
 21
495.8538711203407
 31
0.0
  0
LINE
  5
422
330
282
100
AcDbEntity
  8
1外形線
100
AcDbLine
 10
1851.695355838985
 20
491.8538711203407
 30
0.0
 11
1848.695355838985
 21
491.8538711203407
 31
0.0
  0
LINE
  5
423
330
282
100
AcDbEntity
  8
1外形線
100
AcDbLine
 10
1845.695355838984
 20
495.8538711203407
 30
0.0
 11
1848.695355838985
 21
495.8538711203407
 31
0.0
  0
LINE
  5
424
330
282
100
AcDbEntity
  8
1外形線
100
AcDbLine
 10
1845.695355838984
 20
491.8538711203407
 30
0.0
 11
1848.695355838985
 21
491.8538711203407
 31
0.0
  0
ARC
  5
425
330
282
100
AcDbEntity
  8
1外形線
100
AcDbCircle
 10
1845.695355838984
 20
493.8538711203403
 30
0.0
 40
2.0
100
AcDbArc
 50
90.0
 51
270.0
  0
ARC
  5
426
330
282
100
AcDbEntity
  8
1外形線
100
AcDbCircle
 10
1851.695355838985
 20
493.8538711203403
 30
0.0
 40
2.0
100
AcDbArc
 50
270.0
 51
90.0
  0
LINE
  5
427
330
282
100
AcDbEntity
  8
1外形線
100
AcDbLine
 10
1951.695355838986
 20
495.8538711203407
 30
0.0
 11
1948.695355838986
 21
495.8538711203407
 31
0.0
  0
LINE
  5
428
330
282
100
AcDbEntity
  8
1外形線
100
AcDbLine
 10
1945.695355838987
 20
495.8538711203407
 30
0.0
 11
1948.695355838986
 21
495.8538711203407
 31
0.0
  0
LINE
  5
429
330
282
100
AcDbEntity
  8
1外形線
100
AcDbLine
 10
1951.695355838986
 20
491.8538711203407
 30
0.0
 11
1948.695355838986
 21
491.8538711203407
 31
0.0
  0
LINE
  5
42A
330
282
100
AcDbEntity
  8
1外形線
100
AcDbLine
 10
1945.695355838987
 20
491.8538711203407
 30
0.0
 11
1948.695355838986
 21
491.8538711203407
 31
0.0
  0
ARC
  5
42B
330
282
100
AcDbEntity
  8
1外形線
100
AcDbCircle
 10
1951.695355838986
 20
493.8538711203403
 30
0.0
 40
2.0
100
AcDbArc
 50
270.0
 51
90.0
  0
ARC
  5
42C
330
282
100
AcDbEntity
  8
1外形線
100
AcDbCircle
 10
1945.695355838987
 20
493.8538711203403
 30
0.0
 40
2.0
100
AcDbArc
 50
90.0
 51
270.0
  0
LINE
  5
42D
330
282
100
AcDbEntity
  8
1外形線
100
AcDbLine
 10
2045.695355838982
 20
491.8538711203559
 30
0.0
 11
2048.695355838981
 21
491.8538711203559
 31
0.0
  0
LINE
  5
42E
330
282
100
AcDbEntity
  8
1外形線
100
AcDbLine
 10
2045.695355838982
 20
495.8538711203559
 30
0.0
 11
2048.695355838981
 21
495.8538711203559
 31
0.0
  0
ARC
  5
42F
330
282
100
AcDbEntity
  8
1外形線
100
AcDbCircle
 10
2045.695355838982
 20
493.8538711203559
 30
0.0
 40
2.0
100
AcDbArc
 50
90.0
 51
270.0
  0
LINE
  5
430
330
282
100
AcDbEntity
  8
1外形線
100
AcDbLine
 10
2051.695355838981
 20
495.8538711203561
 30
0.0
 11
2048.695355838981
 21
495.8538711203559
 31
0.0
  0
LINE
  5
431
330
282
100
AcDbEntity
  8
1外形線
100
AcDbLine
 10
2051.695355838981
 20
491.8538711203559
 30
0.0
 11
2048.695355838981
 21
491.8538711203559
 31
0.0
  0
ARC
  5
432
330
282
100
AcDbEntity
  8
1外形線
100
AcDbCircle
 10
2051.695355838981
 20
493.8538711203561
 30
0.0
 40
2.0
100
AcDbArc
 50
270.0
 51
90.0
  0
LINE
  5
433
330
282
100
AcDbEntity
  8
1外形線
100
AcDbLine
 10
2145.695355838984
 20
495.8538711203579
 30
0.0
 11
2148.695355838984
 21
495.8538711203579
 31
0.0
  0
LINE
  5
434
330
282
100
AcDbEntity
  8
1外形線
100
AcDbLine
 10
2151.695355838984
 20
495.8538711203579
 30
0.0
 11
2148.695355838984
 21
495.8538711203579
 31
0.0
  0
LINE
  5
435
330
282
100
AcDbEntity
  8
1外形線
100
AcDbLine
 10
2145.695355838984
 20
491.8538711203579
 30
0.0
 11
2148.695355838984
 21
491.8538711203579
 31
0.0
  0
LINE
  5
436
330
282
100
AcDbEntity
  8
1外形線
100
AcDbLine
 10
2151.695355838984
 20
491.8538711203579
 30
0.0
 11
2148.695355838984
 21
491.8538711203579
 31
0.0
  0
ARC
  5
437
330
282
100
AcDbEntity
  8
1外形線
100
AcDbCircle
 10
2151.695355838984
 20
493.8538711203579
 30
0.0
 40
2.0
100
AcDbArc
 50
270.0
 51
90.0
  0
ARC
  5
438
330
282
100
AcDbEntity
  8
1外形線
100
AcDbCircle
 10
2145.695355838984
 20
493.8538711203579
 30
0.0
 40
2.0
100
AcDbArc
 50
90.0
 51
270.0
  0
LINE
  5
439
330
282
100
AcDbEntity
  8
1外形線
100
AcDbLine
 10
2198.695355838985
 20
456.3538711203586
 30
0.0
 11
2198.695355838984
 21
531.3538711203587
 31
0.0
  0
LINE
  5
43A
330
282
100
AcDbEntity
  8
1外形線
100
AcDbLine
 10
198.6953558389846
 20
635.1433192083202
 30
0.0
 11
198.6953558389846
 21
569.6433192083202
 31
0.0
  0
LINE
  5
455
330
282
100
AcDbEntity
  8
1外形線
100
AcDbLine
 10
198.6953558389846
 20
531.3538711203404
 30
0.0
 11
198.6953558389846
 21
456.3538711203403
 31
0.0
  0
LINE
  5
456
330
282
100
AcDbEntity
  8
1外形線
100
AcDbLine
 10
751.6953558389874
 20
491.8538711203407
 30
0.0
 11
748.6953558389874
 21
491.8538711203407
 31
0.0
  0
LINE
  5
457
330
282
100
AcDbEntity
  8
1外形線
100
AcDbLine
 10
751.6953558389874
 20
495.8538711203407
 30
0.0
 11
748.6953558389874
 21
495.8538711203407
 31
0.0
  0
ARC
  5
458
330
282
100
AcDbEntity
  8
1外形線
100
AcDbCircle
 10
351.6953558389886
 20
493.8538711203403
 30
0.0
 40
2.0
100
AcDbArc
 50
270.0
 51
90.0
  0
ARC
  5
459
330
282
100
AcDbEntity
  8
1外形線
100
AcDbCircle
 10
345.6953558389888
 20
493.8538711203403
 30
0.0
 40
2.0
100
AcDbArc
 50
90.0
 51
270.0
  0
LINE
  5
45A
330
282
100
AcDbEntity
  8
1外形線
100
AcDbLine
 10
345.6953558389888
 20
491.8538711203407
 30
0.0
 11
348.6953558389886
 21
491.8538711203407
 31
0.0
  0
LINE
  5
45B
330
282
100
AcDbEntity
  8
1外形線
100
AcDbLine
 10
345.6953558389888
 20
495.8538711203407
 30
0.0
 11
348.6953558389886
 21
495.8538711203407
 31
0.0
  0
LINE
  5
45C
330
282
100
AcDbEntity
  8
1外形線
100
AcDbLine
 10
351.6953558389886
 20
491.8538711203407
 30
0.0
 11
348.6953558389886
 21
491.8538711203407
 31
0.0
  0
LINE
  5
45D
330
282
100
AcDbEntity
  8
1外形線
100
AcDbLine
 10
351.6953558389886
 20
495.8538711203407
 30
0.0
 11
348.6953558389886
 21
495.8538711203407
 31
0.0
  0
ARC
  5
45E
330
282
100
AcDbEntity
  8
1外形線
100
AcDbCircle
 10
445.6953558389868
 20
493.8538711203403
 30
0.0
 40
2.0
100
AcDbArc
 50
90.0
 51
270.0
  0
ARC
  5
45F
330
282
100
AcDbEntity
  8
1外形線
100
AcDbCircle
 10
451.6953558389868
 20
493.8538711203403
 30
0.0
 40
2.0
100
AcDbArc
 50
270.0
 51
90.0
  0
LINE
  5
460
330
282
100
AcDbEntity
  8
1外形線
100
AcDbLine
 10
451.6953558389868
 20
491.8538711203407
 30
0.0
 11
448.6953558389862
 21
491.8538711203407
 31
0.0
  0
LINE
  5
461
330
282
100
AcDbEntity
  8
1外形線
100
AcDbLine
 10
445.6953558389868
 20
491.8538711203407
 30
0.0
 11
448.6953558389862
 21
491.8538711203407
 31
0.0
  0
LINE
  5
462
330
282
100
AcDbEntity
  8
1外形線
100
AcDbLine
 10
451.6953558389868
 20
495.8538711203407
 30
0.0
 11
448.6953558389862
 21
495.8538711203407
 31
0.0
  0
LINE
  5
463
330
282
100
AcDbEntity
  8
1外形線
100
AcDbLine
 10
445.6953558389868
 20
495.8538711203407
 30
0.0
 11
448.6953558389862
 21
495.8538711203407
 31
0.0
  0
ARC
  5
464
330
282
100
AcDbEntity
  8
1外形線
100
AcDbCircle
 10
551.6953558389887
 20
493.8538711203403
 30
0.0
 40
2.0
100
AcDbArc
 50
270.0
 51
90.0
  0
ARC
  5
465
330
282
100
AcDbEntity
  8
1外形線
100
AcDbCircle
 10
545.6953558389886
 20
493.8538711203403
 30
0.0
 40
2.0
100
AcDbArc
 50
90.0
 51
270.0
  0
LINE
  5
466
330
282
100
AcDbEntity
  8
1外形線
100
AcDbLine
 10
545.6953558389886
 20
491.8538711203407
 30
0.0
 11
548.6953558389886
 21
491.8538711203407
 31
0.0
  0
LINE
  5
467
330
282
100
AcDbEntity
  8
1外形線
100
AcDbLine
 10
545.6953558389886
 20
495.8538711203407
 30
0.0
 11
548.6953558389886
 21
495.8538711203407
 31
0.0
  0
LINE
  5
468
330
282
100
AcDbEntity
  8
1外形線
100
AcDbLine
 10
551.6953558389887
 20
491.8538711203407
 30
0.0
 11
548.6953558389886
 21
491.8538711203407
 31
0.0
  0
LINE
  5
469
330
282
100
AcDbEntity
  8
1外形線
100
AcDbLine
 10
551.6953558389887
 20
495.8538711203407
 30
0.0
 11
548.6953558389886
 21
495.8538711203407
 31
0.0
  0
ARC
  5
46A
330
282
100
AcDbEntity
  8
1外形線
100
AcDbCircle
 10
645.6953558389868
 20
493.8538711203403
 30
0.0
 40
2.0
100
AcDbArc
 50
90.0
 51
270.0
  0
ARC
  5
46B
330
282
100
AcDbEntity
  8
1外形線
100
AcDbCircle
 10
651.6953558389866
 20
493.8538711203403
 30
0.0
 40
2.0
100
AcDbArc
 50
270.0
 51
90.0
  0
LINE
  5
46C
330
282
100
AcDbEntity
  8
1外形線
100
AcDbLine
 10
651.6953558389866
 20
491.8538711203407
 30
0.0
 11
648.6953558389857
 21
491.8538711203407
 31
0.0
  0
LINE
  5
46D
330
282
100
AcDbEntity
  8
1外形線
100
AcDbLine
 10
645.6953558389868
 20
491.8538711203407
 30
0.0
 11
648.6953558389857
 21
491.8538711203407
 31
0.0
  0
LINE
  5
46E
330
282
100
AcDbEntity
  8
1外形線
100
AcDbLine
 10
651.6953558389866
 20
495.8538711203407
 30
0.0
 11
648.6953558389857
 21
495.8538711203407
 31
0.0
  0
LINE
  5
46F
330
282
100
AcDbEntity
  8
1外形線
100
AcDbLine
 10
645.6953558389868
 20
495.8538711203407
 30
0.0
 11
648.6953558389857
 21
495.8538711203407
 31
0.0
  0
ARC
  5
470
330
282
100
AcDbEntity
  8
1外形線
100
AcDbCircle
 10
745.6953558389876
 20
493.8538711203403
 30
0.0
 40
2.0
100
AcDbArc
 50
90.0
 51
270.0
  0
LINE
  5
471
330
282
100
AcDbEntity
  8
1外形線
100
AcDbLine
 10
745.6953558389876
 20
491.8538711203407
 30
0.0
 11
748.6953558389874
 21
491.8538711203407
 31
0.0
  0
LINE
  5
472
330
282
100
AcDbEntity
  8
1外形線
100
AcDbLine
 10
745.6953558389876
 20
495.8538711203407
 30
0.0
 11
748.6953558389874
 21
495.8538711203407
 31
0.0
  0
ARC
  5
473
330
282
100
AcDbEntity
  8
1外形線
100
AcDbCircle
 10
751.6953558389874
 20
493.8538711203403
 30
0.0
 40
2.0
100
AcDbArc
 50
270.0
 51
90.0
  0
LINE
  5
474
330
282
100
AcDbEntity
  8
1外形線
100
AcDbLine
 10
251.6953558389904
 20
495.8538711203407
 30
0.0
 11
248.6953558389905
 21
495.8538711203407
 31
0.0
  0
LINE
  5
475
330
282
100
AcDbEntity
  8
1外形線
100
AcDbLine
 10
251.6953558389904
 20
491.8538711203407
 30
0.0
 11
248.6953558389905
 21
491.8538711203407
 31
0.0
  0
LINE
  5
476
330
282
100
AcDbEntity
  8
1外形線
100
AcDbLine
 10
245.6953558389904
 20
495.8538711203407
 30
0.0
 11
248.6953558389905
 21
495.8538711203407
 31
0.0
  0
LINE
  5
477
330
282
100
AcDbEntity
  8
1外形線
100
AcDbLine
 10
245.6953558389904
 20
491.8538711203407
 30
0.0
 11
248.6953558389905
 21
491.8538711203407
 31
0.0
  0
ARC
  5
478
330
282
100
AcDbEntity
  8
1外形線
100
AcDbCircle
 10
245.6953558389904
 20
493.8538711203403
 30
0.0
 40
2.0
100
AcDbArc
 50
90.0
 51
270.0
  0
ARC
  5
479
330
282
100
AcDbEntity
  8
1外形線
100
AcDbCircle
 10
251.6953558389904
 20
493.8538711203403
 30
0.0
 40
2.0
100
AcDbArc
 50
270.0
 51
90.0
  0
TEXT
  5
4ED
330
282
100
AcDbEntity
  8
1外形線
100
AcDbText
 10
98.91414180918218
 20
661.7550312782375
 30
0.0
 40
10.0
  1
MD-751
  7
KANJI
100
AcDbText
  0
TEXT
  5
544
330
282
100
AcDbEntity
  8
1外形線
100
AcDbText
 10
98.91414180918218
 20
331.7388931101922
 30
0.0
 40
10.0
  1
MD-851
  7
KANJI
100
AcDbText
  0
LINE
  5
582
330
282
100
AcDbEntity
  8
1外形線
100
AcDbLine
 10
203.6953558389845
 20
216.2754795374134
 30
0.0
 11
2203.695355838984
 21
216.2754795374134
 31
0.0
  0
LINE
  5
587
330
282
100
AcDbEntity
  8
1外形線
100
AcDbLine
 10
203.6953558389845
 20
135.4860314494337
 30
0.0
 11
1203.695355838985
 21
135.4860314494318
 31
0.0
  0
LINE
  5
588
330
282
100
AcDbEntity
  8
1外形線
100
AcDbLine
 10
203.6953558389845
 20
145.4860314494335
 30
0.0
 11
1203.695355838985
 21
145.4860314494335
 31
0.0
  0
LINE
  5
58B
330
282
100
AcDbEntity
  8
1外形線
100
AcDbLine
 10
203.6953558389845
 20
182.9860314494338
 30
0.0
 11
203.6953558389845
 21
97.98603144943378
 31
0.0
  0
LINE
  5
58C
330
282
100
AcDbEntity
  8
1外形線
100
AcDbLine
 10
250.6953558389905
 20
142.4860314494335
 30
0.0
 11
253.6953558389904
 21
142.4860314494335
 31
0.0
  0
LINE
  5
58D
330
282
100
AcDbEntity
  8
1外形線
100
AcDbLine
 10
250.6953558389905
 20
138.4860314494337
 30
0.0
 11
253.6953558389904
 21
138.4860314494337
 31
0.0
  0
ARC
  5
58E
330
282
100
AcDbEntity
  8
1外形線
100
AcDbCircle
 10
250.6953558389905
 20
140.4860314494337
 30
0.0
 40
2.0
100
AcDbArc
 50
90.0
 51
270.0
  0
ARC
  5
58F
330
282
100
AcDbEntity
  8
1外形線
100
AcDbCircle
 10
256.6953558389905
 20
140.4860314494337
 30
0.0
 40
2.0
100
AcDbArc
 50
270.0
 51
90.0
  0
LINE
  5
590
330
282
100
AcDbEntity
  8
1外形線
100
AcDbLine
 10
256.6953558389905
 20
142.4860314494335
 30
0.0
 11
253.6953558389904
 21
142.4860314494335
 31
0.0
  0
LINE
  5
591
330
282
100
AcDbEntity
  8
1外形線
100
AcDbLine
 10
256.6953558389905
 20
138.4860314494337
 30
0.0
 11
253.6953558389904
 21
138.4860314494337
 31
0.0
  0
ARC
  5
592
330
282
100
AcDbEntity
  8
1外形線
100
AcDbCircle
 10
356.6953558389887
 20
140.4860314494337
 30
0.0
 40
2.0
100
AcDbArc
 50
270.0
 51
90.0
  0
ARC
  5
593
330
282
100
AcDbEntity
  8
1外形線
100
AcDbCircle
 10
350.6953558389886
 20
140.4860314494337
 30
0.0
 40
2.0
100
AcDbArc
 50
90.0
 51
270.0
  0
LINE
  5
594
330
282
100
AcDbEntity
  8
1外形線
100
AcDbLine
 10
350.6953558389886
 20
138.4860314494337
 30
0.0
 11
353.6953558389886
 21
138.4860314494337
 31
0.0
  0
LINE
  5
595
330
282
100
AcDbEntity
  8
1外形線
100
AcDbLine
 10
350.6953558389886
 20
142.4860314494335
 30
0.0
 11
353.6953558389886
 21
142.4860314494335
 31
0.0
  0
LINE
  5
596
330
282
100
AcDbEntity
  8
1外形線
100
AcDbLine
 10
356.6953558389887
 20
138.4860314494337
 30
0.0
 11
353.6953558389886
 21
138.4860314494337
 31
0.0
  0
LINE
  5
597
330
282
100
AcDbEntity
  8
1外形線
100
AcDbLine
 10
356.6953558389887
 20
142.4860314494335
 30
0.0
 11
353.6953558389886
 21
142.4860314494335
 31
0.0
  0
LINE
  5
598
330
282
100
AcDbEntity
  8
1外形線
100
AcDbLine
 10
203.6953558389845
 20
286.2754795374136
 30
0.0
 11
203.6953558389845
 21
216.2754795374134
 31
0.0
  0
ARC
  5
599
330
282
100
AcDbEntity
  8
1外形線
100
AcDbCircle
 10
456.6953558389868
 20
140.4860314494337
 30
0.0
 40
2.0
100
AcDbArc
 50
270.0
 51
90.0
  0
LINE
  5
59A
330
282
100
AcDbEntity
  8
1外形線
100
AcDbLine
 10
456.6953558389868
 20
138.4860314494337
 30
0.0
 11
453.6953558389861
 21
138.4860314494337
 31
0.0
  0
LINE
  5
59B
330
282
100
AcDbEntity
  8
1外形線
100
AcDbLine
 10
456.6953558389868
 20
142.4860314494335
 30
0.0
 11
453.6953558389861
 21
142.4860314494335
 31
0.0
  0
ARC
  5
59C
330
282
100
AcDbEntity
  8
1外形線
100
AcDbCircle
 10
450.6953558389866
 20
140.4860314494337
 30
0.0
 40
2.0
100
AcDbArc
 50
90.0
 51
270.0
  0
LINE
  5
59D
330
282
100
AcDbEntity
  8
1外形線
100
AcDbLine
 10
450.6953558389866
 20
138.4860314494337
 30
0.0
 11
453.6953558389861
 21
138.4860314494337
 31
0.0
  0
LINE
  5
59E
330
282
100
AcDbEntity
  8
1外形線
100
AcDbLine
 10
450.6953558389866
 20
142.4860314494335
 30
0.0
 11
453.6953558389861
 21
142.4860314494335
 31
0.0
  0
ARC
  5
59F
330
282
100
AcDbEntity
  8
1外形線
100
AcDbCircle
 10
556.6953558389887
 20
140.4860314494337
 30
0.0
 40
2.0
100
AcDbArc
 50
270.0
 51
90.0
  0
ARC
  5
5A0
330
282
100
AcDbEntity
  8
1外形線
100
AcDbCircle
 10
550.6953558389887
 20
140.4860314494337
 30
0.0
 40
2.0
100
AcDbArc
 50
90.0
 51
270.0
  0
LINE
  5
5A1
330
282
100
AcDbEntity
  8
1外形線
100
AcDbLine
 10
550.6953558389887
 20
138.4860314494337
 30
0.0
 11
553.6953558389886
 21
138.4860314494337
 31
0.0
  0
LINE
  5
5A2
330
282
100
AcDbEntity
  8
1外形線
100
AcDbLine
 10
550.6953558389887
 20
142.4860314494335
 30
0.0
 11
553.6953558389886
 21
142.4860314494335
 31
0.0
  0
LINE
  5
5A3
330
282
100
AcDbEntity
  8
1外形線
100
AcDbLine
 10
556.6953558389887
 20
138.4860314494337
 30
0.0
 11
553.6953558389886
 21
138.4860314494337
 31
0.0
  0
LINE
  5
5A4
330
282
100
AcDbEntity
  8
1外形線
100
AcDbLine
 10
556.6953558389887
 20
142.4860314494335
 30
0.0
 11
553.6953558389886
 21
142.4860314494335
 31
0.0
  0
ARC
  5
5A5
330
282
100
AcDbEntity
  8
1外形線
100
AcDbCircle
 10
656.6953558389866
 20
140.4860314494337
 30
0.0
 40
2.0
100
AcDbArc
 50
270.0
 51
90.0
  0
LINE
  5
5A6
330
282
100
AcDbEntity
  8
1外形線
100
AcDbLine
 10
656.6953558389866
 20
138.4860314494337
 30
0.0
 11
653.695355838986
 21
138.4860314494337
 31
0.0
  0
LINE
  5
5A7
330
282
100
AcDbEntity
  8
1外形線
100
AcDbLine
 10
656.6953558389866
 20
142.4860314494335
 30
0.0
 11
653.695355838986
 21
142.4860314494335
 31
0.0
  0
ARC
  5
5A8
330
282
100
AcDbEntity
  8
1外形線
100
AcDbCircle
 10
650.6953558389867
 20
140.4860314494337
 30
0.0
 40
2.0
100
AcDbArc
 50
90.0
 51
270.0
  0
LINE
  5
5A9
330
282
100
AcDbEntity
  8
1外形線
100
AcDbLine
 10
650.6953558389867
 20
138.4860314494337
 30
0.0
 11
653.695355838986
 21
138.4860314494337
 31
0.0
  0
LINE
  5
5AA
330
282
100
AcDbEntity
  8
1外形線
100
AcDbLine
 10
650.6953558389867
 20
142.4860314494335
 30
0.0
 11
653.695355838986
 21
142.4860314494335
 31
0.0
  0
LINE
  5
5AB
330
282
100
AcDbEntity
  8
1外形線
100
AcDbLine
 10
756.6953558389874
 20
142.4860314494335
 30
0.0
 11
753.6953558389874
 21
142.4860314494335
 31
0.0
  0
LINE
  5
5AC
330
282
100
AcDbEntity
  8
1外形線
100
AcDbLine
 10
756.6953558389874
 20
138.4860314494337
 30
0.0
 11
753.6953558389874
 21
138.4860314494337
 31
0.0
  0
LINE
  5
5AD
330
282
100
AcDbEntity
  8
1外形線
100
AcDbLine
 10
756.6953558389874
 20
138.4860314494337
 30
0.0
 11
753.6953558389874
 21
138.4860314494337
 31
0.0
  0
LINE
  5
5AE
330
282
100
AcDbEntity
  8
1外形線
100
AcDbLine
 10
756.6953558389874
 20
142.4860314494335
 30
0.0
 11
753.6953558389874
 21
142.4860314494335
 31
0.0
  0
LINE
  5
5AF
330
282
100
AcDbEntity
  8
1外形線
100
AcDbLine
 10
750.6953558389874
 20
142.4860314494335
 30
0.0
 11
753.6953558389874
 21
142.4860314494335
 31
0.0
  0
LINE
  5
5B0
330
282
100
AcDbEntity
  8
1外形線
100
AcDbLine
 10
750.6953558389874
 20
138.4860314494337
 30
0.0
 11
753.6953558389874
 21
138.4860314494337
 31
0.0
  0
ARC
  5
5B1
330
282
100
AcDbEntity
  8
1外形線
100
AcDbCircle
 10
750.6953558389874
 20
140.4860314494337
 30
0.0
 40
2.0
100
AcDbArc
 50
90.0
 51
270.0
  0
ARC
  5
5B2
330
282
100
AcDbEntity
  8
1外形線
100
AcDbCircle
 10
750.6953558389874
 20
140.4860314494337
 30
0.0
 40
2.0
100
AcDbArc
 50
90.0
 51
270.0
  0
LINE
  5
5B3
330
282
100
AcDbEntity
  8
1外形線
100
AcDbLine
 10
750.6953558389874
 20
138.4860314494337
 30
0.0
 11
753.6953558389874
 21
138.4860314494337
 31
0.0
  0
LINE
  5
5B4
330
282
100
AcDbEntity
  8
1外形線
100
AcDbLine
 10
750.6953558389874
 20
142.4860314494335
 30
0.0
 11
753.6953558389874
 21
142.4860314494335
 31
0.0
  0
ARC
  5
5B5
330
282
100
AcDbEntity
  8
1外形線
100
AcDbCircle
 10
756.6953558389874
 20
140.4860314494337
 30
0.0
 40
2.0
100
AcDbArc
 50
270.0
 51
90.0
  0
ARC
  5
5B6
330
282
100
AcDbEntity
  8
1外形線
100
AcDbCircle
 10
756.6953558389874
 20
140.4860314494337
 30
0.0
 40
2.0
100
AcDbArc
 50
270.0
 51
90.0
  0
LINE
  5
5B7
330
282
100
AcDbEntity
  8
1外形線
100
AcDbLine
 10
950.6953558389875
 20
142.4860314494335
 30
0.0
 11
953.6953558389875
 21
142.4860314494335
 31
0.0
  0
LINE
  5
5B8
330
282
100
AcDbEntity
  8
1外形線
100
AcDbLine
 10
950.6953558389875
 20
138.4860314494337
 30
0.0
 11
953.6953558389875
 21
138.4860314494337
 31
0.0
  0
LINE
  5
5B9
330
282
100
AcDbEntity
  8
1外形線
100
AcDbLine
 10
850.6953558389854
 20
142.4860314494335
 30
0.0
 11
853.695355838985
 21
142.4860314494335
 31
0.0
  0
LINE
  5
5BA
330
282
100
AcDbEntity
  8
1外形線
100
AcDbLine
 10
856.6953558389853
 20
142.4860314494335
 30
0.0
 11
853.695355838985
 21
142.4860314494335
 31
0.0
  0
LINE
  5
5BB
330
282
100
AcDbEntity
  8
1外形線
100
AcDbLine
 10
850.6953558389854
 20
138.4860314494337
 30
0.0
 11
853.695355838985
 21
138.4860314494337
 31
0.0
  0
LINE
  5
5BC
330
282
100
AcDbEntity
  8
1外形線
100
AcDbLine
 10
856.6953558389853
 20
138.4860314494337
 30
0.0
 11
853.695355838985
 21
138.4860314494337
 31
0.0
  0
ARC
  5
5BD
330
282
100
AcDbEntity
  8
1外形線
100
AcDbCircle
 10
856.6953558389853
 20
140.4860314494337
 30
0.0
 40
2.0
100
AcDbArc
 50
270.0
 51
90.0
  0
ARC
  5
5BE
330
282
100
AcDbEntity
  8
1外形線
100
AcDbCircle
 10
850.6953558389854
 20
140.4860314494337
 30
0.0
 40
2.0
100
AcDbArc
 50
90.0
 51
270.0
  0
ARC
  5
5BF
330
282
100
AcDbEntity
  8
1外形線
100
AcDbCircle
 10
950.6953558389875
 20
140.4860314494337
 30
0.0
 40
2.0
100
AcDbArc
 50
90.0
 51
270.0
  0
LINE
  5
5C0
330
282
100
AcDbEntity
  8
1外形線
100
AcDbLine
 10
956.6953558389876
 20
142.4860314494335
 30
0.0
 11
953.6953558389875
 21
142.4860314494335
 31
0.0
  0
LINE
  5
5C1
330
282
100
AcDbEntity
  8
1外形線
100
AcDbLine
 10
956.6953558389876
 20
138.4860314494337
 30
0.0
 11
953.6953558389875
 21
138.4860314494337
 31
0.0
  0
ARC
  5
5C2
330
282
100
AcDbEntity
  8
1外形線
100
AcDbCircle
 10
956.6953558389876
 20
140.4860314494337
 30
0.0
 40
2.0
100
AcDbArc
 50
270.0
 51
90.0
  0
LINE
  5
5C3
330
282
100
AcDbEntity
  8
1外形線
100
AcDbLine
 10
1050.695355838985
 20
142.4860314494335
 30
0.0
 11
1053.695355838984
 21
142.4860314494335
 31
0.0
  0
LINE
  5
5C4
330
282
100
AcDbEntity
  8
1外形線
100
AcDbLine
 10
1056.695355838985
 20
142.4860314494335
 30
0.0
 11
1053.695355838984
 21
142.4860314494335
 31
0.0
  0
LINE
  5
5C5
330
282
100
AcDbEntity
  8
1外形線
100
AcDbLine
 10
1050.695355838985
 20
138.4860314494337
 30
0.0
 11
1053.695355838984
 21
138.4860314494337
 31
0.0
  0
LINE
  5
5C6
330
282
100
AcDbEntity
  8
1外形線
100
AcDbLine
 10
1056.695355838985
 20
138.4860314494337
 30
0.0
 11
1053.695355838984
 21
138.4860314494337
 31
0.0
  0
ARC
  5
5C7
330
282
100
AcDbEntity
  8
1外形線
100
AcDbCircle
 10
1056.695355838985
 20
140.4860314494337
 30
0.0
 40
2.0
100
AcDbArc
 50
270.0
 51
90.0
  0
ARC
  5
5C8
330
282
100
AcDbEntity
  8
1外形線
100
AcDbCircle
 10
1050.695355838985
 20
140.4860314494337
 30
0.0
 40
2.0
100
AcDbArc
 50
90.0
 51
270.0
  0
LINE
  5
5C9
330
282
100
AcDbEntity
  8
1外形線
100
AcDbLine
 10
2203.695355838985
 20
97.98603144943378
 30
0.0
 11
2203.695355838984
 21
182.9860314494338
 31
0.0
  0
LINE
  5
5CA
330
282
100
AcDbEntity
  8
1外形線
100
AcDbLine
 10
2203.695355838984
 20
135.4860314494519
 30
0.0
 11
1203.695355838985
 21
135.4860314494318
 31
0.0
  0
LINE
  5
5CB
330
282
100
AcDbEntity
  8
1外形線
100
AcDbLine
 10
2203.695355838984
 20
145.4860314494519
 30
0.0
 11
1203.695355838985
 21
145.4860314494335
 31
0.0
  0
LINE
  5
5CC
330
282
100
AcDbEntity
  8
1外形線
100
AcDbLine
 10
1150.695355838986
 20
142.4860314494335
 30
0.0
 11
1153.695355838985
 21
142.4860314494335
 31
0.0
  0
LINE
  5
5CD
330
282
100
AcDbEntity
  8
1外形線
100
AcDbLine
 10
1150.695355838986
 20
138.4860314494337
 30
0.0
 11
1153.695355838985
 21
138.4860314494337
 31
0.0
  0
ARC
  5
5CE
330
282
100
AcDbEntity
  8
1外形線
100
AcDbCircle
 10
1150.695355838986
 20
140.4860314494337
 30
0.0
 40
2.0
100
AcDbArc
 50
90.0
 51
270.0
  0
ARC
  5
5CF
330
282
100
AcDbEntity
  8
1外形線
100
AcDbCircle
 10
1156.695355838986
 20
140.4860314494337
 30
0.0
 40
2.0
100
AcDbArc
 50
270.0
 51
90.0
  0
LINE
  5
5D0
330
282
100
AcDbEntity
  8
1外形線
100
AcDbLine
 10
1156.695355838986
 20
142.4860314494335
 30
0.0
 11
1153.695355838985
 21
142.4860314494335
 31
0.0
  0
LINE
  5
5D1
330
282
100
AcDbEntity
  8
1外形線
100
AcDbLine
 10
1156.695355838986
 20
138.4860314494337
 30
0.0
 11
1153.695355838985
 21
138.4860314494337
 31
0.0
  0
LINE
  5
5D2
330
282
100
AcDbEntity
  8
1外形線
100
AcDbLine
 10
1250.695355838985
 20
142.4860314494335
 30
0.0
 11
1253.695355838985
 21
142.4860314494335
 31
0.0
  0
LINE
  5
5D3
330
282
100
AcDbEntity
  8
1外形線
100
AcDbLine
 10
1256.695355838985
 20
142.4860314494335
 30
0.0
 11
1253.695355838985
 21
142.4860314494335
 31
0.0
  0
LINE
  5
5D4
330
282
100
AcDbEntity
  8
1外形線
100
AcDbLine
 10
1250.695355838985
 20
138.4860314494337
 30
0.0
 11
1253.695355838985
 21
138.4860314494337
 31
0.0
  0
LINE
  5
5D5
330
282
100
AcDbEntity
  8
1外形線
100
AcDbLine
 10
1256.695355838985
 20
138.4860314494337
 30
0.0
 11
1253.695355838985
 21
138.4860314494337
 31
0.0
  0
ARC
  5
5D6
330
282
100
AcDbEntity
  8
1外形線
100
AcDbCircle
 10
1256.695355838985
 20
140.4860314494337
 30
0.0
 40
2.0
100
AcDbArc
 50
270.0
 51
90.0
  0
ARC
  5
5D7
330
282
100
AcDbEntity
  8
1外形線
100
AcDbCircle
 10
1250.695355838985
 20
140.4860314494337
 30
0.0
 40
2.0
100
AcDbArc
 50
90.0
 51
270.0
  0
LINE
  5
5D8
330
282
100
AcDbEntity
  8
1外形線
100
AcDbLine
 10
1356.695355838986
 20
142.4860314494335
 30
0.0
 11
1353.695355838985
 21
142.4860314494335
 31
0.0
  0
LINE
  5
5D9
330
282
100
AcDbEntity
  8
1外形線
100
AcDbLine
 10
1356.695355838986
 20
138.4860314494337
 30
0.0
 11
1353.695355838985
 21
138.4860314494337
 31
0.0
  0
ARC
  5
5DA
330
282
100
AcDbEntity
  8
1外形線
100
AcDbCircle
 10
1356.695355838986
 20
140.4860314494337
 30
0.0
 40
2.0
100
AcDbArc
 50
270.0
 51
90.0
  0
ARC
  5
5DB
330
282
100
AcDbEntity
  8
1外形線
100
AcDbCircle
 10
1350.695355838986
 20
140.4860314494337
 30
0.0
 40
2.0
100
AcDbArc
 50
90.0
 51
270.0
  0
LINE
  5
5DC
330
282
100
AcDbEntity
  8
1外形線
100
AcDbLine
 10
1350.695355838986
 20
142.4860314494335
 30
0.0
 11
1353.695355838985
 21
142.4860314494335
 31
0.0
  0
LINE
  5
5DD
330
282
100
AcDbEntity
  8
1外形線
100
AcDbLine
 10
1350.695355838986
 20
138.4860314494337
 30
0.0
 11
1353.695355838985
 21
138.4860314494337
 31
0.0
  0
ARC
  5
5DE
330
282
100
AcDbEntity
  8
1外形線
100
AcDbCircle
 10
1456.695355838984
 20
140.4860314494337
 30
0.0
 40
2.0
100
AcDbArc
 50
270.0
 51
90.0
  0
LINE
  5
5DF
330
282
100
AcDbEntity
  8
1外形線
100
AcDbLine
 10
1450.695355838985
 20
142.4860314494335
 30
0.0
 11
1453.695355838985
 21
142.4860314494335
 31
0.0
  0
LINE
  5
5E0
330
282
100
AcDbEntity
  8
1外形線
100
AcDbLine
 10
1456.695355838984
 20
142.4860314494335
 30
0.0
 11
1453.695355838985
 21
142.4860314494335
 31
0.0
  0
LINE
  5
5E1
330
282
100
AcDbEntity
  8
1外形線
100
AcDbLine
 10
1450.695355838985
 20
138.4860314494337
 30
0.0
 11
1453.695355838985
 21
138.4860314494337
 31
0.0
  0
LINE
  5
5E2
330
282
100
AcDbEntity
  8
1外形線
100
AcDbLine
 10
1456.695355838984
 20
138.4860314494337
 30
0.0
 11
1453.695355838985
 21
138.4860314494337
 31
0.0
  0
ARC
  5
5E3
330
282
100
AcDbEntity
  8
1外形線
100
AcDbCircle
 10
1450.695355838985
 20
140.4860314494337
 30
0.0
 40
2.0
100
AcDbArc
 50
90.0
 51
270.0
  0
LINE
  5
5E4
330
282
100
AcDbEntity
  8
1外形線
100
AcDbLine
 10
1656.695355838985
 20
142.4860314494335
 30
0.0
 11
1653.695355838985
 21
142.4860314494335
 31
0.0
  0
LINE
  5
5E5
330
282
100
AcDbEntity
  8
1外形線
100
AcDbLine
 10
1656.695355838985
 20
138.4860314494337
 30
0.0
 11
1653.695355838985
 21
138.4860314494337
 31
0.0
  0
LINE
  5
5E6
330
282
100
AcDbEntity
  8
1外形線
100
AcDbLine
 10
1556.695355838987
 20
142.4860314494335
 30
0.0
 11
1553.695355838986
 21
142.4860314494335
 31
0.0
  0
LINE
  5
5E7
330
282
100
AcDbEntity
  8
1外形線
100
AcDbLine
 10
1556.695355838987
 20
138.4860314494337
 30
0.0
 11
1553.695355838986
 21
138.4860314494337
 31
0.0
  0
ARC
  5
5E8
330
282
100
AcDbEntity
  8
1外形線
100
AcDbCircle
 10
1556.695355838987
 20
140.4860314494337
 30
0.0
 40
2.0
100
AcDbArc
 50
270.0
 51
90.0
  0
ARC
  5
5E9
330
282
100
AcDbEntity
  8
1外形線
100
AcDbCircle
 10
1550.695355838985
 20
140.4860314494337
 30
0.0
 40
2.0
100
AcDbArc
 50
90.0
 51
270.0
  0
LINE
  5
5EA
330
282
100
AcDbEntity
  8
1外形線
100
AcDbLine
 10
1550.695355838985
 20
142.4860314494335
 30
0.0
 11
1553.695355838986
 21
142.4860314494335
 31
0.0
  0
LINE
  5
5EB
330
282
100
AcDbEntity
  8
1外形線
100
AcDbLine
 10
1550.695355838985
 20
138.4860314494337
 30
0.0
 11
1553.695355838986
 21
138.4860314494337
 31
0.0
  0
LINE
  5
5EC
330
282
100
AcDbEntity
  8
1外形線
100
AcDbLine
 10
1650.695355838984
 20
142.4860314494335
 30
0.0
 11
1653.695355838985
 21
142.4860314494335
 31
0.0
  0
LINE
  5
5ED
330
282
100
AcDbEntity
  8
1外形線
100
AcDbLine
 10
1650.695355838984
 20
138.4860314494337
 30
0.0
 11
1653.695355838985
 21
138.4860314494337
 31
0.0
  0
ARC
  5
5EE
330
282
100
AcDbEntity
  8
1外形線
100
AcDbCircle
 10
1650.695355838984
 20
140.4860314494337
 30
0.0
 40
2.0
100
AcDbArc
 50
90.0
 51
270.0
  0
ARC
  5
5EF
330
282
100
AcDbEntity
  8
1外形線
100
AcDbCircle
 10
1656.695355838985
 20
140.4860314494337
 30
0.0
 40
2.0
100
AcDbArc
 50
270.0
 51
90.0
  0
LINE
  5
5F0
330
282
100
AcDbEntity
  8
1外形線
100
AcDbLine
 10
1750.695355838987
 20
142.4860314494335
 30
0.0
 11
1753.695355838986
 21
142.4860314494335
 31
0.0
  0
LINE
  5
5F1
330
282
100
AcDbEntity
  8
1外形線
100
AcDbLine
 10
1756.695355838987
 20
142.4860314494335
 30
0.0
 11
1753.695355838986
 21
142.4860314494335
 31
0.0
  0
LINE
  5
5F2
330
282
100
AcDbEntity
  8
1外形線
100
AcDbLine
 10
1750.695355838987
 20
138.4860314494337
 30
0.0
 11
1753.695355838986
 21
138.4860314494337
 31
0.0
  0
LINE
  5
5F3
330
282
100
AcDbEntity
  8
1外形線
100
AcDbLine
 10
1756.695355838987
 20
138.4860314494337
 30
0.0
 11
1753.695355838986
 21
138.4860314494337
 31
0.0
  0
ARC
  5
5F4
330
282
100
AcDbEntity
  8
1外形線
100
AcDbCircle
 10
1756.695355838987
 20
140.4860314494337
 30
0.0
 40
2.0
100
AcDbArc
 50
270.0
 51
90.0
  0
ARC
  5
5F5
330
282
100
AcDbEntity
  8
1外形線
100
AcDbCircle
 10
1750.695355838987
 20
140.4860314494337
 30
0.0
 40
2.0
100
AcDbArc
 50
90.0
 51
270.0
  0
LINE
  5
5F6
330
282
100
AcDbEntity
  8
1外形線
100
AcDbLine
 10
1850.695355838984
 20
142.4860314494335
 30
0.0
 11
1853.695355838985
 21
142.4860314494335
 31
0.0
  0
LINE
  5
5F7
330
282
100
AcDbEntity
  8
1外形線
100
AcDbLine
 10
1850.695355838984
 20
138.4860314494337
 30
0.0
 11
1853.695355838985
 21
138.4860314494337
 31
0.0
  0
ARC
  5
5F8
330
282
100
AcDbEntity
  8
1外形線
100
AcDbCircle
 10
1850.695355838984
 20
140.4860314494337
 30
0.0
 40
2.0
100
AcDbArc
 50
90.0
 51
270.0
  0
LINE
  5
5F9
330
282
100
AcDbEntity
  8
1外形線
100
AcDbLine
 10
1856.695355838985
 20
142.4860314494335
 30
0.0
 11
1853.695355838985
 21
142.4860314494335
 31
0.0
  0
LINE
  5
5FA
330
282
100
AcDbEntity
  8
1外形線
100
AcDbLine
 10
1856.695355838985
 20
138.4860314494337
 30
0.0
 11
1853.695355838985
 21
138.4860314494337
 31
0.0
  0
ARC
  5
5FB
330
282
100
AcDbEntity
  8
1外形線
100
AcDbCircle
 10
1856.695355838985
 20
140.4860314494337
 30
0.0
 40
2.0
100
AcDbArc
 50
270.0
 51
90.0
  0
LINE
  5
5FC
330
282
100
AcDbEntity
  8
1外形線
100
AcDbLine
 10
1956.695355838985
 20
142.4860314494335
 30
0.0
 11
1953.695355838986
 21
142.4860314494335
 31
0.0
  0
LINE
  5
5FD
330
282
100
AcDbEntity
  8
1外形線
100
AcDbLine
 10
1950.695355838987
 20
142.4860314494335
 30
0.0
 11
1953.695355838986
 21
142.4860314494335
 31
0.0
  0
LINE
  5
5FE
330
282
100
AcDbEntity
  8
1外形線
100
AcDbLine
 10
1956.695355838985
 20
138.4860314494337
 30
0.0
 11
1953.695355838986
 21
138.4860314494337
 31
0.0
  0
LINE
  5
5FF
330
282
100
AcDbEntity
  8
1外形線
100
AcDbLine
 10
1950.695355838987
 20
138.4860314494337
 30
0.0
 11
1953.695355838986
 21
138.4860314494337
 31
0.0
  0
ARC
  5
600
330
282
100
AcDbEntity
  8
1外形線
100
AcDbCircle
 10
1956.695355838985
 20
140.4860314494337
 30
0.0
 40
2.0
100
AcDbArc
 50
270.0
 51
90.0
  0
ARC
  5
601
330
282
100
AcDbEntity
  8
1外形線
100
AcDbCircle
 10
1950.695355838987
 20
140.4860314494337
 30
0.0
 40
2.0
100
AcDbArc
 50
90.0
 51
270.0
  0
LINE
  5
602
330
282
100
AcDbEntity
  8
1外形線
100
AcDbLine
 10
2050.695355838981
 20
138.4860314494489
 30
0.0
 11
2053.695355838982
 21
138.486031449449
 31
0.0
  0
LINE
  5
603
330
282
100
AcDbEntity
  8
1外形線
100
AcDbLine
 10
2050.695355838981
 20
142.4860314494489
 30
0.0
 11
2053.695355838982
 21
142.4860314494492
 31
0.0
  0
ARC
  5
604
330
282
100
AcDbEntity
  8
1外形線
100
AcDbCircle
 10
2050.695355838981
 20
140.486031449449
 30
0.0
 40
2.0
100
AcDbArc
 50
90.0
 51
270.0
  0
ARC
  5
605
330
282
100
AcDbEntity
  8
1外形線
100
AcDbCircle
 10
2056.695355838982
 20
140.4860314494492
 30
0.0
 40
2.0
100
AcDbArc
 50
270.0
 51
90.0
  0
LINE
  5
606
330
282
100
AcDbEntity
  8
1外形線
100
AcDbLine
 10
2056.695355838982
 20
142.4860314494493
 30
0.0
 11
2053.695355838982
 21
142.4860314494492
 31
0.0
  0
LINE
  5
607
330
282
100
AcDbEntity
  8
1外形線
100
AcDbLine
 10
2056.695355838982
 20
138.486031449449
 30
0.0
 11
2053.695355838982
 21
138.486031449449
 31
0.0
  0
LINE
  5
608
330
282
100
AcDbEntity
  8
1外形線
100
AcDbLine
 10
2150.695355838984
 20
142.486031449451
 30
0.0
 11
2153.695355838984
 21
142.486031449451
 31
0.0
  0
LINE
  5
609
330
282
100
AcDbEntity
  8
1外形線
100
AcDbLine
 10
2156.695355838984
 20
142.4860314494511
 30
0.0
 11
2153.695355838984
 21
142.486031449451
 31
0.0
  0
LINE
  5
60A
330
282
100
AcDbEntity
  8
1外形線
100
AcDbLine
 10
2150.695355838984
 20
138.486031449451
 30
0.0
 11
2153.695355838984
 21
138.486031449451
 31
0.0
  0
LINE
  5
60B
330
282
100
AcDbEntity
  8
1外形線
100
AcDbLine
 10
2156.695355838984
 20
138.4860314494511
 30
0.0
 11
2153.695355838984
 21
138.486031449451
 31
0.0
  0
ARC
  5
60C
330
282
100
AcDbEntity
  8
1外形線
100
AcDbCircle
 10
2156.695355838984
 20
140.4860314494511
 30
0.0
 40
2.0
100
AcDbArc
 50
270.0
 51
90.0
  0
ARC
  5
60D
330
282
100
AcDbEntity
  8
1外形線
100
AcDbCircle
 10
2150.695355838984
 20
140.486031449451
 30
0.0
 40
2.0
100
AcDbArc
 50
90.0
 51
270.0
  0
LINE
  5
60E
330
282
100
AcDbEntity
  8
1外形線
100
AcDbLine
 10
2203.695355838984
 20
216.2754795374134
 30
0.0
 11
2203.695355838984
 21
286.2754795374136
 31
0.0
  0
LINE
  5
60F
330
282
100
AcDbEntity
  8
1外形線
100
AcDbLine
 10
203.6953558389845
 20
286.2754795374136
 30
0.0
 11
2203.695355838984
 21
286.2754795374136
 31
0.0
  0
LINE
  5
610
330
282
100
AcDbEntity
  8
1外形線
100
AcDbLine
 10
203.6953558389845
 20
271.199781671276
 30
0.0
 11
2203.695355838984
 21
271.199781671276
 31
0.0
  0
LINE
  5
668
330
282
100
AcDbEntity
  8
1外形線
100
AcDbLine
 10
203.6953558389845
 20
97.98603144943378
 30
0.0
 11
2203.695355838985
 21
97.98603144943378
 31
0.0
  0
LINE
  5
66A
330
282
100
AcDbEntity
  8
1外形線
100
AcDbLine
 10
203.6953558389845
 20
182.9860314494338
 30
0.0
 11
2203.695355838984
 21
182.9860314494338
 31
0.0
  0
LINE
  5
66C
330
282
100
AcDbEntity
  8
1外形線
100
AcDbLine
 10
2248.225285297567
 20
43.56663879534107
 30
0.0
 11
43.22528529756708
 21
43.56663879534107
 31
0.0
  0
LINE
  5
78F
330
282
100
AcDbEntity
  8
1外形線
100
AcDbLine
 10
128.1953558389845
 20
219.975479537376
 30
0.0
 11
128.1953558389845
 21
218.475479537376
 31
0.0
  0
LINE
  5
790
330
282
100
AcDbEntity
  8
1外形線
100
AcDbLine
 10
124.1953558389845
 20
219.975479537376
 30
0.0
 11
124.1953558389845
 21
218.475479537376
 31
0.0
  0
LINE
  5
791
330
282
100
AcDbEntity
  8
1外形線
100
AcDbLine
 10
124.1953558389845
 20
218.475479537376
 30
0.0
 11
126.1953558389845
 21
218.475479537376
 31
0.0
  0
LINE
  5
792
330
282
100
AcDbEntity
  8
1外形線
100
AcDbLine
 10
128.1953558389845
 20
218.475479537376
 30
0.0
 11
126.1953558389845
 21
218.475479537376
 31
0.0
  0
LINE
  5
79E
330
282
100
AcDbEntity
  8
1外形線
100
AcDbLine
 10
203.6953558389845
 20
251.174497325698
 30
0.0
 11
2203.695355838984
 21
251.174497325698
 31
0.0
  0
ARC
  5
818
330
282
100
AcDbEntity
  8
1外形線
 48
3.0
100
AcDbCircle
 10
118.5953558389832
 20
572.1433192083208
 30
0.0
 40
1.0
100
AcDbArc
 50
270.0
 51
0.0
  0
LINE
  5
819
330
282
100
AcDbEntity
  8
1外形線
 48
3.0
100
AcDbLine
 10
89.71293894334522
 20
569.6433192083202
 30
0.0
 11
120.6953558389836
 21
569.6433192083207
 31
0.0
  0
LINE
  5
81A
330
282
100
AcDbEntity
  8
1外形線
 48
3.0
100
AcDbLine
 10
118.6953558389836
 20
575.1433192083208
 30
0.0
 11
120.8953558389834
 21
575.1433192083208
 31
0.0
  0
LINE
  5
81B
330
282
100
AcDbEntity
  8
1外形線
 48
3.0
100
AcDbLine
 10
119.5953558389832
 20
573.3433192083206
 30
0.0
 11
118.6953558389836
 21
573.3433192083201
 31
0.0
  0
LINE
  5
81C
330
282
100
AcDbEntity
  8
1外形線
 48
3.0
100
AcDbLine
 10
100.766423651104
 20
633.3433192083337
 30
0.0
 11
126.1953558389836
 21
633.3433192083206
 31
0.0
  0
LINE
  5
81D
330
282
100
AcDbEntity
  8
1外形線
 48
3.0
100
AcDbLine
 10
100.766423651104
 20
634.6433192083208
 30
0.0
 11
126.1953558389836
 21
634.6433192083208
 31
0.0
  0
LINE
  5
820
330
282
100
AcDbEntity
  8
1外形線
 48
3.0
100
AcDbLine
 10
91.03928321754612
 20
571.1433192083202
 30
0.0
 11
118.5953558389832
 21
571.1433192083208
 31
0.0
  0
ARC
  5
821
330
282
100
AcDbEntity
  8
1外形線
 48
3.0
100
AcDbCircle
 10
91.03928321754612
 20
572.1433192083202
 30
0.0
 40
1.0
100
AcDbArc
 50
179.0013673641475
 51
270.0
  0
LINE
  5
822
330
282
100
AcDbEntity
  8
1外形線
 48
3.0
100
AcDbLine
 10
118.6953558389836
 20
575.1433192083208
 30
0.0
 11
118.6953558389836
 21
573.3433192083201
 31
0.0
  0
ARC
  5
823
330
282
100
AcDbEntity
  8
1外形線
 48
3.0
100
AcDbCircle
 10
89.71293894334522
 20
570.6433192083202
 30
0.0
 40
1.0
100
AcDbArc
 50
179.0013673641475
 51
270.0
  0
LINE
  5
846
330
282
100
AcDbEntity
  8
1外形線
 48
3.0
100
AcDbLine
 10
162.677772734622
 20
569.6433192083202
 30
0.0
 11
131.6953558389836
 21
569.6433192083207
 31
0.0
  0
LINE
  5
847
330
282
100
AcDbEntity
  8
1外形線
 48
3.0
100
AcDbLine
 10
161.3514284604211
 20
571.1433192083202
 30
0.0
 11
133.7953558389839
 21
571.1433192083208
 31
0.0
  0
LINE
  5
848
330
282
100
AcDbEntity
  8
1外形線
 48
3.0
100
AcDbLine
 10
133.6953558389836
 20
575.1433192083208
 30
0.0
 11
133.6953558389836
 21
573.3433192083201
 31
0.0
  0
LINE
  5
849
330
282
100
AcDbEntity
  8
1外形線
 48
3.0
100
AcDbLine
 10
132.7953558389839
 20
573.3433192083206
 30
0.0
 11
133.6953558389836
 21
573.3433192083201
 31
0.0
  0
LINE
  5
84A
330
282
100
AcDbEntity
  8
1外形線
 48
3.0
100
AcDbLine
 10
131.4953558389838
 20
576.1433192083208
 30
0.0
 11
130.4953558389838
 21
575.1433192083208
 31
0.0
  0
LINE
  5
84B
330
282
100
AcDbEntity
  8
1外形線
 48
3.0
100
AcDbLine
 10
131.4953558389838
 20
576.1433192083208
 30
0.0
 11
131.4953558389838
 21
575.1433192083208
 31
0.0
  0
LINE
  5
84C
330
282
100
AcDbEntity
  8
1外形線
 48
3.0
100
AcDbLine
 10
133.6953558389836
 20
575.1433192083208
 30
0.0
 11
131.4953558389838
 21
575.1433192083208
 31
0.0
  0
LINE
  5
84D
330
282
100
AcDbEntity
  8
1外形線
 48
3.0
100
AcDbLine
 10
130.4953558389838
 20
575.1433192083208
 30
0.0
 11
126.6953558389836
 21
575.1433192083208
 31
0.0
  0
ARC
  5
84E
330
282
100
AcDbEntity
  8
1外形線
 48
3.0
100
AcDbCircle
 10
126.1953558389836
 20
575.1433192083208
 30
0.0
 40
0.5
100
AcDbArc
 50
0.0
 51
90.0
  0
ARC
  5
84F
330
282
100
AcDbEntity
  8
1外形線
 48
3.0
100
AcDbCircle
 10
131.6953558389836
 20
570.1433192083207
 30
0.0
 40
0.5
100
AcDbArc
 50
180.0
 51
269.9999999999984
  0
ARC
  5
850
330
282
100
AcDbEntity
  8
1外形線
 48
3.0
100
AcDbCircle
 10
133.7953558389839
 20
572.1433192083208
 30
0.0
 40
1.0
100
AcDbArc
 50
180.0
 51
269.9999999999984
  0
LINE
  5
851
330
282
100
AcDbEntity
  8
1外形線
 48
3.0
100
AcDbLine
 10
132.7953558389839
 20
573.3433192083206
 30
0.0
 11
132.7953558389839
 21
572.1433192083208
 31
0.0
  0
ARC
  5
852
330
282
100
AcDbEntity
  8
1外形線
 48
3.0
100
AcDbCircle
 10
130.6953558389836
 20
572.8433192083206
 30
0.0
 40
0.5
100
AcDbArc
 50
0.0
 51
90.0
  0
LINE
  5
853
330
282
100
AcDbEntity
  8
1外形線
 48
3.0
100
AcDbLine
 10
131.1953558389836
 20
572.8433192083206
 30
0.0
 11
131.1953558389836
 21
570.1433192083207
 31
0.0
  0
LINE
  5
854
330
282
100
AcDbEntity
  8
1外形線
 48
3.0
100
AcDbLine
 10
130.6953558389836
 20
573.3433192083206
 30
0.0
 11
126.1953558389836
 21
573.3433192083206
 31
0.0
  0
LINE
  5
855
330
282
100
AcDbEntity
  8
1外形線
 48
3.0
100
AcDbLine
 10
121.6953558389836
 20
573.3433192083206
 30
0.0
 11
126.1953558389836
 21
573.3433192083206
 31
0.0
  0
LINE
  5
856
330
282
100
AcDbEntity
  8
1外形線
 48
3.0
100
AcDbLine
 10
121.1953558389836
 20
572.8433192083206
 30
0.0
 11
121.1953558389836
 21
570.1433192083207
 31
0.0
  0
ARC
  5
857
330
282
100
AcDbEntity
  8
1外形線
 48
3.0
100
AcDbCircle
 10
121.6953558389836
 20
572.8433192083206
 30
0.0
 40
0.5
100
AcDbArc
 50
90.0
 51
180.0
  0
LINE
  5
858
330
282
100
AcDbEntity
  8
1外形線
 48
3.0
100
AcDbLine
 10
119.5953558389832
 20
573.3433192083206
 30
0.0
 11
119.5953558389832
 21
572.1433192083208
 31
0.0
  0
ARC
  5
859
330
282
100
AcDbEntity
  8
1外形線
 48
3.0
100
AcDbCircle
 10
120.6953558389836
 20
570.1433192083207
 30
0.0
 40
0.5
100
AcDbArc
 50
270.0
 51
0.0
  0
ARC
  5
85A
330
282
100
AcDbEntity
  8
1外形線
 48
3.0
100
AcDbCircle
 10
126.1953558389836
 20
575.1433192083208
 30
0.0
 40
0.5
100
AcDbArc
 50
90.0
 51
180.0
  0
LINE
  5
85B
330
282
100
AcDbEntity
  8
1外形線
 48
3.0
100
AcDbLine
 10
121.8953558389834
 20
575.1433192083208
 30
0.0
 11
125.6953558389836
 21
575.1433192083208
 31
0.0
  0
LINE
  5
85C
330
282
100
AcDbEntity
  8
1外形線
 48
3.0
100
AcDbLine
 10
120.8953558389834
 20
576.1433192083208
 30
0.0
 11
120.8953558389834
 21
575.1433192083208
 31
0.0
  0
LINE
  5
85D
330
282
100
AcDbEntity
  8
1外形線
 48
3.0
100
AcDbLine
 10
120.8953558389834
 20
576.1433192083208
 30
0.0
 11
121.8953558389834
 21
575.1433192083208
 31
0.0
  0
ARC
  5
85E
330
282
100
AcDbEntity
  8
1外形線
 48
3.0
100
AcDbCircle
 10
162.677772734622
 20
570.6433192083202
 30
0.0
 40
1.0
100
AcDbArc
 50
269.9999999999984
 51
0.9986326358525293
  0
ARC
  5
85F
330
282
100
AcDbEntity
  8
1外形線
 48
3.0
100
AcDbCircle
 10
161.3514284604211
 20
572.1433192083202
 30
0.0
 40
1.0
100
AcDbArc
 50
269.9999999999984
 51
0.9986326358525293
  0
LINE
  5
860
330
282
100
AcDbEntity
  8
1外形線
 48
3.0
100
AcDbLine
 10
151.6242880268624
 20
634.6433192083197
 30
0.0
 11
126.1953558389836
 21
634.6433192083208
 31
0.0
  0
LINE
  5
861
330
282
100
AcDbEntity
  8
1外形線
 48
3.0
100
AcDbLine
 10
151.6242880268622
 20
633.3433192083194
 30
0.0
 11
126.1953558389836
 21
633.3433192083206
 31
0.0
  0
LINE
  5
882
330
282
100
AcDbEntity
  8
1外形線
 48
3.0
100
AcDbLine
 10
128.1953558389854
 20
573.3433192083207
 30
0.0
 11
128.1953558389845
 21
571.8433192083207
 31
0.0
  0
LINE
  5
883
330
282
100
AcDbEntity
  8
1外形線
 48
3.0
100
AcDbLine
 10
128.1953558389845
 20
571.8433192083207
 30
0.0
 11
126.1953558389845
 21
571.8433192083206
 31
0.0
  0
LINE
  5
884
330
282
100
AcDbEntity
  8
1外形線
 48
3.0
100
AcDbLine
 10
124.1953558389845
 20
571.8433192083207
 30
0.0
 11
126.1953558389845
 21
571.8433192083206
 31
0.0
  0
LINE
  5
885
330
282
100
AcDbEntity
  8
1外形線
 48
3.0
100
AcDbLine
 10
124.1953558389836
 20
573.3433192083207
 30
0.0
 11
124.1953558389845
 21
571.8433192083207
 31
0.0
  0
LINE
  5
9DE
330
282
100
AcDbEntity
  8
1外形線
 48
3.0
100
AcDbLine
 10
89.99535583934845
 20
598.8209349981964
 30
0.0
 11
89.99535583933573
 21
572.1433192089282
 31
0.0
  0
LINE
  5
9DF
330
282
100
AcDbEntity
  8
1外形線
 48
3.0
100
AcDbLine
 10
88.69535583936011
 20
600.8593235946229
 30
0.0
 11
88.69535583934739
 21
570.6433192089438
 31
0.0
  0
LINE
  5
9E0
330
282
100
AcDbEntity
  8
1外形線
 48
3.0
100
AcDbLine
 10
88.69535583936011
 20
601.9621985435772
 30
0.0
 11
88.69535583936102
 21
622.5722513965632
 31
0.0
  0
LINE
  5
9E1
330
282
100
AcDbEntity
  8
1外形線
 48
3.0
100
AcDbLine
 10
89.99535583934573
 20
605.6433192085936
 30
0.0
 11
89.99535583934845
 21
622.572251396564
 31
0.0
  0
ARC
  5
9E2
330
282
100
AcDbEntity
  8
1外形線
 48
3.0
100
AcDbCircle
 10
89.19535583935465
 20
600.8593235946229
 30
0.0
 40
0.499999999995
100
AcDbArc
 50
65.05609473658106
 51
179.9999999999739
  0
ARC
  5
9E3
330
282
100
AcDbEntity
  8
1外形線
 48
3.0
100
AcDbCircle
 10
89.19535583935465
 20
601.9621985435772
 30
0.0
 40
0.499999999995
100
AcDbArc
 50
180.0
 51
245.056094736581
  0
LINE
  5
9E4
330
282
100
AcDbEntity
  8
1外形線
 48
3.0
100
AcDbLine
 10
89.99535583934664
 20
602.5999572134662
 30
0.0
 11
89.99535583934573
 21
603.9433192086102
 31
0.0
  0
LINE
  5
9E5
330
282
100
AcDbEntity
  8
1外形線
 48
3.0
100
AcDbLine
 10
94.29535583930679
 20
600.662559129851
 30
0.0
 11
94.2953558393059
 21
605.0659235846109
 31
0.0
  0
LINE
  5
9E6
330
282
100
AcDbEntity
  8
1外形線
 48
3.0
100
AcDbLine
 10
92.99535583931936
 20
600.6625135068645
 30
0.0
 11
92.99535583931936
 21
604.6267244840522
 31
0.0
  0
ARC
  5
9E7
330
282
100
AcDbEntity
  8
1外形線
 48
3.0
100
AcDbCircle
 10
92.28185801010146
 20
609.7601688049175
 30
0.0
 40
0.6499999999935
100
AcDbArc
 50
308.5936225986842
 51
128.5936225986842
  0
ARC
  5
9E8
330
282
100
AcDbEntity
  8
1外形線
 48
3.0
100
AcDbCircle
 10
94.99535583929571
 20
606.3602526985127
 30
0.0
 40
3.699999999962999
100
AcDbArc
 50
128.5936225986842
 51
162.2555112961149
  0
LINE
  5
9E9
330
282
100
AcDbEntity
  8
1外形線
 48
3.0
100
AcDbLine
 10
91.84535583932699
 20
605.4433192085947
 30
0.0
 11
90.19535583934283
 21
605.4433192085956
 31
0.0
  0
ARC
  5
9EA
330
282
100
AcDbEntity
  8
1外形線
 48
3.0
100
AcDbCircle
 10
90.19535583934283
 20
605.6433192085936
 30
0.0
 40
0.199999999998
100
AcDbArc
 50
180.0
 51
270.0
  0
LINE
  5
9EB
330
282
100
AcDbEntity
  8
1外形線
 48
3.0
100
AcDbLine
 10
91.84535583932699
 20
604.1433192086072
 30
0.0
 11
90.19535583934283
 21
604.1433192086072
 31
0.0
  0
ARC
  5
9EC
330
282
100
AcDbEntity
  8
1外形線
 48
3.0
100
AcDbCircle
 10
90.19535583934283
 20
603.9433192086102
 30
0.0
 40
0.199999999998
100
AcDbArc
 50
90.0
 51
180.000000000026
  0
ARC
  5
9ED
330
282
100
AcDbEntity
  8
1外形線
 48
3.0
100
AcDbCircle
 10
90.51319204133269
 20
606.7605122241087
 30
0.0
 40
0.499999999995
100
AcDbArc
 50
174.8969935624165
 51
255.6356911620847
  0
ARC
  5
9EE
330
282
100
AcDbEntity
  8
1外形線
 48
3.0
100
AcDbCircle
 10
91.84535583932699
 20
604.7933192086015
 30
0.0
 40
0.6499999999929677
100
AcDbArc
 50
270.0
 51
90.0
  0
ARC
  5
9EF
330
282
100
AcDbEntity
  8
1外形線
 48
3.0
100
AcDbCircle
 10
89.1487163953001
 20
601.4324538337772
 30
0.0
 40
4.999999999949999
100
AcDbArc
 50
39.70642783699407
 51
75.63569116203081
  0
ARC
  5
9F0
330
282
100
AcDbEntity
  8
1外形線
 48
3.0
100
AcDbCircle
 10
94.99535583929571
 20
606.3602526985127
 30
0.0
 40
4.999999999949999
100
AcDbArc
 50
128.5936225986842
 51
174.8969935624165
  0
ARC
  5
9F1
330
282
100
AcDbEntity
  8
1外形線
 48
3.0
100
AcDbCircle
 10
89.1487163953001
 20
601.4324538337772
 30
0.0
 40
6.299999999936998
100
AcDbArc
 50
35.22166303408948
 51
67.25448975251078
  0
ARC
  5
9F2
330
282
100
AcDbEntity
  8
1外形線
 48
3.0
100
AcDbCircle
 10
91.66186791857887
 20
607.4269571009547
 30
0.0
 40
0.199999999998
100
AcDbArc
 50
162.2555112960508
 51
247.2544897525743
  0
ARC
  5
9F3
330
282
100
AcDbEntity
  8
1外形線
 48
3.0
100
AcDbCircle
 10
92.34535583932517
 20
600.6625135068645
 30
0.0
 40
1.94999999998097
100
AcDbArc
 50
245.056094736581
 51
0.0013405151401684
  0
LINE
  5
9F4
330
282
100
AcDbEntity
  8
1外形線
 48
3.0
100
AcDbLine
 10
90.11100968940295
 20
602.4186129910908
 30
0.0
 11
92.61948082663671
 21
601.2518822295873
 31
0.0
  0
ARC
  5
9F5
330
282
100
AcDbEntity
  8
1外形線
 48
3.0
100
AcDbCircle
 10
90.19535583934462
 20
602.5999572134662
 30
0.0
 40
0.199999999998
100
AcDbArc
 50
180.000000000026
 51
245.056094736581
  0
ARC
  5
9F6
330
282
100
AcDbEntity
  8
1外形線
 48
3.0
100
AcDbCircle
 10
92.34535583932517
 20
600.6625135068645
 30
0.0
 40
0.6499999999939715
100
AcDbArc
 50
245.056094736581
 51
65.05609473658106
  0
LINE
  5
9F7
330
282
100
AcDbEntity
  8
1外形線
 48
3.0
100
AcDbLine
 10
88.98449046449911
 20
601.5088379876382
 30
0.0
 11
92.07123085201271
 21
600.0731447841437
 31
0.0
  0
ARC
  5
9F8
330
282
100
AcDbEntity
  8
1外形線
 48
3.0
100
AcDbCircle
 10
90.49535583934298
 20
598.8209349981964
 30
0.0
 40
0.499999999995
100
AcDbArc
 50
65.05609473658106
 51
179.9999999999739
  0
LINE
  5
9F9
330
282
100
AcDbEntity
  8
1外形線
 48
3.0
100
AcDbLine
 10
90.70622121419765
 20
599.2742955541365
 30
0.0
 11
91.52298087738687
 21
598.8944073386996
 31
0.0
  0
LINE
  5
9FA
330
282
100
AcDbEntity
  8
1外形線
 48
3.0
100
AcDbLine
 10
162.3953558386231
 20
598.8209349981964
 30
0.0
 11
162.3953558386223
 21
572.1433192089282
 31
0.0
  0
LINE
  5
9FB
330
282
100
AcDbEntity
  8
1外形線
 48
3.0
100
AcDbLine
 10
163.6953558386079
 20
600.8593235946229
 30
0.0
 11
163.6953558386179
 21
570.6433192089438
 31
0.0
  0
LINE
  5
9FC
330
282
100
AcDbEntity
  8
1外形線
 48
3.0
100
AcDbLine
 10
163.695355838607
 20
622.572251396564
 30
0.0
 11
163.6953558386079
 21
601.9621985435772
 31
0.0
  0
LINE
  5
9FD
330
282
100
AcDbEntity
  8
1外形線
 48
3.0
100
AcDbLine
 10
162.3953558386205
 20
622.572251396564
 30
0.0
 11
162.3953558386223
 21
605.6433192085936
 31
0.0
  0
ARC
  5
9FE
330
282
100
AcDbEntity
  8
1外形線
 48
3.0
100
AcDbCircle
 10
160.045355838641
 20
600.6625135068645
 30
0.0
 40
1.94999999998097
100
AcDbArc
 50
179.9986594848598
 51
294.943905263419
  0
ARC
  5
9FF
330
282
100
AcDbEntity
  8
1外形線
 48
3.0
100
AcDbCircle
 10
163.2419952826661
 20
601.4324538337772
 30
0.0
 40
6.299999999936998
100
AcDbArc
 50
112.7455102474892
 51
144.7783369659105
  0
LINE
  5
A00
330
282
100
AcDbEntity
  8
1外形線
 48
3.0
100
AcDbLine
 10
158.0953558386594
 20
600.662559129851
 30
0.0
 11
158.0953558386603
 21
605.0659235846109
 31
0.0
  0
LINE
  5
A01
330
282
100
AcDbEntity
  8
1外形線
 48
3.0
100
AcDbLine
 10
162.3953558386196
 20
602.5999572134662
 30
0.0
 11
162.3953558386205
 21
603.9433192086102
 31
0.0
  0
LINE
  5
A02
330
282
100
AcDbEntity
  8
1外形線
 48
3.0
100
AcDbLine
 10
159.3953558386469
 20
600.6625135068645
 30
0.0
 11
159.3953558386469
 21
604.6267244840522
 31
0.0
  0
ARC
  5
A03
330
282
100
AcDbEntity
  8
1外形線
 48
3.0
100
AcDbCircle
 10
160.1088536678647
 20
609.7601688049175
 30
0.0
 40
0.6499999999935
100
AcDbArc
 50
51.40637740131579
 51
231.4063774013158
  0
ARC
  5
A04
330
282
100
AcDbEntity
  8
1外形線
 48
3.0
100
AcDbCircle
 10
157.3953558386705
 20
606.3602526985127
 30
0.0
 40
3.699999999962999
100
AcDbArc
 50
17.74448870388502
 51
51.40637740131579
  0
ARC
  5
A05
330
282
100
AcDbEntity
  8
1外形線
 48
3.0
100
AcDbCircle
 10
161.8775196366344
 20
606.7605122241087
 30
0.0
 40
0.499999999995
100
AcDbArc
 50
284.3643088379153
 51
5.103006437583476
  0
ARC
  5
A06
330
282
100
AcDbEntity
  8
1外形線
 48
3.0
100
AcDbCircle
 10
162.1953558386234
 20
603.9433192086102
 30
0.0
 40
0.199999999998
100
AcDbArc
 50
359.999999999974
 51
90.0
  0
ARC
  5
A07
330
282
100
AcDbEntity
  8
1外形線
 48
3.0
100
AcDbCircle
 10
162.1953558386234
 20
605.6433192085936
 30
0.0
 40
0.199999999998
100
AcDbArc
 50
270.0
 51
0.0
  0
ARC
  5
A08
330
282
100
AcDbEntity
  8
1外形線
 48
3.0
100
AcDbCircle
 10
160.5453558386392
 20
604.7933192086015
 30
0.0
 40
0.6499999999929677
100
AcDbArc
 50
90.0
 51
270.0
  0
ARC
  5
A09
330
282
100
AcDbEntity
  8
1外形線
 48
3.0
100
AcDbCircle
 10
163.2419952826661
 20
601.4324538337772
 30
0.0
 40
4.999999999949999
100
AcDbArc
 50
104.3643088379692
 51
140.2935721630059
  0
LINE
  5
A0A
330
282
100
AcDbEntity
  8
1外形線
 48
3.0
100
AcDbLine
 10
160.5453558386392
 20
604.1433192086072
 30
0.0
 11
162.1953558386234
 21
604.1433192086072
 31
0.0
  0
LINE
  5
A0B
330
282
100
AcDbEntity
  8
1外形線
 48
3.0
100
AcDbLine
 10
160.5453558386392
 20
605.4433192085947
 30
0.0
 11
162.1953558386234
 21
605.4433192085956
 31
0.0
  0
ARC
  5
A0C
330
282
100
AcDbEntity
  8
1外形線
 48
3.0
100
AcDbCircle
 10
157.3953558386705
 20
606.3602526985127
 30
0.0
 40
4.999999999949999
100
AcDbArc
 50
5.103006437583476
 51
51.40637740131579
  0
ARC
  5
A0D
330
282
100
AcDbEntity
  8
1外形線
 48
3.0
100
AcDbCircle
 10
160.7288437593882
 20
607.4269571009547
 30
0.0
 40
0.199999999998
100
AcDbArc
 50
292.7455102474254
 51
17.74448870394914
  0
ARC
  5
A0E
330
282
100
AcDbEntity
  8
1外形線
 48
3.0
100
AcDbCircle
 10
161.8953558386231
 20
598.8209349981964
 30
0.0
 40
0.499999999995
100
AcDbArc
 50
0.0000000000260551
 51
114.9439052634189
  0
ARC
  5
A0F
330
282
100
AcDbEntity
  8
1外形線
 48
3.0
100
AcDbCircle
 10
163.1953558386116
 20
601.9621985435772
 30
0.0
 40
0.499999999995
100
AcDbArc
 50
294.943905263419
 51
0.0
  0
ARC
  5
A10
330
282
100
AcDbEntity
  8
1外形線
 48
3.0
100
AcDbCircle
 10
163.1953558386116
 20
600.8593235946229
 30
0.0
 40
0.499999999995
100
AcDbArc
 50
0.0000000000260551
 51
114.9439052634189
  0
ARC
  5
A11
330
282
100
AcDbEntity
  8
1外形線
 48
3.0
100
AcDbCircle
 10
162.1953558386216
 20
602.5999572134662
 30
0.0
 40
0.199999999998
100
AcDbArc
 50
294.943905263419
 51
359.999999999974
  0
ARC
  5
A12
330
282
100
AcDbEntity
  8
1外形線
 48
3.0
100
AcDbCircle
 10
160.045355838641
 20
600.6625135068645
 30
0.0
 40
0.6499999999939715
100
AcDbArc
 50
114.9439052634189
 51
294.943905263419
  0
LINE
  5
A13
330
282
100
AcDbEntity
  8
1外形線
 48
3.0
100
AcDbLine
 10
163.4062212134671
 20
601.5088379876382
 30
0.0
 11
160.3194808259535
 21
600.0731447841437
 31
0.0
  0
LINE
  5
A14
330
282
100
AcDbEntity
  8
1外形線
 48
3.0
100
AcDbLine
 10
162.2797019885632
 20
602.4186129910908
 30
0.0
 11
159.7712308513295
 21
601.2518822295873
 31
0.0
  0
LINE
  5
A15
330
282
100
AcDbEntity
  8
1外形線
 48
3.0
100
AcDbLine
 10
161.6844904637686
 20
599.2742955541365
 30
0.0
 11
160.8677308005793
 21
598.8944073386996
 31
0.0
  0
ARC
  5
A16
330
282
100
AcDbEntity
  8
1外形線
 48
3.0
100
AcDbCircle
 10
93.69535583930916
 20
622.5722513965632
 30
0.0
 40
4.999999999949999
100
AcDbArc
 50
135.0
 51
180.0
  0
LINE
  5
A17
330
282
100
AcDbEntity
  8
1外形線
 48
3.0
100
AcDbLine
 10
90.15982193341221
 20
626.1077853024611
 30
0.0
 11
97.23088974520704
 21
633.1788531142559
 31
0.0
  0
LINE
  5
A18
330
282
100
AcDbEntity
  8
1外形線
 48
3.0
100
AcDbLine
 10
91.07906074894378
 20
625.1885464869277
 30
0.0
 11
98.15012856073861
 21
632.2596142987233
 31
0.0
  0
ARC
  5
A19
330
282
100
AcDbEntity
  8
1外形線
 48
3.0
100
AcDbCircle
 10
93.69535583930916
 20
622.5722513965632
 30
0.0
 40
3.699999999962999
100
AcDbArc
 50
135.0
 51
180.0
  0
LINE
  5
A1A
330
282
100
AcDbEntity
  8
1外形線
 48
3.0
100
AcDbLine
 10
161.3116509290224
 20
625.1885464869277
 30
0.0
 11
154.2405831172276
 21
632.2596142987233
 31
0.0
  0
LINE
  5
A1B
330
282
100
AcDbEntity
  8
1外形線
 48
3.0
100
AcDbLine
 10
162.230889744554
 20
626.1077853024611
 30
0.0
 11
155.1598219327592
 21
633.1788531142559
 31
0.0
  0
ARC
  5
A1C
330
282
100
AcDbEntity
  8
1外形線
 48
3.0
100
AcDbCircle
 10
158.695355838657
 20
622.5722513965632
 30
0.0
 40
3.699999999962999
100
AcDbArc
 50
0.0
 51
45.0
  0
ARC
  5
A1D
330
282
100
AcDbEntity
  8
1外形線
 48
3.0
100
AcDbCircle
 10
158.695355838657
 20
622.5722513965632
 30
0.0
 40
4.999999999949999
100
AcDbArc
 50
0.0
 51
45.0
  0
ARC
  5
A1E
330
282
100
AcDbEntity
  8
1外形線
 48
3.0
100
AcDbCircle
 10
100.766423651104
 20
629.6433192083707
 30
0.0
 40
4.999999999949999
100
AcDbArc
 50
90.0
 51
135.0
  0
ARC
  5
A1F
330
282
100
AcDbEntity
  8
1外形線
 48
3.0
100
AcDbCircle
 10
100.766423651104
 20
629.6433192083707
 30
0.0
 40
3.699999999962999
100
AcDbArc
 50
90.0
 51
135.0
  0
ARC
  5
A20
330
282
100
AcDbEntity
  8
1外形線
 48
3.0
100
AcDbCircle
 10
151.6242880268622
 20
629.6433192083707
 30
0.0
 40
3.699999999962999
100
AcDbArc
 50
45.0
 51
90.0
  0
ARC
  5
A21
330
282
100
AcDbEntity
  8
1外形線
 48
3.0
100
AcDbCircle
 10
151.6242880268622
 20
629.6433192083707
 30
0.0
 40
4.999999999949999
100
AcDbArc
 50
45.0
 51
90.0
  0
LINE
  5
A28
330
282
100
AcDbEntity
  8
1外形線
100
AcDbLine
 10
198.6953558389846
 20
624.6433192077748
 30
0.0
 11
2198.695355838984
 21
624.6433192077748
 31
0.0
  0
LINE
  5
A29
330
282
100
AcDbEntity
  8
1外形線
100
AcDbLine
 10
198.6953558389846
 20
601.4107610684667
 30
0.0
 11
2198.695355838984
 21
601.4107610684667
 31
0.0
  0
LINE
  5
CE4
330
282
100
AcDbEntity
  8
1外形線
 48
3.0
100
AcDbLine
 10
84.69535583934918
 20
216.2754795374134
 30
0.0
 11
120.1953558390445
 21
216.2754795374134
 31
0.0
  0
LINE
  5
CE5
330
282
100
AcDbEntity
  8
1外形線
 48
3.0
100
AcDbLine
 10
85.99535583933663
 20
217.775479537398
 30
0.0
 11
117.695355839069
 21
217.775479537398
 31
0.0
  0
LINE
  5
CE6
330
282
100
AcDbEntity
  8
1外形線
 48
3.0
100
AcDbLine
 10
84.99535583934948
 20
248.5846712554276
 30
0.0
 11
84.99535583933662
 21
218.775479537388
 31
0.0
  0
LINE
  5
CE7
330
282
100
AcDbEntity
  8
1外形線
 48
3.0
100
AcDbLine
 10
83.69535583936112
 20
250.6230598518542
 30
0.0
 11
83.69535583934828
 21
217.2754795374034
 31
0.0
  0
LINE
  5
CE8
330
282
100
AcDbEntity
  8
1外形線
 48
3.0
100
AcDbLine
 10
83.69535583936112
 20
251.7259348008084
 30
0.0
 11
83.69535583936192
 21
268.0728775082958
 31
0.0
  0
LINE
  5
CE9
330
282
100
AcDbEntity
  8
1外形線
 48
3.0
100
AcDbLine
 10
84.99535583934676
 20
255.4070554658248
 30
0.0
 11
84.99535583934891
 21
268.0568353299149
 31
0.0
  0
ARC
  5
CEA
330
282
100
AcDbEntity
  8
1外形線
 48
3.0
100
AcDbCircle
 10
84.19535583935568
 20
250.6230598518542
 30
0.0
 40
0.499999999995
100
AcDbArc
 50
65.05609473658106
 51
179.9999999999739
  0
ARC
  5
CEB
330
282
100
AcDbEntity
  8
1外形線
 48
3.0
100
AcDbCircle
 10
84.19535583935568
 20
251.7259348008084
 30
0.0
 40
0.499999999995
100
AcDbArc
 50
180.0
 51
245.056094736581
  0
LINE
  5
CEC
330
282
100
AcDbEntity
  8
1外形線
 48
3.0
100
AcDbLine
 10
84.99535583934767
 20
252.3636934706975
 30
0.0
 11
84.99535583934676
 21
253.7070554658413
 31
0.0
  0
LINE
  5
CED
330
282
100
AcDbEntity
  8
1外形線
 48
3.0
100
AcDbLine
 10
89.29535583930784
 20
250.4262953870822
 30
0.0
 11
89.29535583930691
 21
254.829659841842
 31
0.0
  0
LINE
  5
CEE
330
282
100
AcDbEntity
  8
1外形線
 48
3.0
100
AcDbLine
 10
87.99535583932039
 20
250.4262497640958
 30
0.0
 11
87.99535583932039
 21
254.3904607412834
 31
0.0
  0
ARC
  5
CEF
330
282
100
AcDbEntity
  8
1外形線
 48
3.0
100
AcDbCircle
 10
87.28185801010248
 20
259.5239050621486
 30
0.0
 40
0.6499999999935
100
AcDbArc
 50
308.5936225986852
 51
128.5936225986852
  0
ARC
  5
CF0
330
282
100
AcDbEntity
  8
1外形線
 48
3.0
100
AcDbCircle
 10
89.99535583929674
 20
256.1239889557438
 30
0.0
 40
3.699999999962999
100
AcDbArc
 50
128.5936225986852
 51
162.2555112961157
  0
LINE
  5
CF1
330
282
100
AcDbEntity
  8
1外形線
 48
3.0
100
AcDbLine
 10
86.84535583932802
 20
255.2070554658258
 30
0.0
 11
85.19535583934384
 21
255.2070554658268
 31
0.0
  0
ARC
  5
CF2
330
282
100
AcDbEntity
  8
1外形線
 48
3.0
100
AcDbCircle
 10
85.19535583934384
 20
255.4070554658248
 30
0.0
 40
0.199999999998
100
AcDbArc
 50
180.0
 51
270.0
  0
LINE
  5
CF3
330
282
100
AcDbEntity
  8
1外形線
 48
3.0
100
AcDbLine
 10
86.84535583932802
 20
253.9070554658384
 30
0.0
 11
85.19535583934384
 21
253.9070554658384
 31
0.0
  0
ARC
  5
CF4
330
282
100
AcDbEntity
  8
1外形線
 48
3.0
100
AcDbCircle
 10
85.19535583934384
 20
253.7070554658413
 30
0.0
 40
0.199999999998
100
AcDbArc
 50
90.0
 51
180.000000000026
  0
ARC
  5
CF5
330
282
100
AcDbEntity
  8
1外形線
 48
3.0
100
AcDbCircle
 10
85.51319204133369
 20
256.5242484813399
 30
0.0
 40
0.499999999995
100
AcDbArc
 50
174.8969935624165
 51
255.6356911620847
  0
ARC
  5
CF6
330
282
100
AcDbEntity
  8
1外形線
 48
3.0
100
AcDbCircle
 10
86.84535583932802
 20
254.5570554658326
 30
0.0
 40
0.6499999999929677
100
AcDbArc
 50
270.0
 51
90.0
  0
ARC
  5
CF7
330
282
100
AcDbEntity
  8
1外形線
 48
3.0
100
AcDbCircle
 10
84.1487163953011
 20
251.1961900910083
 30
0.0
 40
4.999999999949999
100
AcDbArc
 50
39.70642783699345
 51
75.63569116203101
  0
ARC
  5
CF8
330
282
100
AcDbEntity
  8
1外形線
 48
3.0
100
AcDbCircle
 10
89.99535583929674
 20
256.1239889557438
 30
0.0
 40
4.999999999949999
100
AcDbArc
 50
128.5936225986852
 51
174.8969935624165
  0
ARC
  5
CF9
330
282
100
AcDbEntity
  8
1外形線
 48
3.0
100
AcDbCircle
 10
84.1487163953011
 20
251.1961900910083
 30
0.0
 40
6.299999999936998
100
AcDbArc
 50
35.22166303409014
 51
67.25448975251078
  0
ARC
  5
CFA
330
282
100
AcDbEntity
  8
1外形線
 48
3.0
100
AcDbCircle
 10
86.6618679185799
 20
257.190693358186
 30
0.0
 40
0.199999999998
100
AcDbArc
 50
162.2555112960508
 51
247.2544897525749
  0
ARC
  5
CFB
330
282
100
AcDbEntity
  8
1外形線
 48
3.0
100
AcDbCircle
 10
87.34535583932622
 20
250.4262497640958
 30
0.0
 40
1.94999999998097
100
AcDbArc
 50
245.056094736581
 51
0.0013405151401684
  0
LINE
  5
CFC
330
282
100
AcDbEntity
  8
1外形線
 48
3.0
100
AcDbLine
 10
85.111009689404
 20
252.1823492483219
 30
0.0
 11
87.61948082663776
 21
251.0156184868184
 31
0.0
  0
ARC
  5
CFD
330
282
100
AcDbEntity
  8
1外形線
 48
3.0
100
AcDbCircle
 10
85.19535583934567
 20
252.3636934706975
 30
0.0
 40
0.199999999998
100
AcDbArc
 50
180.000000000026
 51
245.056094736581
  0
ARC
  5
CFE
330
282
100
AcDbEntity
  8
1外形線
 48
3.0
100
AcDbCircle
 10
87.34535583932622
 20
250.4262497640958
 30
0.0
 40
0.6499999999939715
100
AcDbArc
 50
245.056094736581
 51
65.05609473658106
  0
LINE
  5
CFF
330
282
100
AcDbEntity
  8
1外形線
 48
3.0
100
AcDbLine
 10
83.98449046450014
 20
251.2725742448693
 30
0.0
 11
87.07123085201374
 21
249.836881041375
 31
0.0
  0
ARC
  5
D00
330
282
100
AcDbEntity
  8
1外形線
 48
3.0
100
AcDbCircle
 10
85.49535583934403
 20
248.5846712554276
 30
0.0
 40
0.499999999995
100
AcDbArc
 50
65.05609473658106
 51
179.9999999999739
  0
LINE
  5
D01
330
282
100
AcDbEntity
  8
1外形線
 48
3.0
100
AcDbLine
 10
85.70622121419864
 20
249.0380318113676
 30
0.0
 11
86.5229808773879
 21
248.6581435959307
 31
0.0
  0
ARC
  5
D02
330
282
100
AcDbEntity
  8
1外形線
 48
3.0
100
AcDbCircle
 10
84.69535583934918
 20
217.2754795374035
 30
0.0
 40
0.9999999999899999
100
AcDbArc
 50
179.9999999999739
 51
270.0
  0
ARC
  5
D03
330
282
100
AcDbEntity
  8
1外形線
 48
3.0
100
AcDbCircle
 10
85.99535583933663
 20
218.775479537388
 30
0.0
 40
0.9999999999899999
100
AcDbArc
 50
179.9999999999739
 51
270.0
  0
LINE
  5
D04
330
282
100
AcDbEntity
  8
1外形線
 48
3.0
100
AcDbLine
 10
167.3953558386242
 20
248.5846712554276
 30
0.0
 11
167.3953558386231
 21
218.775479537388
 31
0.0
  0
LINE
  5
D05
330
282
100
AcDbEntity
  8
1外形線
 48
3.0
100
AcDbLine
 10
168.695355838609
 20
250.6230598518542
 30
0.0
 11
168.6953558386188
 21
217.2754795374034
 31
0.0
  0
LINE
  5
D06
330
282
100
AcDbEntity
  8
1外形線
 48
3.0
100
AcDbLine
 10
150.3059494734793
 20
286.2754795374135
 30
0.0
 11
126.1953558389845
 21
286.2754795374136
 31
0.0
  0
LINE
  5
D07
330
282
100
AcDbEntity
  8
1外形線
 48
3.0
100
AcDbLine
 10
150.3059494734791
 20
284.975479537427
 30
0.0
 11
126.1953558389845
 21
284.9754795374262
 31
0.0
  0
LINE
  5
D08
330
282
100
AcDbEntity
  8
1外形線
 48
3.0
100
AcDbLine
 10
102.0847622044896
 20
286.2754795374136
 30
0.0
 11
126.1953558389845
 21
286.2754795374136
 31
0.0
  0
LINE
  5
D09
330
282
100
AcDbEntity
  8
1外形線
 48
3.0
100
AcDbLine
 10
102.0847622044898
 20
284.9754795374271
 30
0.0
 11
126.1953558389845
 21
284.9754795374262
 31
0.0
  0
LINE
  5
D0A
330
282
100
AcDbEntity
  8
1外形線
 48
3.0
100
AcDbLine
 10
168.6953558386082
 20
268.0728775082498
 30
0.0
 11
168.695355838609
 21
251.7259348008084
 31
0.0
  0
LINE
  5
D0B
330
282
100
AcDbEntity
  8
1外形線
 48
3.0
100
AcDbLine
 10
167.3953558386218
 20
268.0568353298458
 30
0.0
 11
167.3953558386233
 21
255.4070554658248
 31
0.0
  0
ARC
  5
D0C
330
282
100
AcDbEntity
  8
1外形線
 48
3.0
100
AcDbCircle
 10
165.0453558386421
 20
250.4262497640958
 30
0.0
 40
1.94999999998097
100
AcDbArc
 50
179.9986594848598
 51
294.943905263419
  0
ARC
  5
D0D
330
282
100
AcDbEntity
  8
1外形線
 48
3.0
100
AcDbCircle
 10
168.2419952826672
 20
251.1961900910083
 30
0.0
 40
6.299999999936998
100
AcDbArc
 50
112.7455102474892
 51
144.7783369659098
  0
LINE
  5
D0E
330
282
100
AcDbEntity
  8
1外形線
 48
3.0
100
AcDbLine
 10
163.0953558386604
 20
250.4262953870822
 30
0.0
 11
163.0953558386613
 21
254.829659841842
 31
0.0
  0
LINE
  5
D0F
330
282
100
AcDbEntity
  8
1外形線
 48
3.0
100
AcDbLine
 10
167.3953558386206
 20
252.3636934706975
 30
0.0
 11
167.3953558386215
 21
253.7070554658413
 31
0.0
  0
LINE
  5
D10
330
282
100
AcDbEntity
  8
1外形線
 48
3.0
100
AcDbLine
 10
164.3953558386479
 20
250.4262497640958
 30
0.0
 11
164.3953558386479
 21
254.3904607412834
 31
0.0
  0
ARC
  5
D11
330
282
100
AcDbEntity
  8
1外形線
 48
3.0
100
AcDbCircle
 10
165.1088536678658
 20
259.5239050621486
 30
0.0
 40
0.6499999999935
100
AcDbArc
 50
51.40637740131477
 51
231.4063774013148
  0
ARC
  5
D12
330
282
100
AcDbEntity
  8
1外形線
 48
3.0
100
AcDbCircle
 10
162.3953558386715
 20
256.1239889557438
 30
0.0
 40
3.699999999962999
100
AcDbArc
 50
17.74448870388425
 51
51.40637740131477
  0
ARC
  5
D13
330
282
100
AcDbEntity
  8
1外形線
 48
3.0
100
AcDbCircle
 10
166.8775196366355
 20
256.5242484813399
 30
0.0
 40
0.499999999995
100
AcDbArc
 50
284.3643088379153
 51
5.103006437583476
  0
ARC
  5
D14
330
282
100
AcDbEntity
  8
1外形線
 48
3.0
100
AcDbCircle
 10
167.1953558386244
 20
253.7070554658413
 30
0.0
 40
0.199999999998
100
AcDbArc
 50
359.999999999974
 51
90.0
  0
ARC
  5
D15
330
282
100
AcDbEntity
  8
1外形線
 48
3.0
100
AcDbCircle
 10
167.1953558386244
 20
255.4070554658248
 30
0.0
 40
0.199999999998
100
AcDbArc
 50
270.0
 51
0.0
  0
ARC
  5
D16
330
282
100
AcDbEntity
  8
1外形線
 48
3.0
100
AcDbCircle
 10
165.5453558386402
 20
254.5570554658326
 30
0.0
 40
0.6499999999929677
100
AcDbArc
 50
90.0
 51
270.0
  0
ARC
  5
D17
330
282
100
AcDbEntity
  8
1外形線
 48
3.0
100
AcDbCircle
 10
168.2419952826672
 20
251.1961900910083
 30
0.0
 40
4.999999999949999
100
AcDbArc
 50
104.364308837969
 51
140.2935721630065
  0
LINE
  5
D18
330
282
100
AcDbEntity
  8
1外形線
 48
3.0
100
AcDbLine
 10
165.5453558386402
 20
253.9070554658384
 30
0.0
 11
167.1953558386244
 21
253.9070554658384
 31
0.0
  0
LINE
  5
D19
330
282
100
AcDbEntity
  8
1外形線
 48
3.0
100
AcDbLine
 10
165.5453558386402
 20
255.2070554658258
 30
0.0
 11
167.1953558386244
 21
255.2070554658268
 31
0.0
  0
ARC
  5
D1A
330
282
100
AcDbEntity
  8
1外形線
 48
3.0
100
AcDbCircle
 10
162.3953558386715
 20
256.1239889557438
 30
0.0
 40
4.999999999949999
100
AcDbArc
 50
5.103006437583476
 51
51.40637740131477
  0
ARC
  5
D1B
330
282
100
AcDbEntity
  8
1外形線
 48
3.0
100
AcDbCircle
 10
165.7288437593893
 20
257.190693358186
 30
0.0
 40
0.199999999998
100
AcDbArc
 50
292.7455102474251
 51
17.74448870394914
  0
ARC
  5
D1C
330
282
100
AcDbEntity
  8
1外形線
 48
3.0
100
AcDbCircle
 10
166.8953558386242
 20
248.5846712554276
 30
0.0
 40
0.499999999995
100
AcDbArc
 50
0.0000000000260551
 51
114.9439052634189
  0
ARC
  5
D1D
330
282
100
AcDbEntity
  8
1外形線
 48
3.0
100
AcDbCircle
 10
168.1953558386125
 20
251.7259348008084
 30
0.0
 40
0.499999999995
100
AcDbArc
 50
294.943905263419
 51
0.0
  0
ARC
  5
D1E
330
282
100
AcDbEntity
  8
1外形線
 48
3.0
100
AcDbCircle
 10
168.1953558386125
 20
250.6230598518542
 30
0.0
 40
0.499999999995
100
AcDbArc
 50
0.0000000000260551
 51
114.9439052634189
  0
ARC
  5
D1F
330
282
100
AcDbEntity
  8
1外形線
 48
3.0
100
AcDbCircle
 10
167.1953558386226
 20
252.3636934706975
 30
0.0
 40
0.199999999998
100
AcDbArc
 50
294.943905263419
 51
359.999999999974
  0
ARC
  5
D20
330
282
100
AcDbEntity
  8
1外形線
 48
3.0
100
AcDbCircle
 10
165.0453558386421
 20
250.4262497640958
 30
0.0
 40
0.6499999999939715
100
AcDbArc
 50
114.9439052634189
 51
294.943905263419
  0
LINE
  5
D21
330
282
100
AcDbEntity
  8
1外形線
 48
3.0
100
AcDbLine
 10
168.4062212134681
 20
251.2725742448693
 30
0.0
 11
165.3194808259545
 21
249.836881041375
 31
0.0
  0
LINE
  5
D22
330
282
100
AcDbEntity
  8
1外形線
 48
3.0
100
AcDbLine
 10
167.2797019885642
 20
252.1823492483219
 30
0.0
 11
164.7712308513305
 21
251.0156184868184
 31
0.0
  0
LINE
  5
D23
330
282
100
AcDbEntity
  8
1外形線
 48
3.0
100
AcDbLine
 10
166.6844904637696
 20
249.0380318113676
 30
0.0
 11
165.8677308005803
 21
248.6581435959307
 31
0.0
  0
LINE
  5
D24
330
282
100
AcDbEntity
  8
1外形線
 48
3.0
100
AcDbLine
 10
166.3953558386314
 20
217.775479537398
 30
0.0
 11
134.695355838899
 21
217.775479537398
 31
0.0
  0
LINE
  5
D25
330
282
100
AcDbEntity
  8
1外形線
 48
3.0
100
AcDbLine
 10
167.6953558386188
 20
216.2754795374134
 30
0.0
 11
132.1953558389244
 21
216.2754795374134
 31
0.0
  0
LINE
  5
D26
330
282
100
AcDbEntity
  8
1外形線
 48
3.0
100
AcDbLine
 10
121.695355839029
 20
219.9754795373769
 30
0.0
 11
126.1953558389845
 21
219.975479537376
 31
0.0
  0
LINE
  5
D27
330
282
100
AcDbEntity
  8
1外形線
 48
3.0
100
AcDbLine
 10
125.695355838989
 20
221.7754795373579
 30
0.0
 11
121.8953558390261
 21
221.7754795373579
 31
0.0
  0
ARC
  5
D28
330
282
100
AcDbEntity
  8
1外形線
 48
3.0
100
AcDbCircle
 10
120.1953558390427
 20
217.2754795374035
 30
0.0
 40
0.9999999999899999
100
AcDbArc
 50
270.0
 51
0.0
  0
LINE
  5
D29
330
282
100
AcDbEntity
  8
1外形線
 48
3.0
100
AcDbLine
 10
118.5953558390605
 20
217.775479537398
 30
0.0
 11
115.2933670455589
 21
217.775479537398
 31
0.0
  0
LINE
  5
D2A
330
282
100
AcDbEntity
  8
1外形線
 48
3.0
100
AcDbLine
 10
115.2933670455589
 20
216.2754795374134
 30
0.0
 11
120.1953558390445
 21
216.2754795374134
 31
0.0
  0
LINE
  5
D2B
330
282
100
AcDbEntity
  8
1外形線
 48
3.0
100
AcDbLine
 10
119.5953558390505
 20
218.775479537388
 30
0.0
 11
119.5953558390505
 21
220.2754795373734
 31
0.0
  0
ARC
  5
D2C
330
282
100
AcDbEntity
  8
1外形線
 48
3.0
100
AcDbCircle
 10
121.6953558390281
 20
219.4754795373806
 30
0.0
 40
0.499999999995
100
AcDbArc
 50
90.0
 51
180.0
  0
LINE
  5
D2D
330
282
100
AcDbEntity
  8
1外形線
 48
3.0
100
AcDbLine
 10
121.1953558390345
 20
217.2754795374034
 30
0.0
 11
121.1953558390345
 21
219.4754795373814
 31
0.0
  0
ARC
  5
D2E
330
282
100
AcDbEntity
  8
1外形線
 48
3.0
100
AcDbCircle
 10
118.5953558390596
 20
218.775479537388
 30
0.0
 40
0.9999999999899999
100
AcDbArc
 50
270.0
 51
0.0
  0
LINE
  5
D2F
330
282
100
AcDbEntity
  8
1外形線
 48
3.0
100
AcDbLine
 10
119.5953558390505
 20
220.2754795373734
 30
0.0
 11
119.1953558390545
 21
220.2754795373734
 31
0.0
  0
LINE
  5
D30
330
282
100
AcDbEntity
  8
1外形線
 48
3.0
100
AcDbLine
 10
120.8953558390361
 20
222.7754795373479
 30
0.0
 11
120.8953558390361
 21
221.7754795373579
 31
0.0
  0
LINE
  5
D31
330
282
100
AcDbEntity
  8
1外形線
 48
3.0
100
AcDbLine
 10
121.8953558390261
 20
221.7754795373579
 30
0.0
 11
120.8953558390361
 21
222.7754795373479
 31
0.0
  0
LINE
  5
D32
330
282
100
AcDbEntity
  8
1外形線
 48
3.0
100
AcDbLine
 10
120.8953558390361
 20
221.7754795373579
 30
0.0
 11
118.695355839059
 21
221.7754795373579
 31
0.0
  0
LINE
  5
D33
330
282
100
AcDbEntity
  8
1外形線
 48
3.0
100
AcDbLine
 10
118.695355839059
 20
221.7754795373579
 30
0.0
 11
118.695355839059
 21
220.7754795373679
 31
0.0
  0
ARC
  5
D34
330
282
100
AcDbEntity
  8
1外形線
 48
3.0
100
AcDbCircle
 10
119.1953558390527
 20
220.7754795373681
 30
0.0
 40
0.499999999995
100
AcDbArc
 50
180.0
 51
270.0
  0
LINE
  5
D35
330
282
100
AcDbEntity
  8
1外形線
 48
3.0
100
AcDbLine
 10
137.0973446324091
 20
217.775479537398
 30
0.0
 11
133.7953558389075
 21
217.775479537398
 31
0.0
  0
LINE
  5
D36
330
282
100
AcDbEntity
  8
1外形線
 48
3.0
100
AcDbLine
 10
132.1953558389244
 20
216.2754795374134
 30
0.0
 11
137.0973446324091
 21
216.2754795374134
 31
0.0
  0
ARC
  5
D37
330
282
100
AcDbEntity
  8
1外形線
 48
3.0
100
AcDbCircle
 10
132.1953558389226
 20
217.2754795374035
 30
0.0
 40
0.9999999999899999
100
AcDbArc
 50
180.0
 51
270.0
  0
LINE
  5
D38
330
282
100
AcDbEntity
  8
1外形線
 48
3.0
100
AcDbLine
 10
126.1953558389845
 20
219.975479537376
 30
0.0
 11
130.695355838939
 21
219.9754795373769
 31
0.0
  0
LINE
  5
D39
330
282
100
AcDbEntity
  8
1外形線
 48
3.0
100
AcDbLine
 10
130.4953558389419
 20
221.7754795373579
 30
0.0
 11
126.695355838979
 21
221.7754795373579
 31
0.0
  0
ARC
  5
D3A
330
282
100
AcDbEntity
  8
1外形線
 48
3.0
100
AcDbCircle
 10
126.1953558389826
 20
221.7754795373581
 30
0.0
 40
0.499999999995
100
AcDbArc
 50
90.0
 51
180.0
  0
ARC
  5
D3B
330
282
100
AcDbEntity
  8
1外形線
 48
3.0
100
AcDbCircle
 10
126.1953558389826
 20
221.7754795373581
 30
0.0
 40
0.499999999995
100
AcDbArc
 50
0.0
 51
90.0
  0
LINE
  5
D3C
330
282
100
AcDbEntity
  8
1外形線
 48
3.0
100
AcDbLine
 10
132.7953558389175
 20
218.775479537388
 30
0.0
 11
132.7953558389175
 21
220.2754795373734
 31
0.0
  0
ARC
  5
D3D
330
282
100
AcDbEntity
  8
1外形線
 48
3.0
100
AcDbCircle
 10
130.6953558389381
 20
219.4754795373806
 30
0.0
 40
0.499999999995
100
AcDbArc
 50
0.0
 51
90.0
  0
LINE
  5
D3E
330
282
100
AcDbEntity
  8
1外形線
 48
3.0
100
AcDbLine
 10
131.1953558389344
 20
219.4754795373814
 30
0.0
 11
131.1953558389344
 21
217.2754795374034
 31
0.0
  0
ARC
  5
D3F
330
282
100
AcDbEntity
  8
1外形線
 48
3.0
100
AcDbCircle
 10
133.7953558389075
 20
218.775479537388
 30
0.0
 40
0.9999999999899999
100
AcDbArc
 50
180.0
 51
270.0
  0
LINE
  5
D40
330
282
100
AcDbEntity
  8
1外形線
 48
3.0
100
AcDbLine
 10
132.7953558389175
 20
220.2754795373734
 30
0.0
 11
133.1953558389144
 21
220.2754795373734
 31
0.0
  0
LINE
  5
D41
330
282
100
AcDbEntity
  8
1外形線
 48
3.0
100
AcDbLine
 10
131.4953558389319
 20
222.7754795373479
 30
0.0
 11
130.4953558389419
 21
221.7754795373579
 31
0.0
  0
LINE
  5
D42
330
282
100
AcDbEntity
  8
1外形線
 48
3.0
100
AcDbLine
 10
131.4953558389319
 20
221.7754795373579
 30
0.0
 11
131.4953558389319
 21
222.7754795373479
 31
0.0
  0
LINE
  5
D43
330
282
100
AcDbEntity
  8
1外形線
 48
3.0
100
AcDbLine
 10
133.695355838909
 20
221.7754795373579
 30
0.0
 11
131.4953558389319
 21
221.7754795373579
 31
0.0
  0
LINE
  5
D44
330
282
100
AcDbEntity
  8
1外形線
 48
3.0
100
AcDbLine
 10
133.695355838909
 20
220.7754795373679
 30
0.0
 11
133.695355838909
 21
221.7754795373579
 31
0.0
  0
ARC
  5
D45
330
282
100
AcDbEntity
  8
1外形線
 48
3.0
100
AcDbCircle
 10
133.1953558389126
 20
220.7754795373681
 30
0.0
 40
0.499999999995
100
AcDbArc
 50
270.0
 51
0.0
  0
ARC
  5
D46
330
282
100
AcDbEntity
  8
1外形線
 48
3.0
100
AcDbCircle
 10
167.6953558386188
 20
217.2754795374035
 30
0.0
 40
0.9999999999899999
100
AcDbArc
 50
270.0
 51
0.0000000000260551
  0
ARC
  5
D47
330
282
100
AcDbEntity
  8
1外形線
 48
3.0
100
AcDbCircle
 10
166.3953558386314
 20
218.775479537388
 30
0.0
 40
0.9999999999899999
100
AcDbArc
 50
270.0
 51
0.0
  0
LINE
  5
D48
330
282
100
AcDbEntity
  8
1外形線
100
AcDbLine
 10
155.9628037229718
 20
283.9323337869119
 30
0.0
 11
166.3544438629178
 21
273.5406936469662
 31
0.0
  0
LINE
  5
D49
330
282
100
AcDbEntity
  8
1外形線
100
AcDbLine
 10
155.0435649074293
 20
283.0130949713695
 30
0.0
 11
165.4352050473753
 21
272.6214548314234
 31
0.0
  0
ARC
  5
D4A
330
282
100
AcDbEntity
  8
1外形線
100
AcDbCircle
 10
150.3059494734793
 20
278.2754795374198
 30
0.0
 40
8.0
100
AcDbArc
 50
45.0
 51
90.0
  0
ARC
  5
D4B
330
282
100
AcDbEntity
  8
1外形線
100
AcDbCircle
 10
150.3059494734793
 20
278.2754795374198
 30
0.0
 40
6.7
100
AcDbArc
 50
45.0
 51
90.0
  0
ARC
  5
D4C
330
282
100
AcDbEntity
  8
1外形線
100
AcDbCircle
 10
160.6975896134254
 20
267.8838393974737
 30
0.0
 40
8.0
100
AcDbArc
 50
1.354011764900568
 51
45.0
  0
ARC
  5
D4D
330
282
100
AcDbEntity
  8
1外形線
100
AcDbCircle
 10
160.6975896134254
 20
267.8838393974737
 30
0.0
 40
6.7
100
AcDbArc
 50
1.354011764900568
 51
45.0
  0
LINE
  5
D4E
330
282
100
AcDbEntity
  8
1外形線
100
AcDbLine
 10
96.4279079549972
 20
283.9323337869119
 30
0.0
 11
86.03626781505111
 21
273.5406936469662
 31
0.0
  0
LINE
  5
D4F
330
282
100
AcDbEntity
  8
1外形線
100
AcDbLine
 10
97.34714677053966
 20
283.0130949713695
 30
0.0
 11
86.95550663059362
 21
272.6214548314234
 31
0.0
  0
ARC
  5
D50
330
282
100
AcDbEntity
  8
1外形線
100
AcDbCircle
 10
102.0847622044896
 20
278.2754795374198
 30
0.0
 40
8.0
100
AcDbArc
 50
90.0
 51
134.9999999999931
  0
ARC
  5
D51
330
282
100
AcDbEntity
  8
1外形線
100
AcDbCircle
 10
102.0847622044896
 20
278.2754795374198
 30
0.0
 40
6.7
100
AcDbArc
 50
90.0
 51
134.9999999999931
  0
ARC
  5
D52
330
282
100
AcDbEntity
  8
1外形線
100
AcDbCircle
 10
91.69312206454357
 20
267.8838393974737
 30
0.0
 40
8.0
100
AcDbArc
 50
134.9999999999931
 51
178.6459882350994
  0
ARC
  5
D53
330
282
100
AcDbEntity
  8
1外形線
100
AcDbCircle
 10
91.69312206454357
 20
267.8838393974737
 30
0.0
 40
6.7
100
AcDbArc
 50
134.9999999999931
 51
178.6459882350994
  0
ENDSEC
  0
SECTION
  2
OBJECTS
  0
DICTIONARY
  5
270
330
0
100
AcDbDictionary
281
     1
  3
ACAD_CIP_PREVIOUS_PRODUCT_INFO
350
6ED
  3
ACAD_COLOR
350
6D1
  3
ACAD_DETAILVIEWSTYLE
350
6EA
  3
ACAD_GROUP
350
271
  3
ACAD_LAYOUT
350
27D
  3
ACAD_MATERIAL
350
69F
  3
ACAD_MLEADERSTYLE
350
6E6
  3
ACAD_MLINESTYLE
350
27A
  3
ACAD_PLOTSETTINGS
350
27C
  3
ACAD_PLOTSTYLENAME
350
272
  3
ACAD_SCALELIST
350
6D4
  3
ACAD_SECTIONVIEWSTYLE
350
6E8
  3
ACAD_TABLESTYLE
350
6D2
  3
ACAD_VISUALSTYLE
350
6B8
  3
ACDB_RECOMPOSE_DATA
350
E26
  3
AcDbVariableDictionary
350
578
  3
DWGPROPS
350
E27
  0
DICTIONARY
  5
6F3
330
266
100
AcDbDictionary
280
     1
281
     1
  3
ACAD_LAYERSTATES
360
6F4
  0
DICTIONARY
  5
D5A
330
274
100
AcDbDictionary
280
     1
281
     1
  3
ADSK_XREC_LAYER_RECONCILED
360
D5B
  0
DICTIONARY
  5
D5C
330
287
100
AcDbDictionary
280
     1
281
     1
  3
ADSK_XREC_LAYER_RECONCILED
360
D5D
  0
DICTIONARY
  5
D5E
330
2AF
100
AcDbDictionary
280
     1
281
     1
  3
ADSK_XREC_LAYER_RECONCILED
360
D5F
  0
DICTIONARY
  5
6EF
330
6EE
100
AcDbDictionary
280
     1
281
     1
  3
ADSK_XREC_LAYER_RECONCILED
360
D60
  0
DICTIONARY
  5
7A0
330
79F
100
AcDbDictionary
280
     1
281
     1
  3
ADSK_XREC_LAYER_RECONCILED
360
D61
  0
XRECORD
  5
6ED
102
{ACAD_REACTORS
330
270
102
}
330
270
100
AcDbXrecord
280
     1
300
ACDLT
300
2020
300
ACDLT_F_S
  0
DICTIONARY
  5
6D1
102
{ACAD_REACTORS
330
270
102
}
330
270
100
AcDbDictionary
281
     1
  0
DICTIONARY
  5
6EA
102
{ACAD_REACTORS
330
270
102
}
330
270
100
AcDbDictionary
281
     1
  3
Imperial24
350
6EB
  3
Metric50
350
6F6
  0
DICTIONARY
  5
271
102
{ACAD_REACTORS
330
270
102
}
330
270
100
AcDbDictionary
281
     1
  0
DICTIONARY
  5
27D
102
{ACAD_REACTORS
330
270
102
}
330
270
100
AcDbDictionary
281
     1
  3
Model
350
285
  3
\U+FF9A\U+FF72\U+FF71\U+FF73\U+FF841
350
281
  0
DICTIONARY
  5
69F
102
{ACAD_REACTORS
330
270
102
}
330
270
100
AcDbDictionary
281
     1
  3
ByBlock
350
6A8
  3
ByLayer
350
6A0
  3
Global
350
6B0
  0
DICTIONARY
  5
6E6
102
{ACAD_REACTORS
330
270
102
}
330
270
100
AcDbDictionary
281
     1
  3
Standard
350
6E7
  0
DICTIONARY
  5
27A
102
{ACAD_REACTORS
330
270
102
}
330
270
100
AcDbDictionary
281
     1
  3
Standard
350
27B
  0
DICTIONARY
  5
27C
102
{ACAD_REACTORS
330
270
102
}
330
270
100
AcDbDictionary
281
     1
  0
ACDBDICTIONARYWDFLT
  5
272
102
{ACAD_REACTORS
330
270
102
}
330
270
100
AcDbDictionary
281
     1
  3
Normal
350
273
100
AcDbDictionaryWithDefault
340
273
  0
DICTIONARY
  5
6D4
102
{ACAD_REACTORS
330
270
102
}
330
270
100
AcDbDictionary
281
     1
  3
A0
350
6D5
  3
A1
350
6D6
  3
A2
350
6D7
  3
A3
350
6D8
  3
A4
350
6D9
  3
A5
350
6DA
  3
A6
350
6DB
  3
A7
350
6DC
  3
A8
350
6DD
  3
A9
350
6DE
  3
B0
350
6DF
  3
B1
350
6E0
  3
B2
350
6E1
  3
B3
350
6E2
  3
B4
350
6E3
  3
B5
350
6E4
  3
B6
350
6E5
  0
DICTIONARY
  5
6E8
102
{ACAD_REACTORS
330
270
102
}
330
270
100
AcDbDictionary
281
     1
  3
Imperial24
350
6E9
  3
Metric50
350
6F5
  0
DICTIONARY
  5
6D2
102
{ACAD_REACTORS
330
270
102
}
330
270
100
AcDbDictionary
281
     1
  3
Standard
350
6D3
  0
DICTIONARY
  5
6B8
102
{ACAD_REACTORS
330
270
102
}
330
270
100
AcDbDictionary
281
     1
  3
2dWireframe
350
6BE
  3
3dWireframe
350
6F2
  3
Basic
350
6BD
  3
Brighten
350
6C4
  3
ColorChange
350
6C8
  3
Conceptual
350
6C1
  3
Dim
350
6C3
  3
EdgeColorOff
350
6D0
  3
Facepattern
350
6C7
  3
Flat
350
6B9
  3
FlatWithEdges
350
6BA
  3
Gouraud
350
6BB
  3
GouraudWithEdges
350
6BC
  3
Hidden
350
6C0
  3
JitterOff
350
6CE
  3
Linepattern
350
6C6
  3
OverhangOff
350
6CF
  3
Realistic
350
6C2
  3
Shaded
350
6CD
  3
Shaded with edges
350
6CC
  3
Shades of Gray
350
6C9
  3
Sketchy
350
6CA
  3
Thicken
350
6C5
  3
Wireframe
350
6BF
  3
X-Ray
350
6CB
  0
XRECORD
  5
E26
102
{ACAD_REACTORS
330
270
102
}
330
270
100
AcDbXrecord
280
     1
 90
        1
330
6D3
  0
DICTIONARY
  5
578
102
{ACAD_REACTORS
330
270
102
}
330
270
100
AcDbDictionary
281
     1
  3
CANNOSCALE
350
895
  3
CMLEADERSTYLE
350
892
  3
CTABLESTYLE
350
891
  3
CVIEWDETAILSTYLE
350
893
  3
CVIEWSECTIONSTYLE
350
894
  3
DIMASSOC
350
579
  3
INDEXCTL
350
897
  3
LAYEREVAL
350
E19
  3
LAYERNOTIFY
350
E1A
  3
LIGHTINGUNITS
350
E18
  3
MSLTSCALE
350
E17
  3
SORTENTS
350
896
  3
XCLIPFRAME
350
E24
  0
XRECORD
  5
E27
102
{ACAD_REACTORS
330
270
102
}
330
270
100
AcDbXrecord
280
     1
  1
DWGPROPS COOKIE
  2

  3

  4

  6

  7

  8
takaaki.hirami
  9

300
=
301
=
302
=
303
=
304
=
305
=
306
=
307
=
308
=
309
=
 40
0.0917706944444445
 41
2452263.781759259
 42
2459989.764710648
  1

 90
        0
  0
DICTIONARY
  5
6F4
102
{ACAD_REACTORS
330
6F3
102
}
330
6F3
100
AcDbDictionary
281
     1
  0
XRECORD
  5
D5B
102
{ACAD_REACTORS
330
D5A
102
}
330
D5A
100
AcDbXrecord
280
     1
290
     1
  0
XRECORD
  5
D5D
102
{ACAD_REACTORS
330
D5C
102
}
330
D5C
100
AcDbXrecord
280
     1
290
     1
  0
XRECORD
  5
D5F
102
{ACAD_REACTORS
330
D5E
102
}
330
D5E
100
AcDbXrecord
280
     1
290
     1
  0
XRECORD
  5
D60
102
{ACAD_REACTORS
330
6EF
102
}
330
6EF
100
AcDbXrecord
280
     1
290
     1
  0
XRECORD
  5
D61
102
{ACAD_REACTORS
330
7A0
102
}
330
7A0
100
AcDbXrecord
280
     1
290
     1
  0
ACDBDETAILVIEWSTYLE
  5
6EB
102
{ACAD_XDICTIONARY
360
E5F
102
}
102
{ACAD_REACTORS
330
6EA
102
}
330
6EA
100
AcDbModelDocViewStyle
 70
     0
  3
Imperial24
290
     0
100
AcDbDetailViewStyle
 70
     0
 71
     0
 90
        3
 71
     1
340
275
 40
0.24
340
0
 40
0.24
300

 40
0.36
280
     3
 71
     2
340
279
 90
       25
 71
     3
340
275
 40
0.24
 90
        1
 40
0.75
 90
        1
300
%<\AcVar ViewType \f "%tc1">% %<\AcVar ViewDetailId>%\PSCALE %<\AcVar ViewScale \f "%sn">%
 71
     4
340
279
 90
       25
340
279
 90
       25
280
     0
  0
ACDBDETAILVIEWSTYLE
  5
6F6
102
{ACAD_XDICTIONARY
360
E65
102
}
102
{ACAD_REACTORS
330
6EA
102
}
330
6EA
100
AcDbModelDocViewStyle
 70
     0
  3
Metric50
290
     0
100
AcDbDetailViewStyle
 70
     0
 71
     0
 90
        3
 71
     1
340
275
 40
5.0
340
0
 40
5.0
300

 40
0.0
280
     1
 71
     2
340
279
 90
       25
 71
     3
340
275
 40
5.0
 90
        0
 40
15.0
 90
        1
300
%<\AcVar ViewDetailId>% (%<\AcVar ViewScale \f "%sn">%)
 71
     4
340
279
 90
       25
340
279
 90
       25
280
     0
  0
LAYOUT
  5
285
102
{ACAD_XDICTIONARY
360
E2A
102
}
102
{ACAD_REACTORS
330
27D
102
}
330
27D
100
AcDbPlotSettings
  1

  2
Canon LASER SHOT LBP-1710
  4

  6

 40
0.0
 41
0.0
 42
0.0
 43
0.0
 44
0.0
 45
0.0
 46
0.0
 47
0.0
 48
0.0
 49
0.0
140
0.0
141
0.0
142
1.0
143
1.0
 70
  1712
 72
     0
 73
     0
 74
     0
  7
1mizukoshi.ctb
 75
     0
147
1.0
148
0.0
149
0.0
100
AcDbLayout
  1
Model
 70
     1
 71
     0
 10
0.0
 20
0.0
 11
12.0
 21
9.0
 12
0.0
 22
0.0
 32
0.0
 14
0.0
 24
0.0
 34
0.0
 15
0.0
 25
0.0
 35
0.0
146
0.0
 13
0.0
 23
0.0
 33
0.0
 16
1.0
 26
0.0
 36
0.0
 17
0.0
 27
1.0
 37
0.0
 76
     0
330
282
331
69A
  0
LAYOUT
  5
281
102
{ACAD_XDICTIONARY
360
E28
102
}
102
{ACAD_REACTORS
330
27D
102
}
330
27D
100
AcDbPlotSettings
  1

  2
Canon LASER SHOT LBP-1710
  4

  6

 40
0.0
 41
0.0
 42
0.0
 43
0.0
 44
0.0
 45
0.0
 46
0.0
 47
0.0
 48
0.0
 49
0.0
140
0.0
141
0.0
142
1.0
143
1.0
 70
   688
 72
     0
 73
     0
 74
     5
  7
1mizukoshi.ctb
 75
    16
147
1.0
148
0.0
149
0.0
100
AcDbLayout
  1
\U+FF9A\U+FF72\U+FF71\U+FF73\U+FF841
 70
     1
 71
     1
 10
0.0
 20
0.0
 11
420.0
 21
297.0
 12
0.0
 22
0.0
 32
0.0
 14
1.000000000000000E+20
 24
1.000000000000000E+20
 34
1.000000000000000E+20
 15
-1.000000000000000E+20
 25
-1.000000000000000E+20
 35
-1.000000000000000E+20
146
0.0
 13
0.0
 23
0.0
 33
0.0
 16
1.0
 26
0.0
 36
0.0
 17
0.0
 27
1.0
 37
0.0
 76
     0
330
27E
  0
MATERIAL
  5
6A8
102
{ACAD_XDICTIONARY
360
6A9
102
}
102
{ACAD_REACTORS
330
69F
102
}
330
69F
100
AcDbMaterial
  1
ByBlock
 72
     0
 43
0.0208333333333333
 43
0.0
 43
0.0
 43
0.0
 43
0.0
 43
0.0208333333333333
 43
0.0
 43
0.0
 43
0.0
 43
0.0
 43
1.0
 43
0.0
 43
0.0
 43
0.0
 43
0.0
 43
1.0
 77
     0
 47
0.0208333333333333
 47
0.0
 47
0.0
 47
0.0
 47
0.0
 47
0.0208333333333333
 47
0.0
 47
0.0
 47
0.0
 47
0.0
 47
1.0
 47
0.0
 47
0.0
 47
0.0
 47
0.0
 47
1.0
171
     0
 49
0.0208333333333333
 49
0.0
 49
0.0
 49
0.0
 49
0.0
 49
0.0208333333333333
 49
0.0
 49
0.0
 49
0.0
 49
0.0
 49
1.0
 49
0.0
 49
0.0
 49
0.0
 49
0.0
 49
1.0
175
     0
142
0.0208333333333333
142
0.0
142
0.0
142
0.0
142
0.0
142
0.0208333333333333
142
0.0
142
0.0
142
0.0
142
0.0
142
1.0
142
0.0
142
0.0
142
0.0
142
0.0
142
1.0
179
     0
144
0.0208333333333333
144
0.0
144
0.0
144
0.0
144
0.0
144
0.0208333333333333
144
0.0
144
0.0
144
0.0
144
0.0
144
1.0
144
0.0
144
0.0
144
0.0
144
0.0
144
1.0
147
0.0208333333333333
147
0.0
147
0.0
147
0.0
147
0.0
147
0.0208333333333333
147
0.0
147
0.0
147
0.0
147
0.0
147
1.0
147
0.0
147
0.0
147
0.0
147
0.0
147
1.0
  0
MATERIAL
  5
6A0
102
{ACAD_XDICTIONARY
360
6A1
102
}
102
{ACAD_REACTORS
330
69F
102
}
330
69F
100
AcDbMaterial
  1
ByLayer
 72
     0
 43
0.0208333333333333
 43
0.0
 43
0.0
 43
0.0
 43
0.0
 43
0.0208333333333333
 43
0.0
 43
0.0
 43
0.0
 43
0.0
 43
1.0
 43
0.0
 43
0.0
 43
0.0
 43
0.0
 43
1.0
 77
     0
 47
0.0208333333333333
 47
0.0
 47
0.0
 47
0.0
 47
0.0
 47
0.0208333333333333
 47
0.0
 47
0.0
 47
0.0
 47
0.0
 47
1.0
 47
0.0
 47
0.0
 47
0.0
 47
0.0
 47
1.0
171
     0
 49
0.0208333333333333
 49
0.0
 49
0.0
 49
0.0
 49
0.0
 49
0.0208333333333333
 49
0.0
 49
0.0
 49
0.0
 49
0.0
 49
1.0
 49
0.0
 49
0.0
 49
0.0
 49
0.0
 49
1.0
175
     0
142
0.0208333333333333
142
0.0
142
0.0
142
0.0
142
0.0
142
0.0208333333333333
142
0.0
142
0.0
142
0.0
142
0.0
142
1.0
142
0.0
142
0.0
142
0.0
142
0.0
142
1.0
179
     0
144
0.0208333333333333
144
0.0
144
0.0
144
0.0
144
0.0
144
0.0208333333333333
144
0.0
144
0.0
144
0.0
144
0.0
144
1.0
144
0.0
144
0.0
144
0.0
144
0.0
144
1.0
147
0.0208333333333333
147
0.0
147
0.0
147
0.0
147
0.0
147
0.0208333333333333
147
0.0
147
0.0
147
0.0
147
0.0
147
1.0
147
0.0
147
0.0
147
0.0
147
0.0
147
1.0
  0
MATERIAL
  5
6B0
102
{ACAD_XDICTIONARY
360
6B1
102
}
102
{ACAD_REACTORS
330
69F
102
}
330
69F
100
AcDbMaterial
  1
Global
 72
     0
 43
0.0208333333333333
 43
0.0
 43
0.0
 43
0.0
 43
0.0
 43
0.0208333333333333
 43
0.0
 43
0.0
 43
0.0
 43
0.0
 43
1.0
 43
0.0
 43
0.0
 43
0.0
 43
0.0
 43
1.0
 77
     0
 47
0.0208333333333333
 47
0.0
 47
0.0
 47
0.0
 47
0.0
 47
0.0208333333333333
 47
0.0
 47
0.0
 47
0.0
 47
0.0
 47
1.0
 47
0.0
 47
0.0
 47
0.0
 47
0.0
 47
1.0
171
     0
 49
0.0208333333333333
 49
0.0
 49
0.0
 49
0.0
 49
0.0
 49
0.0208333333333333
 49
0.0
 49
0.0
 49
0.0
 49
0.0
 49
1.0
 49
0.0
 49
0.0
 49
0.0
 49
0.0
 49
1.0
175
     0
142
0.0208333333333333
142
0.0
142
0.0
142
0.0
142
0.0
142
0.0208333333333333
142
0.0
142
0.0
142
0.0
142
0.0
142
1.0
142
0.0
142
0.0
142
0.0
142
0.0
142
1.0
179
     0
144
0.0208333333333333
144
0.0
144
0.0
144
0.0
144
0.0
144
0.0208333333333333
144
0.0
144
0.0
144
0.0
144
0.0
144
1.0
144
0.0
144
0.0
144
0.0
144
0.0
144
1.0
147
0.0208333333333333
147
0.0
147
0.0
147
0.0
147
0.0
147
0.0208333333333333
147
0.0
147
0.0
147
0.0
147
0.0
147
1.0
147
0.0
147
0.0
147
0.0
147
0.0
147
1.0
  0
MLEADERSTYLE
  5
6E7
102
{ACAD_REACTORS
330
6E6
102
}
330
6E6
100
AcDbMLeaderStyle
170
     2
171
     1
172
     0
 90
        2
 40
0.0
 41
0.0
173
     1
 91
-1056964608
340
277
 92
       -2
290
     1
 42
0.09
291
     1
 43
0.36
  3
Standard
 44
0.18
300

342
275
174
     1
178
     6
175
     1
176
     0
 93
-1056964608
 45
0.18
292
     0
297
     0
 46
0.18
 94
-1056964608
 47
1.0
 49
1.0
140
1.0
293
     1
141
0.0
294
     1
177
     0
142
1.0
295
     0
296
     0
143
0.125
1001
ACAD_MLEADERVER
1070
     2
  0
MLINESTYLE
  5
27B
102
{ACAD_REACTORS
330
27A
102
}
330
27A
100
AcDbMlineStyle
  2
STANDARD
 70
     0
  3

 62
   256
 51
90.0
 52
90.0
 71
     2
 49
0.5
 62
   256
  6
BYLAYER
 49
-0.5
 62
   256
  6
BYLAYER
  0
ACDBPLACEHOLDER
  5
273
102
{ACAD_REACTORS
330
272
102
}
330
272
  0
SCALE
  5
6D5
102
{ACAD_REACTORS
330
6D4
102
}
330
6D4
100
AcDbScale
 70
     0
300
1:1
140
1.0
141
1.0
290
     1
  0
SCALE
  5
6D6
102
{ACAD_REACTORS
330
6D4
102
}
330
6D4
100
AcDbScale
 70
     0
300
1/128" = 1'-0"
140
0.0078125
141
12.0
290
     0
  0
SCALE
  5
6D7
102
{ACAD_REACTORS
330
6D4
102
}
330
6D4
100
AcDbScale
 70
     0
300
1/64" = 1'-0"
140
0.015625
141
12.0
290
     0
  0
SCALE
  5
6D8
102
{ACAD_REACTORS
330
6D4
102
}
330
6D4
100
AcDbScale
 70
     0
300
1/32" = 1'-0"
140
0.03125
141
12.0
290
     0
  0
SCALE
  5
6D9
102
{ACAD_REACTORS
330
6D4
102
}
330
6D4
100
AcDbScale
 70
     0
300
1/16" = 1'-0"
140
0.0625
141
12.0
290
     0
  0
SCALE
  5
6DA
102
{ACAD_REACTORS
330
6D4
102
}
330
6D4
100
AcDbScale
 70
     0
300
3/32" = 1'-0"
140
0.09375
141
12.0
290
     0
  0
SCALE
  5
6DB
102
{ACAD_REACTORS
330
6D4
102
}
330
6D4
100
AcDbScale
 70
     0
300
1/8" = 1'-0"
140
0.125
141
12.0
290
     0
  0
SCALE
  5
6DC
102
{ACAD_REACTORS
330
6D4
102
}
330
6D4
100
AcDbScale
 70
     0
300
3/16" = 1'-0"
140
0.1875
141
12.0
290
     0
  0
SCALE
  5
6DD
102
{ACAD_REACTORS
330
6D4
102
}
330
6D4
100
AcDbScale
 70
     0
300
1/4" = 1'-0"
140
0.25
141
12.0
290
     0
  0
SCALE
  5
6DE
102
{ACAD_REACTORS
330
6D4
102
}
330
6D4
100
AcDbScale
 70
     0
300
3/8" = 1'-0"
140
0.375
141
12.0
290
     0
  0
SCALE
  5
6DF
102
{ACAD_REACTORS
330
6D4
102
}
330
6D4
100
AcDbScale
 70
     0
300
1/2" = 1'-0"
140
0.5
141
12.0
290
     0
  0
SCALE
  5
6E0
102
{ACAD_REACTORS
330
6D4
102
}
330
6D4
100
AcDbScale
 70
     0
300
3/4" = 1'-0"
140
0.75
141
12.0
290
     0
  0
SCALE
  5
6E1
102
{ACAD_REACTORS
330
6D4
102
}
330
6D4
100
AcDbScale
 70
     0
300
1" = 1'-0"
140
1.0
141
12.0
290
     0
  0
SCALE
  5
6E2
102
{ACAD_REACTORS
330
6D4
102
}
330
6D4
100
AcDbScale
 70
     0
300
1-1/2" = 1'-0"
140
1.5
141
12.0
290
     0
  0
SCALE
  5
6E3
102
{ACAD_REACTORS
330
6D4
102
}
330
6D4
100
AcDbScale
 70
     0
300
3" = 1'-0"
140
3.0
141
12.0
290
     0
  0
SCALE
  5
6E4
102
{ACAD_REACTORS
330
6D4
102
}
330
6D4
100
AcDbScale
 70
     0
300
6" = 1'-0"
140
6.0
141
12.0
290
     0
  0
SCALE
  5
6E5
102
{ACAD_REACTORS
330
6D4
102
}
330
6D4
100
AcDbScale
 70
     0
300
1'-0" = 1'-0"
140
12.0
141
12.0
290
     0
  0
ACDBSECTIONVIEWSTYLE
  5
6E9
102
{ACAD_XDICTIONARY
360
E5D
102
}
102
{ACAD_REACTORS
330
6E8
102
}
330
6E8
100
AcDbModelDocViewStyle
 70
     0
  3
Imperial24
290
     0
100
AcDbSectionViewStyle
 70
     0
 71
     0
 90
       78
 71
     1
340
275
 40
0.24
340
0
340
0
 40
0.24
300
I, O, Q, S, X, Z
 40
0.48
 90
        3
 40
0.18
 90
        1
 71
     2
340
279
 90
       25
340
279
 90
       50
 40
0.24
 40
0.0
 40
0.24
 71
     3
340
275
 40
0.24
 90
        1
 40
0.75
 90
        1
300
%<\AcVar ViewType \f "%tc1">% %<\AcVar ViewSectionStartId>%-%<\AcVar ViewSectionEndId>%\PSCALE %<\AcVar ViewScale \f "%sn">%
 71
     4
300
ANSI31
 40
1.0
 90
        0
290
     0
290
     0
 90
        6
 40
0.0
 40
1.570796326794896
 40
0.2617993877991494
 40
1.308996938995747
 40
-0.2617993877991494
 40
1.832595714594044
  0
ACDBSECTIONVIEWSTYLE
  5
6F5
102
{ACAD_XDICTIONARY
360
E63
102
}
102
{ACAD_REACTORS
330
6E8
102
}
330
6E8
100
AcDbModelDocViewStyle
 70
     0
  3
Metric50
290
     0
100
AcDbSectionViewStyle
 70
     0
 71
     0
 90
      102
 71
     1
340
275
 40
5.0
340
0
340
0
 40
5.0
300
I, O, Q, S, X, Z
 40
10.0
 90
        0
 40
2.5
 90
        0
 71
     2
340
279
 90
       25
340
279
 90
       50
 40
5.0
 40
2.5
 40
5.0
 71
     3
340
275
 40
5.0
 90
        0
 40
15.0
 90
        1
300
%<\AcVar ViewSectionStartId>%-%<\AcVar ViewSectionEndId>% (%<\AcVar ViewScale \f "%sn">%)
 71
     4
300
ANSI31
 40
1.0
 90
        0
290
     0
290
     0
 90
        6
 40
0.0
 40
1.570796326794896
 40
0.2617993877991494
 40
1.308996938995747
 40
-0.2617993877991494
 40
1.832595714594044
  0
TABLESTYLE
  5
6D3
102
{ACAD_XDICTIONARY
360
899
102
}
102
{ACAD_REACTORS
330
6D2
102
}
330
6D2
100
AcDbTableStyle
  3
Standard
 70
     0
 71
     0
 40
0.06
 41
0.06
280
     0
281
     0
  7
STANDARD
140
0.18
170
     2
 62
     0
 63
     7
283
     0
274
    -2
284
     1
 64
     0
275
    -2
285
     1
 65
     0
276
    -2
286
     1
 66
     0
277
    -2
287
     1
 67
     0
278
    -2
288
     1
 68
     0
279
    -2
289
     1
 69
     0
  7
STANDARD
140
0.25
170
     5
 62
     0
 63
     7
283
     0
274
    -2
284
     1
 64
     0
275
    -2
285
     1
 65
     0
276
    -2
286
     1
 66
     0
277
    -2
287
     1
 67
     0
278
    -2
288
     1
 68
     0
279
    -2
289
     1
 69
     0
  7
STANDARD
140
0.18
170
     5
 62
     0
 63
     7
283
     0
274
    -2
284
     1
 64
     0
275
    -2
285
     1
 65
     0
276
    -2
286
     1
 66
     0
277
    -2
287
     1
 67
     0
278
    -2
288
     1
 68
     0
279
    -2
289
     1
 69
     0
  0
VISUALSTYLE
  5
6BE
102
{ACAD_XDICTIONARY
360
E36
102
}
102
{ACAD_REACTORS
330
6B8
102
}
330
6B8
100
AcDbVisualStyle
  2

 70
     4
 71
     0
 72
     2
 73
     0
 90
        0
 40
-0.6
 41
-30.0
 62
     5
 63
     7
 74
     1
 91
        4
 64
     7
 65
   257
 75
     1
175
     1
 42
1.0
 92
        0
 66
   257
 43
1.0
 76
     1
 77
     6
 78
     2
 67
     7
 79
     5
170
     0
171
     0
290
     0
174
     0
 93
        1
 44
0.0
173
     0
291
     0
 45
0.0
1001
ACAD
1000
AcDbSavedByObjectVersion
1070
     0
  0
VISUALSTYLE
  5
6F2
102
{ACAD_XDICTIONARY
360
E61
102
}
102
{ACAD_REACTORS
330
6B8
102
}
330
6B8
100
AcDbVisualStyle
  2

 70
     5
 71
     0
 72
     2
 73
     0
 90
        0
 40
-0.6
 41
-30.0
 62
     5
 63
     7
 74
     1
 91
        4
 64
     7
 65
   257
 75
     1
175
     1
 42
1.0
 92
        0
 66
   257
 43
1.0
 76
     1
 77
     6
 78
     2
 67
     7
 79
     5
170
     0
171
     0
290
     0
174
     0
 93
        1
 44
0.0
173
     0
291
     0
 45
0.0
1001
ACAD
1000
AcDbSavedByObjectVersion
1070
     0
  0
VISUALSTYLE
  5
6BD
102
{ACAD_XDICTIONARY
360
E34
102
}
102
{ACAD_REACTORS
330
6B8
102
}
330
6B8
100
AcDbVisualStyle
  2

 70
     7
 71
     1
 72
     0
 73
     1
 90
        0
 40
-0.6
 41
-30.0
 62
     5
 63
     7
 74
     0
 91
        4
 64
     7
 65
   257
 75
     1
175
     1
 42
1.0
 92
        8
 66
     7
 43
1.0
 76
     1
 77
     6
 78
     2
 67
     7
 79
     5
170
     0
171
     0
290
     0
174
     0
 93
        1
 44
0.0
173
     0
291
     1
 45
0.0
1001
ACAD
1000
AcDbSavedByObjectVersion
1070
     0
  0
VISUALSTYLE
  5
6C4
102
{ACAD_XDICTIONARY
360
E42
102
}
102
{ACAD_REACTORS
330
6B8
102
}
330
6B8
100
AcDbVisualStyle
  2

 70
    12
 71
     2
 72
     2
 73
     0
 90
        0
 40
-0.6
 41
-30.0
 62
     5
 63
     7
 74
     1
 91
        4
 64
     7
 65
   257
 75
     1
175
     1
 42
1.0
 92
        8
 66
     7
 43
1.0
 76
     1
 77
     6
 78
     2
 67
     7
 79
     5
170
     0
171
     0
290
     0
174
     0
 93
        1
 44
50.0
173
     0
291
     1
 45
0.0
1001
ACAD
1000
AcDbSavedByObjectVersion
1070
     0
  0
VISUALSTYLE
  5
6C8
102
{ACAD_XDICTIONARY
360
E4A
102
}
102
{ACAD_REACTORS
330
6B8
102
}
330
6B8
100
AcDbVisualStyle
  2

 70
    16
 71
     2
 72
     2
 73
     3
 90
        0
 40
-0.6
 41
-30.0
 62
     5
 63
     8
 74
     1
 91
        4
 64
     7
 65
   257
 75
     1
175
     1
 42
1.0
 92
        8
 66
     8
 43
1.0
 76
     1
 77
     6
 78
     2
 67
     7
 79
     5
170
     0
171
     0
290
     0
174
     0
 93
        1
 44
0.0
173
     0
291
     1
 45
0.0
1001
ACAD
1000
AcDbSavedByObjectVersion
1070
     0
  0
VISUALSTYLE
  5
6C1
102
{ACAD_XDICTIONARY
360
E3C
102
}
102
{ACAD_REACTORS
330
6B8
102
}
330
6B8
100
AcDbVisualStyle
  2

 70
     9
 71
     3
 72
     2
 73
     0
 90
        0
 40
-0.6
 41
-30.0
 62
     5
 63
     7
 74
     2
 91
        2
 64
     7
 65
   257
 75
     1
175
     1
 42
179.0
 92
        8
 66
     7
 43
1.0
 76
     1
 77
     6
 78
     2
 67
     7
 79
     3
170
     0
171
     0
290
     0
174
     0
 93
        1
 44
0.0
173
     0
291
     0
 45
0.0
1001
ACAD
1000
AcDbSavedByObjectVersion
1070
     0
  0
VISUALSTYLE
  5
6C3
102
{ACAD_XDICTIONARY
360
E40
102
}
102
{ACAD_REACTORS
330
6B8
102
}
330
6B8
100
AcDbVisualStyle
  2

 70
    11
 71
     2
 72
     2
 73
     0
 90
        0
 40
-0.6
 41
-30.0
 62
     5
 63
     7
 74
     1
 91
        4
 64
     7
 65
   257
 75
     1
175
     1
 42
1.0
 92
        8
 66
     7
 43
1.0
 76
     1
 77
     6
 78
     2
 67
     7
 79
     5
170
     0
171
     0
290
     0
174
     0
 93
        1
 44
-50.0
173
     0
291
     1
 45
0.0
1001
ACAD
1000
AcDbSavedByObjectVersion
1070
     0
  0
VISUALSTYLE
  5
6D0
102
{ACAD_XDICTIONARY
360
E5A
102
}
102
{ACAD_REACTORS
330
6B8
102
}
330
6B8
100
AcDbVisualStyle
  2

 70
    22
 71
     2
 72
     2
 73
     0
 90
        0
 40
-0.6
 41
-30.0
 62
     5
 63
     7
 74
     1
 91
        4
 64
     7
 65
   257
 75
     1
175
     1
 42
1.0
 92
        8
 66
     7
 43
1.0
 76
     1
 77
     6
 78
     2
 67
     7
 79
     5
170
     0
171
     0
290
     0
174
     0
 93
        1
 44
0.0
173
     0
291
     1
 45
0.0
1001
ACAD
1000
AcDbSavedByObjectVersion
1070
     0
  0
VISUALSTYLE
  5
6C7
102
{ACAD_XDICTIONARY
360
E48
102
}
102
{ACAD_REACTORS
330
6B8
102
}
330
6B8
100
AcDbVisualStyle
  2

 70
    15
 71
     2
 72
     2
 73
     0
 90
        0
 40
-0.6
 41
-30.0
 62
     5
 63
     7
 74
     1
 91
        4
 64
     7
 65
   257
 75
     1
175
     1
 42
1.0
 92
        8
 66
     7
 43
1.0
 76
     1
 77
     6
 78
     2
 67
     7
 79
     5
170
     0
171
     0
290
     0
174
     0
 93
        1
 44
0.0
173
     0
291
     1
 45
0.0
1001
ACAD
1000
AcDbSavedByObjectVersion
1070
     0
  0
VISUALSTYLE
  5
6B9
102
{ACAD_XDICTIONARY
360
E2C
102
}
102
{ACAD_REACTORS
330
6B8
102
}
330
6B8
100
AcDbVisualStyle
  2

 70
     0
 71
     2
 72
     1
 73
     1
 90
        2
 40
-0.6
 41
30.0
 62
     5
 63
     7
 74
     0
 91
        0
 64
     7
 65
   257
 75
     1
175
     1
 42
1.0
 92
        8
 66
     7
 43
1.0
 76
     1
 77
     6
 78
     2
 67
     7
 79
     5
170
     0
171
     0
290
     0
174
     0
 93
       13
 44
0.0
173
     0
291
     1
 45
0.0
1001
ACAD
1000
AcDbSavedByObjectVersion
1070
     0
  0
VISUALSTYLE
  5
6BA
102
{ACAD_XDICTIONARY
360
E2E
102
}
102
{ACAD_REACTORS
330
6B8
102
}
330
6B8
100
AcDbVisualStyle
  2

 70
     1
 71
     2
 72
     1
 73
     1
 90
        2
 40
-0.6
 41
30.0
 62
     5
 63
     7
 74
     1
 91
        0
 64
     7
 65
   257
 75
     1
175
     1
 42
1.0
 92
        0
 66
   257
 43
1.0
 76
     1
 77
     6
 78
     2
 67
     7
 79
     5
170
     0
171
     0
290
     0
174
     0
 93
       13
 44
0.0
173
     0
291
     1
 45
0.0
1001
ACAD
1000
AcDbSavedByObjectVersion
1070
     0
  0
VISUALSTYLE
  5
6BB
102
{ACAD_XDICTIONARY
360
E30
102
}
102
{ACAD_REACTORS
330
6B8
102
}
330
6B8
100
AcDbVisualStyle
  2

 70
     2
 71
     2
 72
     2
 73
     1
 90
        2
 40
-0.6
 41
30.0
 62
     5
 63
     7
 74
     0
 91
        0
 64
     7
 65
   257
 75
     1
175
     1
 42
1.0
 92
        0
 66
     7
 43
1.0
 76
     1
 77
     6
 78
     2
 67
     7
 79
     5
170
     0
171
     0
290
     0
174
     0
 93
       13
 44
0.0
173
     0
291
     1
 45
0.0
1001
ACAD
1000
AcDbSavedByObjectVersion
1070
     0
  0
VISUALSTYLE
  5
6BC
102
{ACAD_XDICTIONARY
360
E32
102
}
102
{ACAD_REACTORS
330
6B8
102
}
330
6B8
100
AcDbVisualStyle
  2

 70
     3
 71
     2
 72
     2
 73
     1
 90
        2
 40
-0.6
 41
30.0
 62
     5
 63
     7
 74
     1
 91
        0
 64
     7
 65
   257
 75
     1
175
     1
 42
1.0
 92
        0
 66
   257
 43
1.0
 76
     1
 77
     6
 78
     2
 67
     7
 79
     5
170
     0
171
     0
290
     0
174
     0
 93
       13
 44
0.0
173
     0
291
     1
 45
0.0
1001
ACAD
1000
AcDbSavedByObjectVersion
1070
     0
  0
VISUALSTYLE
  5
6C0
102
{ACAD_XDICTIONARY
360
E3A
102
}
102
{ACAD_REACTORS
330
6B8
102
}
330
6B8
100
AcDbVisualStyle
  2

 70
     6
 71
     1
 72
     2
 73
     2
 90
        0
 40
-0.6
 41
-30.0
 62
     5
 63
     7
 74
     2
 91
        2
 64
     7
 65
   257
 75
     2
175
     1
 42
40.0
 92
        0
 66
   257
 43
1.0
 76
     1
 77
     6
 78
     2
 67
     7
 79
     3
170
     0
171
     0
290
     0
174
     0
 93
        1
 44
0.0
173
     0
291
     0
 45
0.0
1001
ACAD
1000
AcDbSavedByObjectVersion
1070
     0
  0
VISUALSTYLE
  5
6CE
102
{ACAD_XDICTIONARY
360
E56
102
}
102
{ACAD_REACTORS
330
6B8
102
}
330
6B8
100
AcDbVisualStyle
  2

 70
    20
 71
     2
 72
     2
 73
     0
 90
        0
 40
-0.6
 41
-30.0
 62
     5
 63
     7
 74
     1
 91
        4
 64
     7
 65
   257
 75
     1
175
     1
 42
1.0
 92
       10
 66
     7
 43
1.0
 76
     1
 77
     6
 78
     2
 67
     7
 79
     5
170
     0
171
     0
290
     0
174
     0
 93
        1
 44
0.0
173
     0
291
     1
 45
0.0
1001
ACAD
1000
AcDbSavedByObjectVersion
1070
     0
  0
VISUALSTYLE
  5
6C6
102
{ACAD_XDICTIONARY
360
E46
102
}
102
{ACAD_REACTORS
330
6B8
102
}
330
6B8
100
AcDbVisualStyle
  2

 70
    14
 71
     2
 72
     2
 73
     0
 90
        0
 40
-0.6
 41
-30.0
 62
     5
 63
     7
 74
     1
 91
        4
 64
     7
 65
   257
 75
     7
175
     7
 42
1.0
 92
        8
 66
     7
 43
1.0
 76
     1
 77
     6
 78
     2
 67
     7
 79
     5
170
     0
171
     0
290
     0
174
     0
 93
        1
 44
0.0
173
     0
291
     1
 45
0.0
1001
ACAD
1000
AcDbSavedByObjectVersion
1070
     0
  0
VISUALSTYLE
  5
6CF
102
{ACAD_XDICTIONARY
360
E58
102
}
102
{ACAD_REACTORS
330
6B8
102
}
330
6B8
100
AcDbVisualStyle
  2

 70
    21
 71
     2
 72
     2
 73
     0
 90
        0
 40
-0.6
 41
-30.0
 62
     5
 63
     7
 74
     1
 91
        4
 64
     7
 65
   257
 75
     1
175
     1
 42
1.0
 92
        9
 66
     7
 43
1.0
 76
     1
 77
     6
 78
     2
 67
     7
 79
     5
170
     0
171
     0
290
     0
174
     0
 93
        1
 44
0.0
173
     0
291
     1
 45
0.0
1001
ACAD
1000
AcDbSavedByObjectVersion
1070
     0
  0
VISUALSTYLE
  5
6C2
102
{ACAD_XDICTIONARY
360
E3E
102
}
102
{ACAD_REACTORS
330
6B8
102
}
330
6B8
100
AcDbVisualStyle
  2

 70
     8
 71
     2
 72
     3
 73
     0
 90
        2
 40
-0.6
 41
30.0
 62
     5
 63
     7
 74
     0
 91
        0
 64
     7
 65
   257
 75
     1
175
     1
 42
1.0
 92
        8
 66
   257
 43
1.0
 76
     1
 77
     6
 78
     2
 67
     7
 79
     3
170
     0
171
     0
290
     0
174
     0
 93
       13
 44
0.0
173
     0
291
     0
 45
0.0
1001
ACAD
1000
AcDbSavedByObjectVersion
1070
     0
  0
VISUALSTYLE
  5
6CD
102
{ACAD_XDICTIONARY
360
E54
102
}
102
{ACAD_REACTORS
330
6B8
102
}
330
6B8
100
AcDbVisualStyle
  2

 70
    27
 71
     2
 72
     2
 73
     1
 90
        2
 40
-0.6
 41
30.0
 62
     5
 63
     7
 74
     0
 91
        4
 64
     7
 65
   257
 75
     1
175
     1
 42
1.0
 92
        8
 66
   257
 43
1.0
 76
     1
 77
     6
 78
     2
 67
     8
 79
     3
170
     0
171
     0
290
     0
174
     0
 93
        5
 44
0.0
173
     0
291
     0
 45
0.0
1001
ACAD
1000
AcDbSavedByObjectVersion
1070
     0
  0
VISUALSTYLE
  5
6CC
102
{ACAD_XDICTIONARY
360
E52
102
}
102
{ACAD_REACTORS
330
6B8
102
}
330
6B8
100
AcDbVisualStyle
  2

 70
    26
 71
     2
 72
     2
 73
     1
 90
        2
 40
-0.6
 41
30.0
 62
     5
 63
     7
 74
     1
 91
        2
 64
     7
 65
   257
 75
     2
175
     1
 42
1.0
 92
        8
 66
   257
 43
1.0
 76
     1
 77
     6
 78
     2
 67
     7
 79
     3
170
     0
171
     0
290
     0
174
     0
 93
        5
 44
0.0
173
     0
291
     0
 45
0.0
1001
ACAD
1000
AcDbSavedByObjectVersion
1070
     0
  0
VISUALSTYLE
  5
6C9
102
{ACAD_XDICTIONARY
360
E4C
102
}
102
{ACAD_REACTORS
330
6B8
102
}
330
6B8
100
AcDbVisualStyle
  2

 70
    23
 71
     2
 72
     2
 73
     3
 90
        0
 40
-0.6
 41
-30.0
 62
     5
 63
     7
 74
     2
 91
        2
 64
     7
 65
     7
 75
     1
175
     1
 42
40.0
 92
        8
 66
     7
 43
1.0
 76
     1
 77
     6
 78
     2
 67
     7
 79
     3
170
     0
171
     0
290
     0
174
     0
 93
        1
 44
0.0
173
     0
291
     0
 45
0.0
1001
ACAD
1000
AcDbSavedByObjectVersion
1070
     0
  0
VISUALSTYLE
  5
6CA
102
{ACAD_XDICTIONARY
360
E4E
102
}
102
{ACAD_REACTORS
330
6B8
102
}
330
6B8
100
AcDbVisualStyle
  2

 70
    24
 71
     1
 72
     2
 73
     2
 90
        0
 40
-0.6
 41
-30.0
 62
     5
 63
     7
 74
     2
 91
        2
 64
     7
 65
     7
 75
     1
175
     1
 42
40.0
 92
       11
 66
     7
 43
1.0
 76
     1
 77
     6
 78
     2
 67
     7
 79
     6
170
     0
171
     0
290
     0
174
     0
 93
        1
 44
0.0
173
     0
291
     0
 45
0.0
1001
ACAD
1000
AcDbSavedByObjectVersion
1070
     0
  0
VISUALSTYLE
  5
6C5
102
{ACAD_XDICTIONARY
360
E44
102
}
102
{ACAD_REACTORS
330
6B8
102
}
330
6B8
100
AcDbVisualStyle
  2

 70
    13
 71
     2
 72
     2
 73
     0
 90
        0
 40
-0.6
 41
-30.0
 62
     5
 63
     7
 74
     1
 91
        4
 64
     7
 65
   257
 75
     1
175
     1
 42
1.0
 92
       12
 66
     7
 43
1.0
 76
     1
 77
     6
 78
     2
 67
     7
 79
     5
170
     0
171
     0
290
     0
174
     0
 93
        1
 44
0.0
173
     0
291
     1
 45
0.0
1001
ACAD
1000
AcDbSavedByObjectVersion
1070
     0
  0
VISUALSTYLE
  5
6BF
102
{ACAD_XDICTIONARY
360
E38
102
}
102
{ACAD_REACTORS
330
6B8
102
}
330
6B8
100
AcDbVisualStyle
  2

 70
     5
 71
     0
 72
     2
 73
     0
 90
        0
 40
-0.6
 41
-30.0
 62
     5
 63
     7
 74
     1
 91
        4
 64
     7
 65
   257
 75
     1
175
     1
 42
1.0
 92
        0
 66
   257
 43
1.0
 76
     1
 77
     6
 78
     2
 67
     7
 79
     3
170
     0
171
     0
290
     0
174
     0
 93
        1
 44
0.0
173
     0
291
     0
 45
0.0
1001
ACAD
1000
AcDbSavedByObjectVersion
1070
     0
  0
VISUALSTYLE
  5
6CB
102
{ACAD_XDICTIONARY
360
E50
102
}
102
{ACAD_REACTORS
330
6B8
102
}
330
6B8
100
AcDbVisualStyle
  2

 70
    25
 71
     2
 72
     2
 73
     1
 90
        1
 40
0.5
 41
-30.0
 62
     5
 63
     7
 74
     1
 91
        0
 64
     7
 65
   257
 75
     1
175
     1
 42
1.0
 92
        8
 66
     7
 43
1.0
 76
     1
 77
     6
 78
     2
 67
     7
 79
     3
170
     0
171
     0
290
     0
174
     0
 93
       13
 44
0.0
173
     0
291
     0
 45
0.0
1001
ACAD
1000
AcDbSavedByObjectVersion
1070
     0
  0
DICTIONARYVAR
  5
895
102
{ACAD_REACTORS
330
578
102
}
330
578
100
DictionaryVariables
280
     0
  1
1:1
  0
DICTIONARYVAR
  5
892
102
{ACAD_REACTORS
330
578
102
}
330
578
100
DictionaryVariables
280
     0
  1
STANDARD
  0
DICTIONARYVAR
  5
891
102
{ACAD_REACTORS
330
578
102
}
330
578
100
DictionaryVariables
280
     0
  1
STANDARD
  0
DICTIONARYVAR
  5
893
102
{ACAD_REACTORS
330
578
102
}
330
578
100
DictionaryVariables
280
     0
  1
Imperial24
  0
DICTIONARYVAR
  5
894
102
{ACAD_REACTORS
330
578
102
}
330
578
100
DictionaryVariables
280
     0
  1
Imperial24
  0
DICTIONARYVAR
  5
579
102
{ACAD_REACTORS
330
578
102
}
330
578
100
DictionaryVariables
280
     0
  1
1
  0
DICTIONARYVAR
  5
897
102
{ACAD_REACTORS
330
578
102
}
330
578
100
DictionaryVariables
280
     0
  1
0
  0
DICTIONARYVAR
  5
E19
102
{ACAD_REACTORS
330
578
102
}
330
578
100
DictionaryVariables
280
     0
  1
1
  0
DICTIONARYVAR
  5
E1A
102
{ACAD_REACTORS
330
578
102
}
330
578
100
DictionaryVariables
280
     0
  1
15
  0
DICTIONARYVAR
  5
E18
102
{ACAD_REACTORS
330
578
102
}
330
578
100
DictionaryVariables
280
     0
  1
0
  0
DICTIONARYVAR
  5
E17
102
{ACAD_REACTORS
330
578
102
}
330
578
100
DictionaryVariables
280
     0
  1
0
  0
DICTIONARYVAR
  5
896
102
{ACAD_REACTORS
330
578
102
}
330
578
100
DictionaryVariables
280
     0
  1
127
  0
DICTIONARYVAR
  5
E24
102
{ACAD_REACTORS
330
578
102
}
330
578
100
DictionaryVariables
280
     0
  1
2
  0
DICTIONARY
  5
E5F
330
6EB
100
AcDbDictionary
280
     1
281
     1
  3
ACAD_XREC_ROUNDTRIP
360
E60
  0
DICTIONARY
  5
E65
330
6F6
100
AcDbDictionary
280
     1
281
     1
  3
ACAD_XREC_ROUNDTRIP
360
E66
  0
DICTIONARY
  5
E2A
330
285
100
AcDbDictionary
280
     1
281
     1
  3
ACAD_XREC_ROUNDTRIP
360
E2B
  0
DICTIONARY
  5
E28
330
281
100
AcDbDictionary
280
     1
281
     1
  3
ACAD_XREC_ROUNDTRIP
360
E29
  0
DICTIONARY
  5
6A9
330
6A8
100
AcDbDictionary
280
     1
281
     1
  3
ACAD_XREC_ROUNDTRIP
360
8AA
  3
BUMPTILE
360
6AB
  3
DIFFUSETILE
360
6AA
  3
OPACITYTILE
360
6AE
  3
REFLECTIONTILE
360
6AD
  3
REFRACTIONTILE
360
6AF
  3
SPECULARTILE
360
6AC
  0
DICTIONARY
  5
6A1
330
6A0
100
AcDbDictionary
280
     1
281
     1
  3
ACAD_XREC_ROUNDTRIP
360
8A9
  3
BUMPTILE
360
6A3
  3
DIFFUSETILE
360
6A2
  3
OPACITYTILE
360
6A6
  3
REFLECTIONTILE
360
6A5
  3
REFRACTIONTILE
360
6A7
  3
SPECULARTILE
360
6A4
  0
DICTIONARY
  5
6B1
330
6B0
100
AcDbDictionary
280
     1
281
     1
  3
ACAD_XREC_ROUNDTRIP
360
8AB
  3
BUMPTILE
360
6B3
  3
DIFFUSETILE
360
6B2
  3
OPACITYTILE
360
6B6
  3
REFLECTIONTILE
360
6B5
  3
REFRACTIONTILE
360
6B7
  3
SPECULARTILE
360
6B4
  0
DICTIONARY
  5
E5D
330
6E9
100
AcDbDictionary
280
     1
281
     1
  3
ACAD_XREC_ROUNDTRIP
360
E5E
  0
DICTIONARY
  5
E63
330
6F5
100
AcDbDictionary
280
     1
281
     1
  3
ACAD_XREC_ROUNDTRIP
360
E64
  0
DICTIONARY
  5
899
330
6D3
100
AcDbDictionary
280
     1
281
     1
  3
ACAD_ROUNDTRIP_2008_TABLESTYLE_CELLSTYLEMAP
360
E25
  3
ACAD_XREC_ROUNDTRIP
360
E5C
  0
DICTIONARY
  5
E36
330
6BE
100
AcDbDictionary
280
     1
281
     1
  3
ACAD_XREC_ROUNDTRIP
360
E37
  0
DICTIONARY
  5
E61
330
6F2
100
AcDbDictionary
280
     1
281
     1
  3
ACAD_XREC_ROUNDTRIP
360
E62
  0
DICTIONARY
  5
E34
330
6BD
100
AcDbDictionary
280
     1
281
     1
  3
ACAD_XREC_ROUNDTRIP
360
E35
  0
DICTIONARY
  5
E42
330
6C4
100
AcDbDictionary
280
     1
281
     1
  3
ACAD_XREC_ROUNDTRIP
360
E43
  0
DICTIONARY
  5
E4A
330
6C8
100
AcDbDictionary
280
     1
281
     1
  3
ACAD_XREC_ROUNDTRIP
360
E4B
  0
DICTIONARY
  5
E3C
330
6C1
100
AcDbDictionary
280
     1
281
     1
  3
ACAD_XREC_ROUNDTRIP
360
E3D
  0
DICTIONARY
  5
E40
330
6C3
100
AcDbDictionary
280
     1
281
     1
  3
ACAD_XREC_ROUNDTRIP
360
E41
  0
DICTIONARY
  5
E5A
330
6D0
100
AcDbDictionary
280
     1
281
     1
  3
ACAD_XREC_ROUNDTRIP
360
E5B
  0
DICTIONARY
  5
E48
330
6C7
100
AcDbDictionary
280
     1
281
     1
  3
ACAD_XREC_ROUNDTRIP
360
E49
  0
DICTIONARY
  5
E2C
330
6B9
100
AcDbDictionary
280
     1
281
     1
  3
ACAD_XREC_ROUNDTRIP
360
E2D
  0
DICTIONARY
  5
E2E
330
6BA
100
AcDbDictionary
280
     1
281
     1
  3
ACAD_XREC_ROUNDTRIP
360
E2F
  0
DICTIONARY
  5
E30
330
6BB
100
AcDbDictionary
280
     1
281
     1
  3
ACAD_XREC_ROUNDTRIP
360
E31
  0
DICTIONARY
  5
E32
330
6BC
100
AcDbDictionary
280
     1
281
     1
  3
ACAD_XREC_ROUNDTRIP
360
E33
  0
DICTIONARY
  5
E3A
330
6C0
100
AcDbDictionary
280
     1
281
     1
  3
ACAD_XREC_ROUNDTRIP
360
E3B
  0
DICTIONARY
  5
E56
330
6CE
100
AcDbDictionary
280
     1
281
     1
  3
ACAD_XREC_ROUNDTRIP
360
E57
  0
DICTIONARY
  5
E46
330
6C6
100
AcDbDictionary
280
     1
281
     1
  3
ACAD_XREC_ROUNDTRIP
360
E47
  0
DICTIONARY
  5
E58
330
6CF
100
AcDbDictionary
280
     1
281
     1
  3
ACAD_XREC_ROUNDTRIP
360
E59
  0
DICTIONARY
  5
E3E
330
6C2
100
AcDbDictionary
280
     1
281
     1
  3
ACAD_XREC_ROUNDTRIP
360
E3F
  0
DICTIONARY
  5
E54
330
6CD
100
AcDbDictionary
280
     1
281
     1
  3
ACAD_XREC_ROUNDTRIP
360
E55
  0
DICTIONARY
  5
E52
330
6CC
100
AcDbDictionary
280
     1
281
     1
  3
ACAD_XREC_ROUNDTRIP
360
E53
  0
DICTIONARY
  5
E4C
330
6C9
100
AcDbDictionary
280
     1
281
     1
  3
ACAD_XREC_ROUNDTRIP
360
E4D
  0
DICTIONARY
  5
E4E
330
6CA
100
AcDbDictionary
280
     1
281
     1
  3
ACAD_XREC_ROUNDTRIP
360
E4F
  0
DICTIONARY
  5
E44
330
6C5
100
AcDbDictionary
280
     1
281
     1
  3
ACAD_XREC_ROUNDTRIP
360
E45
  0
DICTIONARY
  5
E38
330
6BF
100
AcDbDictionary
280
     1
281
     1
  3
ACAD_XREC_ROUNDTRIP
360
E39
  0
DICTIONARY
  5
E50
330
6CB
100
AcDbDictionary
280
     1
281
     1
  3
ACAD_XREC_ROUNDTRIP
360
E51
  0
XRECORD
  5
E60
102
{ACAD_REACTORS
330
E5F
102
}
330
E5F
100
AcDbXrecord
280
     1
102
DISPLAYNAME
  1
Imperial24
102
FLAGS
 90
        0
  0
XRECORD
  5
E66
102
{ACAD_REACTORS
330
E65
102
}
330
E65
100
AcDbXrecord
280
     1
102
DISPLAYNAME
  1
Metric50
102
FLAGS
 90
        0
  0
XRECORD
  5
E2B
102
{ACAD_REACTORS
330
E2A
102
}
330
E2A
100
AcDbXrecord
280
     1
102
SHADEPLOT
 70
     0
102
SHADEPLOTRESLEVEL
 70
     2
102
SHADEPLOTCUSTOMDPI
 70
   300
  0
XRECORD
  5
E29
102
{ACAD_REACTORS
330
E28
102
}
330
E28
100
AcDbXrecord
280
     1
102
SHADEPLOT
 70
     0
102
SHADEPLOTRESLEVEL
 70
     2
102
SHADEPLOTCUSTOMDPI
 70
   300
  0
XRECORD
  5
8AA
102
{ACAD_REACTORS
330
6A9
102
}
330
6A9
100
AcDbXrecord
280
     1
102
MATERIAL
148
0.0
149
0.0
149
0.0
 93
        0
 94
      127
282
     0
 72
     0
 77
     0
171
     0
175
     0
179
     0
273
     0
  0
XRECORD
  5
6AB
102
{ACAD_REACTORS
330
6A9
102
}
330
6A9
100
AcDbXrecord
280
     1
270
     1
271
     1
  0
XRECORD
  5
6AA
102
{ACAD_REACTORS
330
6A9
102
}
330
6A9
100
AcDbXrecord
280
     1
270
     1
271
     1
  0
XRECORD
  5
6AE
102
{ACAD_REACTORS
330
6A9
102
}
330
6A9
100
AcDbXrecord
280
     1
270
     1
271
     1
  0
XRECORD
  5
6AD
102
{ACAD_REACTORS
330
6A9
102
}
330
6A9
100
AcDbXrecord
280
     1
270
     1
271
     1
  0
XRECORD
  5
6AF
102
{ACAD_REACTORS
330
6A9
102
}
330
6A9
100
AcDbXrecord
280
     1
270
     1
271
     1
  0
XRECORD
  5
6AC
102
{ACAD_REACTORS
330
6A9
102
}
330
6A9
100
AcDbXrecord
280
     1
270
     1
271
     1
  0
XRECORD
  5
8A9
102
{ACAD_REACTORS
330
6A1
102
}
330
6A1
100
AcDbXrecord
280
     1
102
MATERIAL
148
0.0
149
0.0
149
0.0
 93
        0
 94
      127
282
     0
 72
     0
 77
     0
171
     0
175
     0
179
     0
273
     0
  0
XRECORD
  5
6A3
102
{ACAD_REACTORS
330
6A1
102
}
330
6A1
100
AcDbXrecord
280
     1
270
     1
271
     1
  0
XRECORD
  5
6A2
102
{ACAD_REACTORS
330
6A1
102
}
330
6A1
100
AcDbXrecord
280
     1
270
     1
271
     1
  0
XRECORD
  5
6A6
102
{ACAD_REACTORS
330
6A1
102
}
330
6A1
100
AcDbXrecord
280
     1
270
     1
271
     1
  0
XRECORD
  5
6A5
102
{ACAD_REACTORS
330
6A1
102
}
330
6A1
100
AcDbXrecord
280
     1
270
     1
271
     1
  0
XRECORD
  5
6A7
102
{ACAD_REACTORS
330
6A1
102
}
330
6A1
100
AcDbXrecord
280
     1
270
     1
271
     1
  0
XRECORD
  5
6A4
102
{ACAD_REACTORS
330
6A1
102
}
330
6A1
100
AcDbXrecord
280
     1
270
     1
271
     1
  0
XRECORD
  5
8AB
102
{ACAD_REACTORS
330
6B1
102
}
330
6B1
100
AcDbXrecord
280
     1
102
MATERIAL
148
0.0
149
0.0
149
0.0
 93
        0
 94
      127
282
     0
 72
     0
 77
     0
171
     0
175
     0
179
     0
273
     0
  0
XRECORD
  5
6B3
102
{ACAD_REACTORS
330
6B1
102
}
330
6B1
100
AcDbXrecord
280
     1
270
     1
271
     1
  0
XRECORD
  5
6B2
102
{ACAD_REACTORS
330
6B1
102
}
330
6B1
100
AcDbXrecord
280
     1
270
     1
271
     1
  0
XRECORD
  5
6B6
102
{ACAD_REACTORS
330
6B1
102
}
330
6B1
100
AcDbXrecord
280
     1
270
     1
271
     1
  0
XRECORD
  5
6B5
102
{ACAD_REACTORS
330
6B1
102
}
330
6B1
100
AcDbXrecord
280
     1
270
     1
271
     1
  0
XRECORD
  5
6B7
102
{ACAD_REACTORS
330
6B1
102
}
330
6B1
100
AcDbXrecord
280
     1
270
     1
271
     1
  0
XRECORD
  5
6B4
102
{ACAD_REACTORS
330
6B1
102
}
330
6B1
100
AcDbXrecord
280
     1
270
     1
271
     1
  0
XRECORD
  5
E5E
102
{ACAD_REACTORS
330
E5D
102
}
330
E5D
100
AcDbXrecord
280
     1
102
DISPLAYNAME
  1
Imperial24
102
FLAGS
 90
        0
  0
XRECORD
  5
E64
102
{ACAD_REACTORS
330
E63
102
}
330
E63
100
AcDbXrecord
280
     1
102
DISPLAYNAME
  1
Metric50
102
FLAGS
 90
        0
  0
CELLSTYLEMAP
  5
E25
102
{ACAD_REACTORS
330
899
102
}
330
899
100
AcDbCellStyleMap
 90
        3
300
CELLSTYLE
  1
TABLEFORMAT_BEGIN
 90
        5
170
     1
 91
        0
 92
    32768
 62
   257
 93
        1
300
CONTENTFORMAT
  1
CONTENTFORMAT_BEGIN
 90
        0
 91
        0
 92
      512
 93
        0
300

 40
0.0
140
1.0
 94
        5
 62
     0
340
275
144
0.25
309
CONTENTFORMAT_END
171
     1
301
MARGIN
  1
CELLMARGIN_BEGIN
 40
0.06
 40
0.06
 40
0.06
 40
0.06
 40
0.18
 40
0.18
309
CELLMARGIN_END
 94
        6
 95
        1
302
GRIDFORMAT
  1
GRIDFORMAT_BEGIN
 90
        0
 91
        1
 62
     0
 92
       -2
340
0
 93
        0
 40
0.045
309
GRIDFORMAT_END
 95
        2
302
GRIDFORMAT
  1
GRIDFORMAT_BEGIN
 90
        0
 91
        1
 62
     0
 92
       -2
340
0
 93
        0
 40
0.045
309
GRIDFORMAT_END
 95
        4
302
GRIDFORMAT
  1
GRIDFORMAT_BEGIN
 90
        0
 91
        1
 62
     0
 92
       -2
340
0
 93
        0
 40
0.045
309
GRIDFORMAT_END
 95
        8
302
GRIDFORMAT
  1
GRIDFORMAT_BEGIN
 90
        0
 91
        1
 62
     0
 92
       -2
340
0
 93
        0
 40
0.045
309
GRIDFORMAT_END
 95
       16
302
GRIDFORMAT
  1
GRIDFORMAT_BEGIN
 90
        0
 91
        1
 62
     0
 92
       -2
340
0
 93
        0
 40
0.045
309
GRIDFORMAT_END
 95
       32
302
GRIDFORMAT
  1
GRIDFORMAT_BEGIN
 90
        0
 91
        1
 62
     0
 92
       -2
340
0
 93
        0
 40
0.045
309
GRIDFORMAT_END
309
TABLEFORMAT_END
  1
CELLSTYLE_BEGIN
 90
        1
 91
        1
300
_TITLE
309
CELLSTYLE_END
300
CELLSTYLE
  1
TABLEFORMAT_BEGIN
 90
        5
170
     1
 91
        0
 92
        0
 62
   257
 93
        1
300
CONTENTFORMAT
  1
CONTENTFORMAT_BEGIN
 90
        0
 91
        0
 92
      512
 93
        0
300

 40
0.0
140
1.0
 94
        5
 62
     0
340
275
144
0.18
309
CONTENTFORMAT_END
171
     1
301
MARGIN
  1
CELLMARGIN_BEGIN
 40
0.06
 40
0.06
 40
0.06
 40
0.06
 40
0.18
 40
0.18
309
CELLMARGIN_END
 94
        6
 95
        1
302
GRIDFORMAT
  1
GRIDFORMAT_BEGIN
 90
        0
 91
        1
 62
     0
 92
       -2
340
0
 93
        0
 40
0.045
309
GRIDFORMAT_END
 95
        2
302
GRIDFORMAT
  1
GRIDFORMAT_BEGIN
 90
        0
 91
        1
 62
     0
 92
       -2
340
0
 93
        0
 40
0.045
309
GRIDFORMAT_END
 95
        4
302
GRIDFORMAT
  1
GRIDFORMAT_BEGIN
 90
        0
 91
        1
 62
     0
 92
       -2
340
0
 93
        0
 40
0.045
309
GRIDFORMAT_END
 95
        8
302
GRIDFORMAT
  1
GRIDFORMAT_BEGIN
 90
        0
 91
        1
 62
     0
 92
       -2
340
0
 93
        0
 40
0.045
309
GRIDFORMAT_END
 95
       16
302
GRIDFORMAT
  1
GRIDFORMAT_BEGIN
 90
        0
 91
        1
 62
     0
 92
       -2
340
0
 93
        0
 40
0.045
309
GRIDFORMAT_END
 95
       32
302
GRIDFORMAT
  1
GRIDFORMAT_BEGIN
 90
        0
 91
        1
 62
     0
 92
       -2
340
0
 93
        0
 40
0.045
309
GRIDFORMAT_END
309
TABLEFORMAT_END
  1
CELLSTYLE_BEGIN
 90
        2
 91
        1
300
_HEADER
309
CELLSTYLE_END
300
CELLSTYLE
  1
TABLEFORMAT_BEGIN
 90
        5
170
     1
 91
        0
 92
        0
 62
   257
 93
        1
300
CONTENTFORMAT
  1
CONTENTFORMAT_BEGIN
 90
        0
 91
        0
 92
      512
 93
        0
300

 40
0.0
140
1.0
 94
        2
 62
     0
340
275
144
0.18
309
CONTENTFORMAT_END
171
     1
301
MARGIN
  1
CELLMARGIN_BEGIN
 40
0.06
 40
0.06
 40
0.06
 40
0.06
 40
0.18
 40
0.18
309
CELLMARGIN_END
 94
        6
 95
        1
302
GRIDFORMAT
  1
GRIDFORMAT_BEGIN
 90
        0
 91
        1
 62
     0
 92
       -2
340
0
 93
        0
 40
0.045
309
GRIDFORMAT_END
 95
        2
302
GRIDFORMAT
  1
GRIDFORMAT_BEGIN
 90
        0
 91
        1
 62
     0
 92
       -2
340
0
 93
        0
 40
0.045
309
GRIDFORMAT_END
 95
        4
302
GRIDFORMAT
  1
GRIDFORMAT_BEGIN
 90
        0
 91
        1
 62
     0
 92
       -2
340
0
 93
        0
 40
0.045
309
GRIDFORMAT_END
 95
        8
302
GRIDFORMAT
  1
GRIDFORMAT_BEGIN
 90
        0
 91
        1
 62
     0
 92
       -2
340
0
 93
        0
 40
0.045
309
GRIDFORMAT_END
 95
       16
302
GRIDFORMAT
  1
GRIDFORMAT_BEGIN
 90
        0
 91
        1
 62
     0
 92
       -2
340
0
 93
        0
 40
0.045
309
GRIDFORMAT_END
 95
       32
302
GRIDFORMAT
  1
GRIDFORMAT_BEGIN
 90
        0
 91
        1
 62
     0
 92
       -2
340
0
 93
        0
 40
0.045
309
GRIDFORMAT_END
309
TABLEFORMAT_END
  1
CELLSTYLE_BEGIN
 90
        3
 91
        2
300
_DATA
309
CELLSTYLE_END
  0
XRECORD
  5
E5C
102
{ACAD_REACTORS
330
899
102
}
330
899
100
AcDbXrecord
280
     1
102
ACAD_ROUNDTRIP_PRE2007_TABLESTYLE
 90
      512
 91
        0
  1

 92
      512
 93
        0
  2

 94
      512
 95
        0
  3

  0
XRECORD
  5
E37
102
{ACAD_REACTORS
330
E36
102
}
330
E36
100
AcDbXrecord
280
     1
102
RTVSPost2010Prop28
280
     1
102
RTVSPost2010PropOp28
 70
     1
102
RTVSPost2010Prop29
280
     1
102
RTVSPost2010PropOp29
 70
     1
102
RTVSPost2010Prop30
280
     0
102
RTVSPost2010PropOp30
 70
     1
102
RTVSPost2010Prop31
280
     0
102
RTVSPost2010PropOp31
 70
     1
102
RTVSPost2010Prop32
280
     0
102
RTVSPost2010PropOp32
 70
     1
102
RTVSPost2010Prop33
280
     0
102
RTVSPost2010PropOp33
 70
     1
102
RTVSPost2010Prop34
280
     0
102
RTVSPost2010PropOp34
 70
     1
102
RTVSPost2010Prop35
280
     0
102
RTVSPost2010PropOp35
 70
     1
102
RTVSPost2010Prop36
280
     0
102
RTVSPost2010PropOp36
 70
     1
102
RTVSPost2010Prop37
 90
       50
102
RTVSPost2010PropOp37
 70
     1
102
RTVSPost2010Prop38
140
0.0
102
RTVSPost2010PropOp38
 70
     1
102
RTVSPost2010Prop39
140
1.0
102
RTVSPost2010PropOp39
 70
     1
102
RTVSPost2010Prop40
 90
        0
102
RTVSPost2010PropOp40
 70
     1
102
RTVSPost2010Prop41ColorIndex
 90
       18
102
RTVSPost2010Prop41ColorRGB
 90
        0
102
RTVSPost2010PropOp41
 70
     1
102
RTVSPost2010Prop42
 90
       50
102
RTVSPost2010PropOp42
 70
     1
102
RTVSPost2010Prop43
 90
        3
102
RTVSPost2010PropOp43
 70
     1
102
RTVSPost2010Prop44ColorIndex
 90
        5
102
RTVSPost2010Prop44ColorRGB
 90
      255
102
RTVSPost2010PropOp44
 70
     1
102
RTVSPost2010Prop45
280
     0
102
RTVSPost2010PropOp45
 70
     1
102
RTVSPost2010Prop46
 90
       50
102
RTVSPost2010PropOp46
 70
     1
102
RTVSPost2010Prop47
 90
       50
102
RTVSPost2010PropOp47
 70
     1
102
RTVSPost2010Prop48
 90
       50
102
RTVSPost2010PropOp48
 70
     1
102
RTVSPost2010Prop49
280
     0
102
RTVSPost2010PropOp49
 70
     1
102
RTVSPost2010Prop50
 90
       50
102
RTVSPost2010PropOp50
 70
     1
102
RTVSPost2010Prop51ColorIndex
 90
      256
102
RTVSPost2010Prop51ColorRGB
 90
-16777216
102
RTVSPost2010PropOp51
 70
     0
102
RTVSPost2010Prop52
140
1.0
102
RTVSPost2010PropOp52
 70
     0
102
RTVSPost2010Prop53
 90
        2
102
RTVSPost2010PropOp53
 70
     1
102
RTVSPost2010Prop54
  1
strokes_ogs.tif
102
RTVSPost2010PropOp54
 70
     1
102
RTVSPost2010Prop55
280
     0
102
RTVSPost2010PropOp55
 70
     1
102
RTVSPost2010Prop56
140
1.0
102
RTVSPost2010PropOp56
 70
     1
102
RTVSPost2010Prop57
140
1.0
102
RTVSPost2010PropOp57
 70
     1
102
RTVSPropertyOp0
 70
     1
102
RTVSPropertyOp1
 70
     1
102
RTVSPropertyOp2
 70
     1
102
RTVSPropertyOp3
 70
     1
102
RTVSPropertyOp4
 70
     1
102
RTVSPropertyOp5
 70
     1
102
RTVSPropertyOp6
 70
     1
102
RTVSPropertyOp7
 70
     1
102
RTVSPropertyOp8
 70
     1
102
RTVSPropertyOp9
 70
     1
102
RTVSPropertyOp10
 70
     1
102
RTVSPropertyOp11
 70
     1
102
RTVSPropertyOp12
 70
     1
102
RTVSPropertyOp13
 70
     1
102
RTVSPropertyOp14
 70
     1
102
RTVSPropertyOp15
 70
     1
102
RTVSPropertyOp16
 70
     1
102
RTVSPropertyOp17
 70
     1
102
RTVSPropertyOp18
 70
     1
102
RTVSPropertyOp19
 70
     1
102
RTVSPropertyOp20
 70
     1
102
RTVSPropertyOp21
 70
     1
102
RTVSPropertyOp22
 70
     1
102
RTVSPropertyOp23
 70
     1
102
RTVSPropertyOp24
 70
     1
102
RTVSPropertyOp25
 70
     1
102
RTVSPropertyOp26
 70
     1
102
RTVSPropertyOp27
 70
     1
102
RTVSPropertyOp28
 70
     1
102
RTVSPropertyOp29
 70
     1
102
RTVSPropertyOp30
 70
     1
102
RTVSPropertyOp31
 70
     1
102
RTVSPropertyOp32
 70
     1
102
RTVSPropertyOp33
 70
     1
102
RTVSPropertyOp34
 70
     1
102
RTVSPropertyOp35
 70
     1
102
RTVSPropertyOp36
 70
     1
102
RTVSPropertyOp37
 70
     1
102
RTVSPropertyOp38
 70
     1
102
RTVSPropertyOp39
 70
     1
102
RTVSPropertyOp40
 70
     1
102
RTVSPropertyOp41
 70
     1
102
RTVSPropertyOp42
 70
     1
102
RTVSPropertyOp43
 70
     1
102
RTVSPropertyOp44
 70
     1
102
RTVSPropertyOp45
 70
     1
102
RTVSPropertyOp46
 70
     1
102
RTVSPropertyOp47
 70
     1
102
RTVSPropertyOp48
 70
     1
102
RTVSPropertyOp49
 70
     1
102
RTVSPropertyOp50
 70
     1
102
RTVSPropertyOp51
 70
     0
102
RTVSPropertyOp52
 70
     0
102
RTVSPropertyOp53
 70
     1
102
RTVSPropertyOp54
 70
     1
102
RTVSPropertyOp55
 70
     1
102
RTVSPropertyOp56
 70
     1
102
RTVSPropertyOp57
 70
     1
102
RTVSPropertyOp58
 70
     1
102
RTVSPropertyOp59
 70
     1
102
RTVSPropertyOp60
 70
     1
102
RTVSPropertyOp61
 70
     1
102
RTVSPropertyOp62
 70
     1
  0
XRECORD
  5
E62
102
{ACAD_REACTORS
330
E61
102
}
330
E61
100
AcDbXrecord
280
     1
102
RTVSPost2010Prop28
280
     0
102
RTVSPost2010PropOp28
 70
     1
102
RTVSPost2010Prop29
280
     1
102
RTVSPost2010PropOp29
 70
     1
102
RTVSPost2010Prop30
280
     1
102
RTVSPost2010PropOp30
 70
     1
102
RTVSPost2010Prop31
280
     0
102
RTVSPost2010PropOp31
 70
     1
102
RTVSPost2010Prop32
280
     0
102
RTVSPost2010PropOp32
 70
     1
102
RTVSPost2010Prop33
280
     0
102
RTVSPost2010PropOp33
 70
     1
102
RTVSPost2010Prop34
280
     0
102
RTVSPost2010PropOp34
 70
     1
102
RTVSPost2010Prop35
280
     0
102
RTVSPost2010PropOp35
 70
     1
102
RTVSPost2010Prop36
280
     0
102
RTVSPost2010PropOp36
 70
     1
102
RTVSPost2010Prop37
 90
       50
102
RTVSPost2010PropOp37
 70
     1
102
RTVSPost2010Prop38
140
0.0
102
RTVSPost2010PropOp38
 70
     1
102
RTVSPost2010Prop39
140
1.0
102
RTVSPost2010PropOp39
 70
     1
102
RTVSPost2010Prop40
 90
        0
102
RTVSPost2010PropOp40
 70
     1
102
RTVSPost2010Prop41ColorIndex
 90
       18
102
RTVSPost2010Prop41ColorRGB
 90
        0
102
RTVSPost2010PropOp41
 70
     1
102
RTVSPost2010Prop42
 90
       50
102
RTVSPost2010PropOp42
 70
     1
102
RTVSPost2010Prop43
 90
        3
102
RTVSPost2010PropOp43
 70
     1
102
RTVSPost2010Prop44ColorIndex
 90
        5
102
RTVSPost2010Prop44ColorRGB
 90
      255
102
RTVSPost2010PropOp44
 70
     1
102
RTVSPost2010Prop45
280
     0
102
RTVSPost2010PropOp45
 70
     1
102
RTVSPost2010Prop46
 90
       50
102
RTVSPost2010PropOp46
 70
     1
102
RTVSPost2010Prop47
 90
       50
102
RTVSPost2010PropOp47
 70
     1
102
RTVSPost2010Prop48
 90
       50
102
RTVSPost2010PropOp48
 70
     1
102
RTVSPost2010Prop49
280
     0
102
RTVSPost2010PropOp49
 70
     1
102
RTVSPost2010Prop50
 90
       50
102
RTVSPost2010PropOp50
 70
     1
102
RTVSPost2010Prop51ColorIndex
 90
      256
102
RTVSPost2010Prop51ColorRGB
 90
-16777216
102
RTVSPost2010PropOp51
 70
     0
102
RTVSPost2010Prop52
140
1.0
102
RTVSPost2010PropOp52
 70
     0
102
RTVSPost2010Prop53
 90
        2
102
RTVSPost2010PropOp53
 70
     1
102
RTVSPost2010Prop54
  1
strokes_ogs.tif
102
RTVSPost2010PropOp54
 70
     1
102
RTVSPost2010Prop55
280
     0
102
RTVSPost2010PropOp55
 70
     1
102
RTVSPost2010Prop56
140
1.0
102
RTVSPost2010PropOp56
 70
     1
102
RTVSPost2010Prop57
140
1.0
102
RTVSPost2010PropOp57
 70
     1
102
RTVSPropertyOp0
 70
     1
102
RTVSPropertyOp1
 70
     1
102
RTVSPropertyOp2
 70
     1
102
RTVSPropertyOp3
 70
     1
102
RTVSPropertyOp4
 70
     1
102
RTVSPropertyOp5
 70
     1
102
RTVSPropertyOp6
 70
     1
102
RTVSPropertyOp7
 70
     1
102
RTVSPropertyOp8
 70
     1
102
RTVSPropertyOp9
 70
     1
102
RTVSPropertyOp10
 70
     1
102
RTVSPropertyOp11
 70
     1
102
RTVSPropertyOp12
 70
     1
102
RTVSPropertyOp13
 70
     1
102
RTVSPropertyOp14
 70
     1
102
RTVSPropertyOp15
 70
     1
102
RTVSPropertyOp16
 70
     1
102
RTVSPropertyOp17
 70
     1
102
RTVSPropertyOp18
 70
     1
102
RTVSPropertyOp19
 70
     1
102
RTVSPropertyOp20
 70
     1
102
RTVSPropertyOp21
 70
     1
102
RTVSPropertyOp22
 70
     1
102
RTVSPropertyOp23
 70
     1
102
RTVSPropertyOp24
 70
     1
102
RTVSPropertyOp25
 70
     1
102
RTVSPropertyOp26
 70
     1
102
RTVSPropertyOp27
 70
     1
102
RTVSPropertyOp28
 70
     1
102
RTVSPropertyOp29
 70
     1
102
RTVSPropertyOp30
 70
     1
102
RTVSPropertyOp31
 70
     1
102
RTVSPropertyOp32
 70
     1
102
RTVSPropertyOp33
 70
     1
102
RTVSPropertyOp34
 70
     1
102
RTVSPropertyOp35
 70
     1
102
RTVSPropertyOp36
 70
     1
102
RTVSPropertyOp37
 70
     1
102
RTVSPropertyOp38
 70
     1
102
RTVSPropertyOp39
 70
     1
102
RTVSPropertyOp40
 70
     1
102
RTVSPropertyOp41
 70
     1
102
RTVSPropertyOp42
 70
     1
102
RTVSPropertyOp43
 70
     1
102
RTVSPropertyOp44
 70
     1
102
RTVSPropertyOp45
 70
     1
102
RTVSPropertyOp46
 70
     1
102
RTVSPropertyOp47
 70
     1
102
RTVSPropertyOp48
 70
     1
102
RTVSPropertyOp49
 70
     1
102
RTVSPropertyOp50
 70
     1
102
RTVSPropertyOp51
 70
     0
102
RTVSPropertyOp52
 70
     0
102
RTVSPropertyOp53
 70
     1
102
RTVSPropertyOp54
 70
     1
102
RTVSPropertyOp55
 70
     1
102
RTVSPropertyOp56
 70
     1
102
RTVSPropertyOp57
 70
     1
102
RTVSPropertyOp58
 70
     1
102
RTVSPropertyOp59
 70
     1
102
RTVSPropertyOp60
 70
     1
102
RTVSPropertyOp61
 70
     1
102
RTVSPropertyOp62
 70
     1
  0
XRECORD
  5
E35
102
{ACAD_REACTORS
330
E34
102
}
330
E34
100
AcDbXrecord
280
     1
102
RTVSPost2010Prop28
280
     0
102
RTVSPost2010PropOp28
 70
     1
102
RTVSPost2010Prop29
280
     1
102
RTVSPost2010PropOp29
 70
     1
102
RTVSPost2010Prop30
280
     1
102
RTVSPost2010PropOp30
 70
     1
102
RTVSPost2010Prop31
280
     0
102
RTVSPost2010PropOp31
 70
     1
102
RTVSPost2010Prop32
280
     0
102
RTVSPost2010PropOp32
 70
     1
102
RTVSPost2010Prop33
280
     0
102
RTVSPost2010PropOp33
 70
     1
102
RTVSPost2010Prop34
280
     0
102
RTVSPost2010PropOp34
 70
     1
102
RTVSPost2010Prop35
280
     0
102
RTVSPost2010PropOp35
 70
     1
102
RTVSPost2010Prop36
280
     0
102
RTVSPost2010PropOp36
 70
     1
102
RTVSPost2010Prop37
 90
       50
102
RTVSPost2010PropOp37
 70
     1
102
RTVSPost2010Prop38
140
0.0
102
RTVSPost2010PropOp38
 70
     1
102
RTVSPost2010Prop39
140
1.0
102
RTVSPost2010PropOp39
 70
     1
102
RTVSPost2010Prop40
 90
        0
102
RTVSPost2010PropOp40
 70
     1
102
RTVSPost2010Prop41ColorIndex
 90
       18
102
RTVSPost2010Prop41ColorRGB
 90
        0
102
RTVSPost2010PropOp41
 70
     1
102
RTVSPost2010Prop42
 90
       50
102
RTVSPost2010PropOp42
 70
     1
102
RTVSPost2010Prop43
 90
        3
102
RTVSPost2010PropOp43
 70
     1
102
RTVSPost2010Prop44ColorIndex
 90
        5
102
RTVSPost2010Prop44ColorRGB
 90
      255
102
RTVSPost2010PropOp44
 70
     1
102
RTVSPost2010Prop45
280
     0
102
RTVSPost2010PropOp45
 70
     1
102
RTVSPost2010Prop46
 90
       50
102
RTVSPost2010PropOp46
 70
     1
102
RTVSPost2010Prop47
 90
       50
102
RTVSPost2010PropOp47
 70
     1
102
RTVSPost2010Prop48
 90
       50
102
RTVSPost2010PropOp48
 70
     1
102
RTVSPost2010Prop49
280
     0
102
RTVSPost2010PropOp49
 70
     1
102
RTVSPost2010Prop50
 90
       50
102
RTVSPost2010PropOp50
 70
     1
102
RTVSPost2010Prop51ColorIndex
 90
      256
102
RTVSPost2010Prop51ColorRGB
 90
-16777216
102
RTVSPost2010PropOp51
 70
     0
102
RTVSPost2010Prop52
140
1.0
102
RTVSPost2010PropOp52
 70
     0
102
RTVSPost2010Prop53
 90
        2
102
RTVSPost2010PropOp53
 70
     1
102
RTVSPost2010Prop54
  1
strokes_ogs.tif
102
RTVSPost2010PropOp54
 70
     1
102
RTVSPost2010Prop55
280
     0
102
RTVSPost2010PropOp55
 70
     1
102
RTVSPost2010Prop56
140
1.0
102
RTVSPost2010PropOp56
 70
     1
102
RTVSPost2010Prop57
140
1.0
102
RTVSPost2010PropOp57
 70
     1
102
RTVSPropertyOp0
 70
     1
102
RTVSPropertyOp1
 70
     1
102
RTVSPropertyOp2
 70
     1
102
RTVSPropertyOp3
 70
     1
102
RTVSPropertyOp4
 70
     1
102
RTVSPropertyOp5
 70
     1
102
RTVSPropertyOp6
 70
     1
102
RTVSPropertyOp7
 70
     1
102
RTVSPropertyOp8
 70
     1
102
RTVSPropertyOp9
 70
     1
102
RTVSPropertyOp10
 70
     1
102
RTVSPropertyOp11
 70
     1
102
RTVSPropertyOp12
 70
     1
102
RTVSPropertyOp13
 70
     1
102
RTVSPropertyOp14
 70
     1
102
RTVSPropertyOp15
 70
     1
102
RTVSPropertyOp16
 70
     1
102
RTVSPropertyOp17
 70
     1
102
RTVSPropertyOp18
 70
     1
102
RTVSPropertyOp19
 70
     1
102
RTVSPropertyOp20
 70
     1
102
RTVSPropertyOp21
 70
     1
102
RTVSPropertyOp22
 70
     1
102
RTVSPropertyOp23
 70
     1
102
RTVSPropertyOp24
 70
     1
102
RTVSPropertyOp25
 70
     1
102
RTVSPropertyOp26
 70
     1
102
RTVSPropertyOp27
 70
     1
102
RTVSPropertyOp28
 70
     1
102
RTVSPropertyOp29
 70
     1
102
RTVSPropertyOp30
 70
     1
102
RTVSPropertyOp31
 70
     1
102
RTVSPropertyOp32
 70
     1
102
RTVSPropertyOp33
 70
     1
102
RTVSPropertyOp34
 70
     1
102
RTVSPropertyOp35
 70
     1
102
RTVSPropertyOp36
 70
     1
102
RTVSPropertyOp37
 70
     1
102
RTVSPropertyOp38
 70
     1
102
RTVSPropertyOp39
 70
     1
102
RTVSPropertyOp40
 70
     1
102
RTVSPropertyOp41
 70
     1
102
RTVSPropertyOp42
 70
     1
102
RTVSPropertyOp43
 70
     1
102
RTVSPropertyOp44
 70
     1
102
RTVSPropertyOp45
 70
     1
102
RTVSPropertyOp46
 70
     1
102
RTVSPropertyOp47
 70
     1
102
RTVSPropertyOp48
 70
     1
102
RTVSPropertyOp49
 70
     1
102
RTVSPropertyOp50
 70
     1
102
RTVSPropertyOp51
 70
     0
102
RTVSPropertyOp52
 70
     0
102
RTVSPropertyOp53
 70
     1
102
RTVSPropertyOp54
 70
     1
102
RTVSPropertyOp55
 70
     1
102
RTVSPropertyOp56
 70
     1
102
RTVSPropertyOp57
 70
     1
102
RTVSPropertyOp58
 70
     1
102
RTVSPropertyOp59
 70
     1
102
RTVSPropertyOp60
 70
     1
102
RTVSPropertyOp61
 70
     1
102
RTVSPropertyOp62
 70
     1
  0
XRECORD
  5
E43
102
{ACAD_REACTORS
330
E42
102
}
330
E42
100
AcDbXrecord
280
     1
102
RTVSPost2010Prop28
280
     0
102
RTVSPost2010PropOp28
 70
     1
102
RTVSPost2010Prop29
280
     1
102
RTVSPost2010PropOp29
 70
     1
102
RTVSPost2010Prop30
280
     1
102
RTVSPost2010PropOp30
 70
     1
102
RTVSPost2010Prop31
280
     0
102
RTVSPost2010PropOp31
 70
     1
102
RTVSPost2010Prop32
280
     0
102
RTVSPost2010PropOp32
 70
     1
102
RTVSPost2010Prop33
280
     0
102
RTVSPost2010PropOp33
 70
     1
102
RTVSPost2010Prop34
280
     0
102
RTVSPost2010PropOp34
 70
     1
102
RTVSPost2010Prop35
280
     0
102
RTVSPost2010PropOp35
 70
     1
102
RTVSPost2010Prop36
280
     0
102
RTVSPost2010PropOp36
 70
     1
102
RTVSPost2010Prop37
 90
       50
102
RTVSPost2010PropOp37
 70
     1
102
RTVSPost2010Prop38
140
0.0
102
RTVSPost2010PropOp38
 70
     1
102
RTVSPost2010Prop39
140
1.0
102
RTVSPost2010PropOp39
 70
     1
102
RTVSPost2010Prop40
 90
        0
102
RTVSPost2010PropOp40
 70
     1
102
RTVSPost2010Prop41ColorIndex
 90
       18
102
RTVSPost2010Prop41ColorRGB
 90
        0
102
RTVSPost2010PropOp41
 70
     1
102
RTVSPost2010Prop42
 90
       50
102
RTVSPost2010PropOp42
 70
     1
102
RTVSPost2010Prop43
 90
        3
102
RTVSPost2010PropOp43
 70
     1
102
RTVSPost2010Prop44ColorIndex
 90
        5
102
RTVSPost2010Prop44ColorRGB
 90
      255
102
RTVSPost2010PropOp44
 70
     1
102
RTVSPost2010Prop45
280
     0
102
RTVSPost2010PropOp45
 70
     1
102
RTVSPost2010Prop46
 90
       50
102
RTVSPost2010PropOp46
 70
     1
102
RTVSPost2010Prop47
 90
       50
102
RTVSPost2010PropOp47
 70
     1
102
RTVSPost2010Prop48
 90
       50
102
RTVSPost2010PropOp48
 70
     1
102
RTVSPost2010Prop49
280
     0
102
RTVSPost2010PropOp49
 70
     1
102
RTVSPost2010Prop50
 90
       50
102
RTVSPost2010PropOp50
 70
     1
102
RTVSPost2010Prop51ColorIndex
 90
      256
102
RTVSPost2010Prop51ColorRGB
 90
-16777216
102
RTVSPost2010PropOp51
 70
     0
102
RTVSPost2010Prop52
140
1.0
102
RTVSPost2010PropOp52
 70
     0
102
RTVSPost2010Prop53
 90
        2
102
RTVSPost2010PropOp53
 70
     1
102
RTVSPost2010Prop54
  1
strokes_ogs.tif
102
RTVSPost2010PropOp54
 70
     1
102
RTVSPost2010Prop55
280
     0
102
RTVSPost2010PropOp55
 70
     1
102
RTVSPost2010Prop56
140
1.0
102
RTVSPost2010PropOp56
 70
     1
102
RTVSPost2010Prop57
140
1.0
102
RTVSPost2010PropOp57
 70
     1
102
RTVSPropertyOp0
 70
     1
102
RTVSPropertyOp1
 70
     1
102
RTVSPropertyOp2
 70
     1
102
RTVSPropertyOp3
 70
     1
102
RTVSPropertyOp4
 70
     1
102
RTVSPropertyOp5
 70
     1
102
RTVSPropertyOp6
 70
     1
102
RTVSPropertyOp7
 70
     1
102
RTVSPropertyOp8
 70
     1
102
RTVSPropertyOp9
 70
     1
102
RTVSPropertyOp10
 70
     1
102
RTVSPropertyOp11
 70
     1
102
RTVSPropertyOp12
 70
     1
102
RTVSPropertyOp13
 70
     1
102
RTVSPropertyOp14
 70
     1
102
RTVSPropertyOp15
 70
     1
102
RTVSPropertyOp16
 70
     1
102
RTVSPropertyOp17
 70
     1
102
RTVSPropertyOp18
 70
     1
102
RTVSPropertyOp19
 70
     1
102
RTVSPropertyOp20
 70
     1
102
RTVSPropertyOp21
 70
     1
102
RTVSPropertyOp22
 70
     1
102
RTVSPropertyOp23
 70
     1
102
RTVSPropertyOp24
 70
     1
102
RTVSPropertyOp25
 70
     1
102
RTVSPropertyOp26
 70
     1
102
RTVSPropertyOp27
 70
     1
102
RTVSPropertyOp28
 70
     1
102
RTVSPropertyOp29
 70
     1
102
RTVSPropertyOp30
 70
     1
102
RTVSPropertyOp31
 70
     1
102
RTVSPropertyOp32
 70
     1
102
RTVSPropertyOp33
 70
     1
102
RTVSPropertyOp34
 70
     1
102
RTVSPropertyOp35
 70
     1
102
RTVSPropertyOp36
 70
     1
102
RTVSPropertyOp37
 70
     1
102
RTVSPropertyOp38
 70
     1
102
RTVSPropertyOp39
 70
     1
102
RTVSPropertyOp40
 70
     1
102
RTVSPropertyOp41
 70
     1
102
RTVSPropertyOp42
 70
     1
102
RTVSPropertyOp43
 70
     1
102
RTVSPropertyOp44
 70
     1
102
RTVSPropertyOp45
 70
     1
102
RTVSPropertyOp46
 70
     1
102
RTVSPropertyOp47
 70
     1
102
RTVSPropertyOp48
 70
     1
102
RTVSPropertyOp49
 70
     1
102
RTVSPropertyOp50
 70
     1
102
RTVSPropertyOp51
 70
     0
102
RTVSPropertyOp52
 70
     0
102
RTVSPropertyOp53
 70
     1
102
RTVSPropertyOp54
 70
     1
102
RTVSPropertyOp55
 70
     1
102
RTVSPropertyOp56
 70
     1
102
RTVSPropertyOp57
 70
     1
102
RTVSPropertyOp58
 70
     1
102
RTVSPropertyOp59
 70
     1
102
RTVSPropertyOp60
 70
     1
102
RTVSPropertyOp61
 70
     1
102
RTVSPropertyOp62
 70
     1
  0
XRECORD
  5
E4B
102
{ACAD_REACTORS
330
E4A
102
}
330
E4A
100
AcDbXrecord
280
     1
102
RTVSPost2010Prop28
280
     0
102
RTVSPost2010PropOp28
 70
     1
102
RTVSPost2010Prop29
280
     1
102
RTVSPost2010PropOp29
 70
     1
102
RTVSPost2010Prop30
280
     1
102
RTVSPost2010PropOp30
 70
     1
102
RTVSPost2010Prop31
280
     0
102
RTVSPost2010PropOp31
 70
     1
102
RTVSPost2010Prop32
280
     0
102
RTVSPost2010PropOp32
 70
     1
102
RTVSPost2010Prop33
280
     0
102
RTVSPost2010PropOp33
 70
     1
102
RTVSPost2010Prop34
280
     0
102
RTVSPost2010PropOp34
 70
     1
102
RTVSPost2010Prop35
280
     0
102
RTVSPost2010PropOp35
 70
     1
102
RTVSPost2010Prop36
280
     0
102
RTVSPost2010PropOp36
 70
     1
102
RTVSPost2010Prop37
 90
       50
102
RTVSPost2010PropOp37
 70
     1
102
RTVSPost2010Prop38
140
0.0
102
RTVSPost2010PropOp38
 70
     1
102
RTVSPost2010Prop39
140
1.0
102
RTVSPost2010PropOp39
 70
     1
102
RTVSPost2010Prop40
 90
        0
102
RTVSPost2010PropOp40
 70
     1
102
RTVSPost2010Prop41ColorIndex
 90
       18
102
RTVSPost2010Prop41ColorRGB
 90
        0
102
RTVSPost2010PropOp41
 70
     1
102
RTVSPost2010Prop42
 90
       50
102
RTVSPost2010PropOp42
 70
     1
102
RTVSPost2010Prop43
 90
        3
102
RTVSPost2010PropOp43
 70
     1
102
RTVSPost2010Prop44ColorIndex
 90
        5
102
RTVSPost2010Prop44ColorRGB
 90
      255
102
RTVSPost2010PropOp44
 70
     1
102
RTVSPost2010Prop45
280
     0
102
RTVSPost2010PropOp45
 70
     1
102
RTVSPost2010Prop46
 90
       50
102
RTVSPost2010PropOp46
 70
     1
102
RTVSPost2010Prop47
 90
       50
102
RTVSPost2010PropOp47
 70
     1
102
RTVSPost2010Prop48
 90
       50
102
RTVSPost2010PropOp48
 70
     1
102
RTVSPost2010Prop49
280
     0
102
RTVSPost2010PropOp49
 70
     1
102
RTVSPost2010Prop50
 90
       50
102
RTVSPost2010PropOp50
 70
     1
102
RTVSPost2010Prop51ColorIndex
 90
      256
102
RTVSPost2010Prop51ColorRGB
 90
-16777216
102
RTVSPost2010PropOp51
 70
     0
102
RTVSPost2010Prop52
140
1.0
102
RTVSPost2010PropOp52
 70
     0
102
RTVSPost2010Prop53
 90
        2
102
RTVSPost2010PropOp53
 70
     1
102
RTVSPost2010Prop54
  1
strokes_ogs.tif
102
RTVSPost2010PropOp54
 70
     1
102
RTVSPost2010Prop55
280
     0
102
RTVSPost2010PropOp55
 70
     1
102
RTVSPost2010Prop56
140
1.0
102
RTVSPost2010PropOp56
 70
     1
102
RTVSPost2010Prop57
140
1.0
102
RTVSPost2010PropOp57
 70
     1
102
RTVSPropertyOp0
 70
     1
102
RTVSPropertyOp1
 70
     1
102
RTVSPropertyOp2
 70
     1
102
RTVSPropertyOp3
 70
     1
102
RTVSPropertyOp4
 70
     1
102
RTVSPropertyOp5
 70
     1
102
RTVSPropertyOp6
 70
     1
102
RTVSPropertyOp7
 70
     1
102
RTVSPropertyOp8
 70
     1
102
RTVSPropertyOp9
 70
     1
102
RTVSPropertyOp10
 70
     1
102
RTVSPropertyOp11
 70
     1
102
RTVSPropertyOp12
 70
     1
102
RTVSPropertyOp13
 70
     1
102
RTVSPropertyOp14
 70
     1
102
RTVSPropertyOp15
 70
     1
102
RTVSPropertyOp16
 70
     1
102
RTVSPropertyOp17
 70
     1
102
RTVSPropertyOp18
 70
     1
102
RTVSPropertyOp19
 70
     1
102
RTVSPropertyOp20
 70
     1
102
RTVSPropertyOp21
 70
     1
102
RTVSPropertyOp22
 70
     1
102
RTVSPropertyOp23
 70
     1
102
RTVSPropertyOp24
 70
     1
102
RTVSPropertyOp25
 70
     1
102
RTVSPropertyOp26
 70
     1
102
RTVSPropertyOp27
 70
     1
102
RTVSPropertyOp28
 70
     1
102
RTVSPropertyOp29
 70
     1
102
RTVSPropertyOp30
 70
     1
102
RTVSPropertyOp31
 70
     1
102
RTVSPropertyOp32
 70
     1
102
RTVSPropertyOp33
 70
     1
102
RTVSPropertyOp34
 70
     1
102
RTVSPropertyOp35
 70
     1
102
RTVSPropertyOp36
 70
     1
102
RTVSPropertyOp37
 70
     1
102
RTVSPropertyOp38
 70
     1
102
RTVSPropertyOp39
 70
     1
102
RTVSPropertyOp40
 70
     1
102
RTVSPropertyOp41
 70
     1
102
RTVSPropertyOp42
 70
     1
102
RTVSPropertyOp43
 70
     1
102
RTVSPropertyOp44
 70
     1
102
RTVSPropertyOp45
 70
     1
102
RTVSPropertyOp46
 70
     1
102
RTVSPropertyOp47
 70
     1
102
RTVSPropertyOp48
 70
     1
102
RTVSPropertyOp49
 70
     1
102
RTVSPropertyOp50
 70
     1
102
RTVSPropertyOp51
 70
     0
102
RTVSPropertyOp52
 70
     0
102
RTVSPropertyOp53
 70
     1
102
RTVSPropertyOp54
 70
     1
102
RTVSPropertyOp55
 70
     1
102
RTVSPropertyOp56
 70
     1
102
RTVSPropertyOp57
 70
     1
102
RTVSPropertyOp58
 70
     1
102
RTVSPropertyOp59
 70
     1
102
RTVSPropertyOp60
 70
     1
102
RTVSPropertyOp61
 70
     1
102
RTVSPropertyOp62
 70
     1
  0
XRECORD
  5
E3D
102
{ACAD_REACTORS
330
E3C
102
}
330
E3C
100
AcDbXrecord
280
     1
102
RTVSPost2010Prop28
280
     0
102
RTVSPost2010PropOp28
 70
     1
102
RTVSPost2010Prop29
280
     1
102
RTVSPost2010PropOp29
 70
     1
102
RTVSPost2010Prop30
280
     1
102
RTVSPost2010PropOp30
 70
     1
102
RTVSPost2010Prop31
280
     0
102
RTVSPost2010PropOp31
 70
     1
102
RTVSPost2010Prop32
280
     0
102
RTVSPost2010PropOp32
 70
     1
102
RTVSPost2010Prop33
280
     0
102
RTVSPost2010PropOp33
 70
     1
102
RTVSPost2010Prop34
280
     0
102
RTVSPost2010PropOp34
 70
     1
102
RTVSPost2010Prop35
280
     0
102
RTVSPost2010PropOp35
 70
     1
102
RTVSPost2010Prop36
280
     0
102
RTVSPost2010PropOp36
 70
     1
102
RTVSPost2010Prop37
 90
       50
102
RTVSPost2010PropOp37
 70
     1
102
RTVSPost2010Prop38
140
0.0
102
RTVSPost2010PropOp38
 70
     1
102
RTVSPost2010Prop39
140
1.0
102
RTVSPost2010PropOp39
 70
     1
102
RTVSPost2010Prop40
 90
        0
102
RTVSPost2010PropOp40
 70
     1
102
RTVSPost2010Prop41ColorIndex
 90
       18
102
RTVSPost2010Prop41ColorRGB
 90
        0
102
RTVSPost2010PropOp41
 70
     1
102
RTVSPost2010Prop42
 90
       50
102
RTVSPost2010PropOp42
 70
     1
102
RTVSPost2010Prop43
 90
        3
102
RTVSPost2010PropOp43
 70
     1
102
RTVSPost2010Prop44ColorIndex
 90
        5
102
RTVSPost2010Prop44ColorRGB
 90
      255
102
RTVSPost2010PropOp44
 70
     1
102
RTVSPost2010Prop45
280
     0
102
RTVSPost2010PropOp45
 70
     1
102
RTVSPost2010Prop46
 90
       50
102
RTVSPost2010PropOp46
 70
     1
102
RTVSPost2010Prop47
 90
       50
102
RTVSPost2010PropOp47
 70
     1
102
RTVSPost2010Prop48
 90
       50
102
RTVSPost2010PropOp48
 70
     1
102
RTVSPost2010Prop49
280
     0
102
RTVSPost2010PropOp49
 70
     1
102
RTVSPost2010Prop50
 90
       50
102
RTVSPost2010PropOp50
 70
     1
102
RTVSPost2010Prop51ColorIndex
 90
      256
102
RTVSPost2010Prop51ColorRGB
 90
-16777216
102
RTVSPost2010PropOp51
 70
     0
102
RTVSPost2010Prop52
140
1.0
102
RTVSPost2010PropOp52
 70
     0
102
RTVSPost2010Prop53
 90
        2
102
RTVSPost2010PropOp53
 70
     1
102
RTVSPost2010Prop54
  1
strokes_ogs.tif
102
RTVSPost2010PropOp54
 70
     1
102
RTVSPost2010Prop55
280
     0
102
RTVSPost2010PropOp55
 70
     1
102
RTVSPost2010Prop56
140
1.0
102
RTVSPost2010PropOp56
 70
     1
102
RTVSPost2010Prop57
140
1.0
102
RTVSPost2010PropOp57
 70
     1
102
RTVSPropertyOp0
 70
     1
102
RTVSPropertyOp1
 70
     1
102
RTVSPropertyOp2
 70
     1
102
RTVSPropertyOp3
 70
     1
102
RTVSPropertyOp4
 70
     1
102
RTVSPropertyOp5
 70
     1
102
RTVSPropertyOp6
 70
     1
102
RTVSPropertyOp7
 70
     1
102
RTVSPropertyOp8
 70
     1
102
RTVSPropertyOp9
 70
     1
102
RTVSPropertyOp10
 70
     1
102
RTVSPropertyOp11
 70
     1
102
RTVSPropertyOp12
 70
     1
102
RTVSPropertyOp13
 70
     1
102
RTVSPropertyOp14
 70
     1
102
RTVSPropertyOp15
 70
     1
102
RTVSPropertyOp16
 70
     1
102
RTVSPropertyOp17
 70
     1
102
RTVSPropertyOp18
 70
     1
102
RTVSPropertyOp19
 70
     1
102
RTVSPropertyOp20
 70
     1
102
RTVSPropertyOp21
 70
     1
102
RTVSPropertyOp22
 70
     1
102
RTVSPropertyOp23
 70
     1
102
RTVSPropertyOp24
 70
     1
102
RTVSPropertyOp25
 70
     1
102
RTVSPropertyOp26
 70
     1
102
RTVSPropertyOp27
 70
     1
102
RTVSPropertyOp28
 70
     1
102
RTVSPropertyOp29
 70
     1
102
RTVSPropertyOp30
 70
     1
102
RTVSPropertyOp31
 70
     1
102
RTVSPropertyOp32
 70
     1
102
RTVSPropertyOp33
 70
     1
102
RTVSPropertyOp34
 70
     1
102
RTVSPropertyOp35
 70
     1
102
RTVSPropertyOp36
 70
     1
102
RTVSPropertyOp37
 70
     1
102
RTVSPropertyOp38
 70
     1
102
RTVSPropertyOp39
 70
     1
102
RTVSPropertyOp40
 70
     1
102
RTVSPropertyOp41
 70
     1
102
RTVSPropertyOp42
 70
     1
102
RTVSPropertyOp43
 70
     1
102
RTVSPropertyOp44
 70
     1
102
RTVSPropertyOp45
 70
     1
102
RTVSPropertyOp46
 70
     1
102
RTVSPropertyOp47
 70
     1
102
RTVSPropertyOp48
 70
     1
102
RTVSPropertyOp49
 70
     1
102
RTVSPropertyOp50
 70
     1
102
RTVSPropertyOp51
 70
     0
102
RTVSPropertyOp52
 70
     0
102
RTVSPropertyOp53
 70
     1
102
RTVSPropertyOp54
 70
     1
102
RTVSPropertyOp55
 70
     1
102
RTVSPropertyOp56
 70
     1
102
RTVSPropertyOp57
 70
     1
102
RTVSPropertyOp58
 70
     1
102
RTVSPropertyOp59
 70
     1
102
RTVSPropertyOp60
 70
     1
102
RTVSPropertyOp61
 70
     1
102
RTVSPropertyOp62
 70
     1
  0
XRECORD
  5
E41
102
{ACAD_REACTORS
330
E40
102
}
330
E40
100
AcDbXrecord
280
     1
102
RTVSPost2010Prop28
280
     0
102
RTVSPost2010PropOp28
 70
     1
102
RTVSPost2010Prop29
280
     1
102
RTVSPost2010PropOp29
 70
     1
102
RTVSPost2010Prop30
280
     1
102
RTVSPost2010PropOp30
 70
     1
102
RTVSPost2010Prop31
280
     0
102
RTVSPost2010PropOp31
 70
     1
102
RTVSPost2010Prop32
280
     0
102
RTVSPost2010PropOp32
 70
     1
102
RTVSPost2010Prop33
280
     0
102
RTVSPost2010PropOp33
 70
     1
102
RTVSPost2010Prop34
280
     0
102
RTVSPost2010PropOp34
 70
     1
102
RTVSPost2010Prop35
280
     0
102
RTVSPost2010PropOp35
 70
     1
102
RTVSPost2010Prop36
280
     0
102
RTVSPost2010PropOp36
 70
     1
102
RTVSPost2010Prop37
 90
       50
102
RTVSPost2010PropOp37
 70
     1
102
RTVSPost2010Prop38
140
0.0
102
RTVSPost2010PropOp38
 70
     1
102
RTVSPost2010Prop39
140
1.0
102
RTVSPost2010PropOp39
 70
     1
102
RTVSPost2010Prop40
 90
        0
102
RTVSPost2010PropOp40
 70
     1
102
RTVSPost2010Prop41ColorIndex
 90
       18
102
RTVSPost2010Prop41ColorRGB
 90
        0
102
RTVSPost2010PropOp41
 70
     1
102
RTVSPost2010Prop42
 90
       50
102
RTVSPost2010PropOp42
 70
     1
102
RTVSPost2010Prop43
 90
        3
102
RTVSPost2010PropOp43
 70
     1
102
RTVSPost2010Prop44ColorIndex
 90
        5
102
RTVSPost2010Prop44ColorRGB
 90
      255
102
RTVSPost2010PropOp44
 70
     1
102
RTVSPost2010Prop45
280
     0
102
RTVSPost2010PropOp45
 70
     1
102
RTVSPost2010Prop46
 90
       50
102
RTVSPost2010PropOp46
 70
     1
102
RTVSPost2010Prop47
 90
       50
102
RTVSPost2010PropOp47
 70
     1
102
RTVSPost2010Prop48
 90
       50
102
RTVSPost2010PropOp48
 70
     1
102
RTVSPost2010Prop49
280
     0
102
RTVSPost2010PropOp49
 70
     1
102
RTVSPost2010Prop50
 90
       50
102
RTVSPost2010PropOp50
 70
     1
102
RTVSPost2010Prop51ColorIndex
 90
      256
102
RTVSPost2010Prop51ColorRGB
 90
-16777216
102
RTVSPost2010PropOp51
 70
     0
102
RTVSPost2010Prop52
140
1.0
102
RTVSPost2010PropOp52
 70
     0
102
RTVSPost2010Prop53
 90
        2
102
RTVSPost2010PropOp53
 70
     1
102
RTVSPost2010Prop54
  1
strokes_ogs.tif
102
RTVSPost2010PropOp54
 70
     1
102
RTVSPost2010Prop55
280
     0
102
RTVSPost2010PropOp55
 70
     1
102
RTVSPost2010Prop56
140
1.0
102
RTVSPost2010PropOp56
 70
     1
102
RTVSPost2010Prop57
140
1.0
102
RTVSPost2010PropOp57
 70
     1
102
RTVSPropertyOp0
 70
     1
102
RTVSPropertyOp1
 70
     1
102
RTVSPropertyOp2
 70
     1
102
RTVSPropertyOp3
 70
     1
102
RTVSPropertyOp4
 70
     1
102
RTVSPropertyOp5
 70
     1
102
RTVSPropertyOp6
 70
     1
102
RTVSPropertyOp7
 70
     1
102
RTVSPropertyOp8
 70
     1
102
RTVSPropertyOp9
 70
     1
102
RTVSPropertyOp10
 70
     1
102
RTVSPropertyOp11
 70
     1
102
RTVSPropertyOp12
 70
     1
102
RTVSPropertyOp13
 70
     1
102
RTVSPropertyOp14
 70
     1
102
RTVSPropertyOp15
 70
     1
102
RTVSPropertyOp16
 70
     1
102
RTVSPropertyOp17
 70
     1
102
RTVSPropertyOp18
 70
     1
102
RTVSPropertyOp19
 70
     1
102
RTVSPropertyOp20
 70
     1
102
RTVSPropertyOp21
 70
     1
102
RTVSPropertyOp22
 70
     1
102
RTVSPropertyOp23
 70
     1
102
RTVSPropertyOp24
 70
     1
102
RTVSPropertyOp25
 70
     1
102
RTVSPropertyOp26
 70
     1
102
RTVSPropertyOp27
 70
     1
102
RTVSPropertyOp28
 70
     1
102
RTVSPropertyOp29
 70
     1
102
RTVSPropertyOp30
 70
     1
102
RTVSPropertyOp31
 70
     1
102
RTVSPropertyOp32
 70
     1
102
RTVSPropertyOp33
 70
     1
102
RTVSPropertyOp34
 70
     1
102
RTVSPropertyOp35
 70
     1
102
RTVSPropertyOp36
 70
     1
102
RTVSPropertyOp37
 70
     1
102
RTVSPropertyOp38
 70
     1
102
RTVSPropertyOp39
 70
     1
102
RTVSPropertyOp40
 70
     1
102
RTVSPropertyOp41
 70
     1
102
RTVSPropertyOp42
 70
     1
102
RTVSPropertyOp43
 70
     1
102
RTVSPropertyOp44
 70
     1
102
RTVSPropertyOp45
 70
     1
102
RTVSPropertyOp46
 70
     1
102
RTVSPropertyOp47
 70
     1
102
RTVSPropertyOp48
 70
     1
102
RTVSPropertyOp49
 70
     1
102
RTVSPropertyOp50
 70
     1
102
RTVSPropertyOp51
 70
     0
102
RTVSPropertyOp52
 70
     0
102
RTVSPropertyOp53
 70
     1
102
RTVSPropertyOp54
 70
     1
102
RTVSPropertyOp55
 70
     1
102
RTVSPropertyOp56
 70
     1
102
RTVSPropertyOp57
 70
     1
102
RTVSPropertyOp58
 70
     1
102
RTVSPropertyOp59
 70
     1
102
RTVSPropertyOp60
 70
     1
102
RTVSPropertyOp61
 70
     1
102
RTVSPropertyOp62
 70
     1
  0
XRECORD
  5
E5B
102
{ACAD_REACTORS
330
E5A
102
}
330
E5A
100
AcDbXrecord
280
     1
102
RTVSPost2010Prop28
280
     0
102
RTVSPost2010PropOp28
 70
     1
102
RTVSPost2010Prop29
280
     1
102
RTVSPost2010PropOp29
 70
     1
102
RTVSPost2010Prop30
280
     1
102
RTVSPost2010PropOp30
 70
     1
102
RTVSPost2010Prop31
280
     0
102
RTVSPost2010PropOp31
 70
     1
102
RTVSPost2010Prop32
280
     0
102
RTVSPost2010PropOp32
 70
     1
102
RTVSPost2010Prop33
280
     0
102
RTVSPost2010PropOp33
 70
     1
102
RTVSPost2010Prop34
280
     0
102
RTVSPost2010PropOp34
 70
     1
102
RTVSPost2010Prop35
280
     0
102
RTVSPost2010PropOp35
 70
     1
102
RTVSPost2010Prop36
280
     0
102
RTVSPost2010PropOp36
 70
     1
102
RTVSPost2010Prop37
 90
       50
102
RTVSPost2010PropOp37
 70
     0
102
RTVSPost2010Prop38
140
0.0
102
RTVSPost2010PropOp38
 70
     0
102
RTVSPost2010Prop39
140
1.0
102
RTVSPost2010PropOp39
 70
     0
102
RTVSPost2010Prop40
 90
        0
102
RTVSPost2010PropOp40
 70
     0
102
RTVSPost2010Prop41ColorIndex
 90
       18
102
RTVSPost2010Prop41ColorRGB
 90
        0
102
RTVSPost2010PropOp41
 70
     0
102
RTVSPost2010Prop42
 90
       50
102
RTVSPost2010PropOp42
 70
     0
102
RTVSPost2010Prop43
 90
        3
102
RTVSPost2010PropOp43
 70
     0
102
RTVSPost2010Prop44ColorIndex
 90
        5
102
RTVSPost2010Prop44ColorRGB
 90
      255
102
RTVSPost2010PropOp44
 70
     0
102
RTVSPost2010Prop45
280
     0
102
RTVSPost2010PropOp45
 70
     1
102
RTVSPost2010Prop46
 90
       50
102
RTVSPost2010PropOp46
 70
     0
102
RTVSPost2010Prop47
 90
       50
102
RTVSPost2010PropOp47
 70
     0
102
RTVSPost2010Prop48
 90
       50
102
RTVSPost2010PropOp48
 70
     0
102
RTVSPost2010Prop49
280
     0
102
RTVSPost2010PropOp49
 70
     1
102
RTVSPost2010Prop50
 90
       50
102
RTVSPost2010PropOp50
 70
     0
102
RTVSPost2010Prop51ColorIndex
 90
      256
102
RTVSPost2010Prop51ColorRGB
 90
-16777216
102
RTVSPost2010PropOp51
 70
     0
102
RTVSPost2010Prop52
140
1.0
102
RTVSPost2010PropOp52
 70
     0
102
RTVSPost2010Prop53
 90
        2
102
RTVSPost2010PropOp53
 70
     0
102
RTVSPost2010Prop54
  1
strokes_ogs.tif
102
RTVSPost2010PropOp54
 70
     0
102
RTVSPost2010Prop55
280
     0
102
RTVSPost2010PropOp55
 70
     1
102
RTVSPost2010Prop56
140
1.0
102
RTVSPost2010PropOp56
 70
     0
102
RTVSPost2010Prop57
140
1.0
102
RTVSPost2010PropOp57
 70
     0
102
RTVSPropertyOp0
 70
     0
102
RTVSPropertyOp1
 70
     0
102
RTVSPropertyOp2
 70
     0
102
RTVSPropertyOp3
 70
     0
102
RTVSPropertyOp4
 70
     0
102
RTVSPropertyOp5
 70
     0
102
RTVSPropertyOp6
 70
     0
102
RTVSPropertyOp7
 70
     0
102
RTVSPropertyOp8
 70
     0
102
RTVSPropertyOp9
 70
     0
102
RTVSPropertyOp10
 70
     0
102
RTVSPropertyOp11
 70
     0
102
RTVSPropertyOp12
 70
     0
102
RTVSPropertyOp13
 70
     0
102
RTVSPropertyOp14
 70
     2
102
RTVSPropertyOp15
 70
     0
102
RTVSPropertyOp16
 70
     0
102
RTVSPropertyOp17
 70
     0
102
RTVSPropertyOp18
 70
     0
102
RTVSPropertyOp19
 70
     0
102
RTVSPropertyOp20
 70
     0
102
RTVSPropertyOp21
 70
     0
102
RTVSPropertyOp22
 70
     0
102
RTVSPropertyOp23
 70
     0
102
RTVSPropertyOp24
 70
     0
102
RTVSPropertyOp25
 70
     0
102
RTVSPropertyOp26
 70
     0
102
RTVSPropertyOp27
 70
     0
102
RTVSPropertyOp28
 70
     1
102
RTVSPropertyOp29
 70
     1
102
RTVSPropertyOp30
 70
     1
102
RTVSPropertyOp31
 70
     1
102
RTVSPropertyOp32
 70
     1
102
RTVSPropertyOp33
 70
     1
102
RTVSPropertyOp34
 70
     1
102
RTVSPropertyOp35
 70
     1
102
RTVSPropertyOp36
 70
     1
102
RTVSPropertyOp37
 70
     0
102
RTVSPropertyOp38
 70
     0
102
RTVSPropertyOp39
 70
     0
102
RTVSPropertyOp40
 70
     0
102
RTVSPropertyOp41
 70
     0
102
RTVSPropertyOp42
 70
     0
102
RTVSPropertyOp43
 70
     0
102
RTVSPropertyOp44
 70
     0
102
RTVSPropertyOp45
 70
     1
102
RTVSPropertyOp46
 70
     0
102
RTVSPropertyOp47
 70
     0
102
RTVSPropertyOp48
 70
     0
102
RTVSPropertyOp49
 70
     1
102
RTVSPropertyOp50
 70
     0
102
RTVSPropertyOp51
 70
     0
102
RTVSPropertyOp52
 70
     0
102
RTVSPropertyOp53
 70
     0
102
RTVSPropertyOp54
 70
     0
102
RTVSPropertyOp55
 70
     1
102
RTVSPropertyOp56
 70
     0
102
RTVSPropertyOp57
 70
     0
102
RTVSPropertyOp58
 70
     0
102
RTVSPropertyOp59
 70
     0
102
RTVSPropertyOp60
 70
     0
102
RTVSPropertyOp61
 70
     0
102
RTVSPropertyOp62
 70
     0
  0
XRECORD
  5
E49
102
{ACAD_REACTORS
330
E48
102
}
330
E48
100
AcDbXrecord
280
     1
102
RTVSPost2010Prop28
280
     0
102
RTVSPost2010PropOp28
 70
     1
102
RTVSPost2010Prop29
280
     1
102
RTVSPost2010PropOp29
 70
     1
102
RTVSPost2010Prop30
280
     1
102
RTVSPost2010PropOp30
 70
     1
102
RTVSPost2010Prop31
280
     0
102
RTVSPost2010PropOp31
 70
     1
102
RTVSPost2010Prop32
280
     0
102
RTVSPost2010PropOp32
 70
     1
102
RTVSPost2010Prop33
280
     0
102
RTVSPost2010PropOp33
 70
     1
102
RTVSPost2010Prop34
280
     0
102
RTVSPost2010PropOp34
 70
     1
102
RTVSPost2010Prop35
280
     0
102
RTVSPost2010PropOp35
 70
     1
102
RTVSPost2010Prop36
280
     0
102
RTVSPost2010PropOp36
 70
     1
102
RTVSPost2010Prop37
 90
       50
102
RTVSPost2010PropOp37
 70
     1
102
RTVSPost2010Prop38
140
0.0
102
RTVSPost2010PropOp38
 70
     1
102
RTVSPost2010Prop39
140
1.0
102
RTVSPost2010PropOp39
 70
     1
102
RTVSPost2010Prop40
 90
        0
102
RTVSPost2010PropOp40
 70
     1
102
RTVSPost2010Prop41ColorIndex
 90
       18
102
RTVSPost2010Prop41ColorRGB
 90
        0
102
RTVSPost2010PropOp41
 70
     1
102
RTVSPost2010Prop42
 90
       50
102
RTVSPost2010PropOp42
 70
     1
102
RTVSPost2010Prop43
 90
        3
102
RTVSPost2010PropOp43
 70
     1
102
RTVSPost2010Prop44ColorIndex
 90
        5
102
RTVSPost2010Prop44ColorRGB
 90
      255
102
RTVSPost2010PropOp44
 70
     1
102
RTVSPost2010Prop45
280
     0
102
RTVSPost2010PropOp45
 70
     1
102
RTVSPost2010Prop46
 90
       50
102
RTVSPost2010PropOp46
 70
     1
102
RTVSPost2010Prop47
 90
       50
102
RTVSPost2010PropOp47
 70
     1
102
RTVSPost2010Prop48
 90
       50
102
RTVSPost2010PropOp48
 70
     1
102
RTVSPost2010Prop49
280
     0
102
RTVSPost2010PropOp49
 70
     1
102
RTVSPost2010Prop50
 90
       50
102
RTVSPost2010PropOp50
 70
     1
102
RTVSPost2010Prop51ColorIndex
 90
      256
102
RTVSPost2010Prop51ColorRGB
 90
-16777216
102
RTVSPost2010PropOp51
 70
     0
102
RTVSPost2010Prop52
140
1.0
102
RTVSPost2010PropOp52
 70
     0
102
RTVSPost2010Prop53
 90
        2
102
RTVSPost2010PropOp53
 70
     1
102
RTVSPost2010Prop54
  1
strokes_ogs.tif
102
RTVSPost2010PropOp54
 70
     1
102
RTVSPost2010Prop55
280
     0
102
RTVSPost2010PropOp55
 70
     1
102
RTVSPost2010Prop56
140
1.0
102
RTVSPost2010PropOp56
 70
     1
102
RTVSPost2010Prop57
140
1.0
102
RTVSPost2010PropOp57
 70
     1
102
RTVSPropertyOp0
 70
     1
102
RTVSPropertyOp1
 70
     1
102
RTVSPropertyOp2
 70
     1
102
RTVSPropertyOp3
 70
     1
102
RTVSPropertyOp4
 70
     1
102
RTVSPropertyOp5
 70
     1
102
RTVSPropertyOp6
 70
     1
102
RTVSPropertyOp7
 70
     1
102
RTVSPropertyOp8
 70
     1
102
RTVSPropertyOp9
 70
     1
102
RTVSPropertyOp10
 70
     1
102
RTVSPropertyOp11
 70
     1
102
RTVSPropertyOp12
 70
     1
102
RTVSPropertyOp13
 70
     1
102
RTVSPropertyOp14
 70
     1
102
RTVSPropertyOp15
 70
     1
102
RTVSPropertyOp16
 70
     1
102
RTVSPropertyOp17
 70
     1
102
RTVSPropertyOp18
 70
     1
102
RTVSPropertyOp19
 70
     1
102
RTVSPropertyOp20
 70
     1
102
RTVSPropertyOp21
 70
     1
102
RTVSPropertyOp22
 70
     1
102
RTVSPropertyOp23
 70
     1
102
RTVSPropertyOp24
 70
     1
102
RTVSPropertyOp25
 70
     1
102
RTVSPropertyOp26
 70
     1
102
RTVSPropertyOp27
 70
     1
102
RTVSPropertyOp28
 70
     1
102
RTVSPropertyOp29
 70
     1
102
RTVSPropertyOp30
 70
     1
102
RTVSPropertyOp31
 70
     1
102
RTVSPropertyOp32
 70
     1
102
RTVSPropertyOp33
 70
     1
102
RTVSPropertyOp34
 70
     1
102
RTVSPropertyOp35
 70
     1
102
RTVSPropertyOp36
 70
     1
102
RTVSPropertyOp37
 70
     1
102
RTVSPropertyOp38
 70
     1
102
RTVSPropertyOp39
 70
     1
102
RTVSPropertyOp40
 70
     1
102
RTVSPropertyOp41
 70
     1
102
RTVSPropertyOp42
 70
     1
102
RTVSPropertyOp43
 70
     1
102
RTVSPropertyOp44
 70
     1
102
RTVSPropertyOp45
 70
     1
102
RTVSPropertyOp46
 70
     1
102
RTVSPropertyOp47
 70
     1
102
RTVSPropertyOp48
 70
     1
102
RTVSPropertyOp49
 70
     1
102
RTVSPropertyOp50
 70
     1
102
RTVSPropertyOp51
 70
     0
102
RTVSPropertyOp52
 70
     0
102
RTVSPropertyOp53
 70
     1
102
RTVSPropertyOp54
 70
     1
102
RTVSPropertyOp55
 70
     1
102
RTVSPropertyOp56
 70
     1
102
RTVSPropertyOp57
 70
     1
102
RTVSPropertyOp58
 70
     1
102
RTVSPropertyOp59
 70
     1
102
RTVSPropertyOp60
 70
     1
102
RTVSPropertyOp61
 70
     1
102
RTVSPropertyOp62
 70
     1
  0
XRECORD
  5
E2D
102
{ACAD_REACTORS
330
E2C
102
}
330
E2C
100
AcDbXrecord
280
     1
102
RTVSPost2010Prop28
280
     0
102
RTVSPost2010PropOp28
 70
     1
102
RTVSPost2010Prop29
280
     1
102
RTVSPost2010PropOp29
 70
     1
102
RTVSPost2010Prop30
280
     1
102
RTVSPost2010PropOp30
 70
     1
102
RTVSPost2010Prop31
280
     0
102
RTVSPost2010PropOp31
 70
     1
102
RTVSPost2010Prop32
280
     0
102
RTVSPost2010PropOp32
 70
     1
102
RTVSPost2010Prop33
280
     0
102
RTVSPost2010PropOp33
 70
     1
102
RTVSPost2010Prop34
280
     0
102
RTVSPost2010PropOp34
 70
     1
102
RTVSPost2010Prop35
280
     0
102
RTVSPost2010PropOp35
 70
     1
102
RTVSPost2010Prop36
280
     0
102
RTVSPost2010PropOp36
 70
     1
102
RTVSPost2010Prop37
 90
       50
102
RTVSPost2010PropOp37
 70
     1
102
RTVSPost2010Prop38
140
0.0
102
RTVSPost2010PropOp38
 70
     1
102
RTVSPost2010Prop39
140
1.0
102
RTVSPost2010PropOp39
 70
     1
102
RTVSPost2010Prop40
 90
        0
102
RTVSPost2010PropOp40
 70
     1
102
RTVSPost2010Prop41ColorIndex
 90
       18
102
RTVSPost2010Prop41ColorRGB
 90
        0
102
RTVSPost2010PropOp41
 70
     1
102
RTVSPost2010Prop42
 90
       50
102
RTVSPost2010PropOp42
 70
     1
102
RTVSPost2010Prop43
 90
        3
102
RTVSPost2010PropOp43
 70
     1
102
RTVSPost2010Prop44ColorIndex
 90
        5
102
RTVSPost2010Prop44ColorRGB
 90
      255
102
RTVSPost2010PropOp44
 70
     1
102
RTVSPost2010Prop45
280
     0
102
RTVSPost2010PropOp45
 70
     1
102
RTVSPost2010Prop46
 90
       50
102
RTVSPost2010PropOp46
 70
     1
102
RTVSPost2010Prop47
 90
       50
102
RTVSPost2010PropOp47
 70
     1
102
RTVSPost2010Prop48
 90
       50
102
RTVSPost2010PropOp48
 70
     1
102
RTVSPost2010Prop49
280
     0
102
RTVSPost2010PropOp49
 70
     1
102
RTVSPost2010Prop50
 90
       50
102
RTVSPost2010PropOp50
 70
     1
102
RTVSPost2010Prop51ColorIndex
 90
      256
102
RTVSPost2010Prop51ColorRGB
 90
-16777216
102
RTVSPost2010PropOp51
 70
     0
102
RTVSPost2010Prop52
140
1.0
102
RTVSPost2010PropOp52
 70
     0
102
RTVSPost2010Prop53
 90
        2
102
RTVSPost2010PropOp53
 70
     1
102
RTVSPost2010Prop54
  1
strokes_ogs.tif
102
RTVSPost2010PropOp54
 70
     1
102
RTVSPost2010Prop55
280
     0
102
RTVSPost2010PropOp55
 70
     1
102
RTVSPost2010Prop56
140
1.0
102
RTVSPost2010PropOp56
 70
     1
102
RTVSPost2010Prop57
140
1.0
102
RTVSPost2010PropOp57
 70
     1
102
RTVSPropertyOp0
 70
     1
102
RTVSPropertyOp1
 70
     1
102
RTVSPropertyOp2
 70
     1
102
RTVSPropertyOp3
 70
     1
102
RTVSPropertyOp4
 70
     1
102
RTVSPropertyOp5
 70
     1
102
RTVSPropertyOp6
 70
     1
102
RTVSPropertyOp7
 70
     1
102
RTVSPropertyOp8
 70
     1
102
RTVSPropertyOp9
 70
     1
102
RTVSPropertyOp10
 70
     1
102
RTVSPropertyOp11
 70
     1
102
RTVSPropertyOp12
 70
     1
102
RTVSPropertyOp13
 70
     1
102
RTVSPropertyOp14
 70
     1
102
RTVSPropertyOp15
 70
     1
102
RTVSPropertyOp16
 70
     1
102
RTVSPropertyOp17
 70
     1
102
RTVSPropertyOp18
 70
     1
102
RTVSPropertyOp19
 70
     1
102
RTVSPropertyOp20
 70
     1
102
RTVSPropertyOp21
 70
     1
102
RTVSPropertyOp22
 70
     1
102
RTVSPropertyOp23
 70
     1
102
RTVSPropertyOp24
 70
     1
102
RTVSPropertyOp25
 70
     1
102
RTVSPropertyOp26
 70
     1
102
RTVSPropertyOp27
 70
     1
102
RTVSPropertyOp28
 70
     1
102
RTVSPropertyOp29
 70
     1
102
RTVSPropertyOp30
 70
     1
102
RTVSPropertyOp31
 70
     1
102
RTVSPropertyOp32
 70
     1
102
RTVSPropertyOp33
 70
     1
102
RTVSPropertyOp34
 70
     1
102
RTVSPropertyOp35
 70
     1
102
RTVSPropertyOp36
 70
     1
102
RTVSPropertyOp37
 70
     1
102
RTVSPropertyOp38
 70
     1
102
RTVSPropertyOp39
 70
     1
102
RTVSPropertyOp40
 70
     1
102
RTVSPropertyOp41
 70
     1
102
RTVSPropertyOp42
 70
     1
102
RTVSPropertyOp43
 70
     1
102
RTVSPropertyOp44
 70
     1
102
RTVSPropertyOp45
 70
     1
102
RTVSPropertyOp46
 70
     1
102
RTVSPropertyOp47
 70
     1
102
RTVSPropertyOp48
 70
     1
102
RTVSPropertyOp49
 70
     1
102
RTVSPropertyOp50
 70
     1
102
RTVSPropertyOp51
 70
     0
102
RTVSPropertyOp52
 70
     0
102
RTVSPropertyOp53
 70
     1
102
RTVSPropertyOp54
 70
     1
102
RTVSPropertyOp55
 70
     1
102
RTVSPropertyOp56
 70
     1
102
RTVSPropertyOp57
 70
     1
102
RTVSPropertyOp58
 70
     1
102
RTVSPropertyOp59
 70
     1
102
RTVSPropertyOp60
 70
     1
102
RTVSPropertyOp61
 70
     1
102
RTVSPropertyOp62
 70
     1
  0
XRECORD
  5
E2F
102
{ACAD_REACTORS
330
E2E
102
}
330
E2E
100
AcDbXrecord
280
     1
102
RTVSPost2010Prop28
280
     0
102
RTVSPost2010PropOp28
 70
     1
102
RTVSPost2010Prop29
280
     1
102
RTVSPost2010PropOp29
 70
     1
102
RTVSPost2010Prop30
280
     1
102
RTVSPost2010PropOp30
 70
     1
102
RTVSPost2010Prop31
280
     0
102
RTVSPost2010PropOp31
 70
     1
102
RTVSPost2010Prop32
280
     0
102
RTVSPost2010PropOp32
 70
     1
102
RTVSPost2010Prop33
280
     0
102
RTVSPost2010PropOp33
 70
     1
102
RTVSPost2010Prop34
280
     0
102
RTVSPost2010PropOp34
 70
     1
102
RTVSPost2010Prop35
280
     0
102
RTVSPost2010PropOp35
 70
     1
102
RTVSPost2010Prop36
280
     0
102
RTVSPost2010PropOp36
 70
     1
102
RTVSPost2010Prop37
 90
       50
102
RTVSPost2010PropOp37
 70
     1
102
RTVSPost2010Prop38
140
0.0
102
RTVSPost2010PropOp38
 70
     1
102
RTVSPost2010Prop39
140
1.0
102
RTVSPost2010PropOp39
 70
     1
102
RTVSPost2010Prop40
 90
        0
102
RTVSPost2010PropOp40
 70
     1
102
RTVSPost2010Prop41ColorIndex
 90
       18
102
RTVSPost2010Prop41ColorRGB
 90
        0
102
RTVSPost2010PropOp41
 70
     1
102
RTVSPost2010Prop42
 90
       50
102
RTVSPost2010PropOp42
 70
     1
102
RTVSPost2010Prop43
 90
        3
102
RTVSPost2010PropOp43
 70
     1
102
RTVSPost2010Prop44ColorIndex
 90
        5
102
RTVSPost2010Prop44ColorRGB
 90
      255
102
RTVSPost2010PropOp44
 70
     1
102
RTVSPost2010Prop45
280
     0
102
RTVSPost2010PropOp45
 70
     1
102
RTVSPost2010Prop46
 90
       50
102
RTVSPost2010PropOp46
 70
     1
102
RTVSPost2010Prop47
 90
       50
102
RTVSPost2010PropOp47
 70
     1
102
RTVSPost2010Prop48
 90
       50
102
RTVSPost2010PropOp48
 70
     1
102
RTVSPost2010Prop49
280
     0
102
RTVSPost2010PropOp49
 70
     1
102
RTVSPost2010Prop50
 90
       50
102
RTVSPost2010PropOp50
 70
     1
102
RTVSPost2010Prop51ColorIndex
 90
      256
102
RTVSPost2010Prop51ColorRGB
 90
-16777216
102
RTVSPost2010PropOp51
 70
     0
102
RTVSPost2010Prop52
140
1.0
102
RTVSPost2010PropOp52
 70
     0
102
RTVSPost2010Prop53
 90
        2
102
RTVSPost2010PropOp53
 70
     1
102
RTVSPost2010Prop54
  1
strokes_ogs.tif
102
RTVSPost2010PropOp54
 70
     1
102
RTVSPost2010Prop55
280
     0
102
RTVSPost2010PropOp55
 70
     1
102
RTVSPost2010Prop56
140
1.0
102
RTVSPost2010PropOp56
 70
     1
102
RTVSPost2010Prop57
140
1.0
102
RTVSPost2010PropOp57
 70
     1
102
RTVSPropertyOp0
 70
     1
102
RTVSPropertyOp1
 70
     1
102
RTVSPropertyOp2
 70
     1
102
RTVSPropertyOp3
 70
     1
102
RTVSPropertyOp4
 70
     1
102
RTVSPropertyOp5
 70
     1
102
RTVSPropertyOp6
 70
     1
102
RTVSPropertyOp7
 70
     1
102
RTVSPropertyOp8
 70
     1
102
RTVSPropertyOp9
 70
     1
102
RTVSPropertyOp10
 70
     1
102
RTVSPropertyOp11
 70
     1
102
RTVSPropertyOp12
 70
     1
102
RTVSPropertyOp13
 70
     1
102
RTVSPropertyOp14
 70
     1
102
RTVSPropertyOp15
 70
     1
102
RTVSPropertyOp16
 70
     1
102
RTVSPropertyOp17
 70
     1
102
RTVSPropertyOp18
 70
     1
102
RTVSPropertyOp19
 70
     1
102
RTVSPropertyOp20
 70
     1
102
RTVSPropertyOp21
 70
     1
102
RTVSPropertyOp22
 70
     1
102
RTVSPropertyOp23
 70
     1
102
RTVSPropertyOp24
 70
     1
102
RTVSPropertyOp25
 70
     1
102
RTVSPropertyOp26
 70
     1
102
RTVSPropertyOp27
 70
     1
102
RTVSPropertyOp28
 70
     1
102
RTVSPropertyOp29
 70
     1
102
RTVSPropertyOp30
 70
     1
102
RTVSPropertyOp31
 70
     1
102
RTVSPropertyOp32
 70
     1
102
RTVSPropertyOp33
 70
     1
102
RTVSPropertyOp34
 70
     1
102
RTVSPropertyOp35
 70
     1
102
RTVSPropertyOp36
 70
     1
102
RTVSPropertyOp37
 70
     1
102
RTVSPropertyOp38
 70
     1
102
RTVSPropertyOp39
 70
     1
102
RTVSPropertyOp40
 70
     1
102
RTVSPropertyOp41
 70
     1
102
RTVSPropertyOp42
 70
     1
102
RTVSPropertyOp43
 70
     1
102
RTVSPropertyOp44
 70
     1
102
RTVSPropertyOp45
 70
     1
102
RTVSPropertyOp46
 70
     1
102
RTVSPropertyOp47
 70
     1
102
RTVSPropertyOp48
 70
     1
102
RTVSPropertyOp49
 70
     1
102
RTVSPropertyOp50
 70
     1
102
RTVSPropertyOp51
 70
     0
102
RTVSPropertyOp52
 70
     0
102
RTVSPropertyOp53
 70
     1
102
RTVSPropertyOp54
 70
     1
102
RTVSPropertyOp55
 70
     1
102
RTVSPropertyOp56
 70
     1
102
RTVSPropertyOp57
 70
     1
102
RTVSPropertyOp58
 70
     1
102
RTVSPropertyOp59
 70
     1
102
RTVSPropertyOp60
 70
     1
102
RTVSPropertyOp61
 70
     1
102
RTVSPropertyOp62
 70
     1
  0
XRECORD
  5
E31
102
{ACAD_REACTORS
330
E30
102
}
330
E30
100
AcDbXrecord
280
     1
102
RTVSPost2010Prop28
280
     0
102
RTVSPost2010PropOp28
 70
     1
102
RTVSPost2010Prop29
280
     1
102
RTVSPost2010PropOp29
 70
     1
102
RTVSPost2010Prop30
280
     1
102
RTVSPost2010PropOp30
 70
     1
102
RTVSPost2010Prop31
280
     0
102
RTVSPost2010PropOp31
 70
     1
102
RTVSPost2010Prop32
280
     0
102
RTVSPost2010PropOp32
 70
     1
102
RTVSPost2010Prop33
280
     0
102
RTVSPost2010PropOp33
 70
     1
102
RTVSPost2010Prop34
280
     0
102
RTVSPost2010PropOp34
 70
     1
102
RTVSPost2010Prop35
280
     0
102
RTVSPost2010PropOp35
 70
     1
102
RTVSPost2010Prop36
280
     0
102
RTVSPost2010PropOp36
 70
     1
102
RTVSPost2010Prop37
 90
       50
102
RTVSPost2010PropOp37
 70
     1
102
RTVSPost2010Prop38
140
0.0
102
RTVSPost2010PropOp38
 70
     1
102
RTVSPost2010Prop39
140
1.0
102
RTVSPost2010PropOp39
 70
     1
102
RTVSPost2010Prop40
 90
        0
102
RTVSPost2010PropOp40
 70
     1
102
RTVSPost2010Prop41ColorIndex
 90
       18
102
RTVSPost2010Prop41ColorRGB
 90
        0
102
RTVSPost2010PropOp41
 70
     1
102
RTVSPost2010Prop42
 90
       50
102
RTVSPost2010PropOp42
 70
     1
102
RTVSPost2010Prop43
 90
        3
102
RTVSPost2010PropOp43
 70
     1
102
RTVSPost2010Prop44ColorIndex
 90
        5
102
RTVSPost2010Prop44ColorRGB
 90
      255
102
RTVSPost2010PropOp44
 70
     1
102
RTVSPost2010Prop45
280
     0
102
RTVSPost2010PropOp45
 70
     1
102
RTVSPost2010Prop46
 90
       50
102
RTVSPost2010PropOp46
 70
     1
102
RTVSPost2010Prop47
 90
       50
102
RTVSPost2010PropOp47
 70
     1
102
RTVSPost2010Prop48
 90
       50
102
RTVSPost2010PropOp48
 70
     1
102
RTVSPost2010Prop49
280
     0
102
RTVSPost2010PropOp49
 70
     1
102
RTVSPost2010Prop50
 90
       50
102
RTVSPost2010PropOp50
 70
     1
102
RTVSPost2010Prop51ColorIndex
 90
      256
102
RTVSPost2010Prop51ColorRGB
 90
-16777216
102
RTVSPost2010PropOp51
 70
     0
102
RTVSPost2010Prop52
140
1.0
102
RTVSPost2010PropOp52
 70
     0
102
RTVSPost2010Prop53
 90
        2
102
RTVSPost2010PropOp53
 70
     1
102
RTVSPost2010Prop54
  1
strokes_ogs.tif
102
RTVSPost2010PropOp54
 70
     1
102
RTVSPost2010Prop55
280
     0
102
RTVSPost2010PropOp55
 70
     1
102
RTVSPost2010Prop56
140
1.0
102
RTVSPost2010PropOp56
 70
     1
102
RTVSPost2010Prop57
140
1.0
102
RTVSPost2010PropOp57
 70
     1
102
RTVSPropertyOp0
 70
     1
102
RTVSPropertyOp1
 70
     1
102
RTVSPropertyOp2
 70
     1
102
RTVSPropertyOp3
 70
     1
102
RTVSPropertyOp4
 70
     1
102
RTVSPropertyOp5
 70
     1
102
RTVSPropertyOp6
 70
     1
102
RTVSPropertyOp7
 70
     1
102
RTVSPropertyOp8
 70
     1
102
RTVSPropertyOp9
 70
     1
102
RTVSPropertyOp10
 70
     1
102
RTVSPropertyOp11
 70
     1
102
RTVSPropertyOp12
 70
     1
102
RTVSPropertyOp13
 70
     1
102
RTVSPropertyOp14
 70
     1
102
RTVSPropertyOp15
 70
     1
102
RTVSPropertyOp16
 70
     1
102
RTVSPropertyOp17
 70
     1
102
RTVSPropertyOp18
 70
     1
102
RTVSPropertyOp19
 70
     1
102
RTVSPropertyOp20
 70
     1
102
RTVSPropertyOp21
 70
     1
102
RTVSPropertyOp22
 70
     1
102
RTVSPropertyOp23
 70
     1
102
RTVSPropertyOp24
 70
     1
102
RTVSPropertyOp25
 70
     1
102
RTVSPropertyOp26
 70
     1
102
RTVSPropertyOp27
 70
     1
102
RTVSPropertyOp28
 70
     1
102
RTVSPropertyOp29
 70
     1
102
RTVSPropertyOp30
 70
     1
102
RTVSPropertyOp31
 70
     1
102
RTVSPropertyOp32
 70
     1
102
RTVSPropertyOp33
 70
     1
102
RTVSPropertyOp34
 70
     1
102
RTVSPropertyOp35
 70
     1
102
RTVSPropertyOp36
 70
     1
102
RTVSPropertyOp37
 70
     1
102
RTVSPropertyOp38
 70
     1
102
RTVSPropertyOp39
 70
     1
102
RTVSPropertyOp40
 70
     1
102
RTVSPropertyOp41
 70
     1
102
RTVSPropertyOp42
 70
     1
102
RTVSPropertyOp43
 70
     1
102
RTVSPropertyOp44
 70
     1
102
RTVSPropertyOp45
 70
     1
102
RTVSPropertyOp46
 70
     1
102
RTVSPropertyOp47
 70
     1
102
RTVSPropertyOp48
 70
     1
102
RTVSPropertyOp49
 70
     1
102
RTVSPropertyOp50
 70
     1
102
RTVSPropertyOp51
 70
     0
102
RTVSPropertyOp52
 70
     0
102
RTVSPropertyOp53
 70
     1
102
RTVSPropertyOp54
 70
     1
102
RTVSPropertyOp55
 70
     1
102
RTVSPropertyOp56
 70
     1
102
RTVSPropertyOp57
 70
     1
102
RTVSPropertyOp58
 70
     1
102
RTVSPropertyOp59
 70
     1
102
RTVSPropertyOp60
 70
     1
102
RTVSPropertyOp61
 70
     1
102
RTVSPropertyOp62
 70
     1
  0
XRECORD
  5
E33
102
{ACAD_REACTORS
330
E32
102
}
330
E32
100
AcDbXrecord
280
     1
102
RTVSPost2010Prop28
280
     0
102
RTVSPost2010PropOp28
 70
     1
102
RTVSPost2010Prop29
280
     1
102
RTVSPost2010PropOp29
 70
     1
102
RTVSPost2010Prop30
280
     1
102
RTVSPost2010PropOp30
 70
     1
102
RTVSPost2010Prop31
280
     0
102
RTVSPost2010PropOp31
 70
     1
102
RTVSPost2010Prop32
280
     0
102
RTVSPost2010PropOp32
 70
     1
102
RTVSPost2010Prop33
280
     0
102
RTVSPost2010PropOp33
 70
     1
102
RTVSPost2010Prop34
280
     0
102
RTVSPost2010PropOp34
 70
     1
102
RTVSPost2010Prop35
280
     0
102
RTVSPost2010PropOp35
 70
     1
102
RTVSPost2010Prop36
280
     0
102
RTVSPost2010PropOp36
 70
     1
102
RTVSPost2010Prop37
 90
       50
102
RTVSPost2010PropOp37
 70
     1
102
RTVSPost2010Prop38
140
0.0
102
RTVSPost2010PropOp38
 70
     1
102
RTVSPost2010Prop39
140
1.0
102
RTVSPost2010PropOp39
 70
     1
102
RTVSPost2010Prop40
 90
        0
102
RTVSPost2010PropOp40
 70
     1
102
RTVSPost2010Prop41ColorIndex
 90
       18
102
RTVSPost2010Prop41ColorRGB
 90
        0
102
RTVSPost2010PropOp41
 70
     1
102
RTVSPost2010Prop42
 90
       50
102
RTVSPost2010PropOp42
 70
     1
102
RTVSPost2010Prop43
 90
        3
102
RTVSPost2010PropOp43
 70
     1
102
RTVSPost2010Prop44ColorIndex
 90
        5
102
RTVSPost2010Prop44ColorRGB
 90
      255
102
RTVSPost2010PropOp44
 70
     1
102
RTVSPost2010Prop45
280
     0
102
RTVSPost2010PropOp45
 70
     1
102
RTVSPost2010Prop46
 90
       50
102
RTVSPost2010PropOp46
 70
     1
102
RTVSPost2010Prop47
 90
       50
102
RTVSPost2010PropOp47
 70
     1
102
RTVSPost2010Prop48
 90
       50
102
RTVSPost2010PropOp48
 70
     1
102
RTVSPost2010Prop49
280
     0
102
RTVSPost2010PropOp49
 70
     1
102
RTVSPost2010Prop50
 90
       50
102
RTVSPost2010PropOp50
 70
     1
102
RTVSPost2010Prop51ColorIndex
 90
      256
102
RTVSPost2010Prop51ColorRGB
 90
-16777216
102
RTVSPost2010PropOp51
 70
     0
102
RTVSPost2010Prop52
140
1.0
102
RTVSPost2010PropOp52
 70
     0
102
RTVSPost2010Prop53
 90
        2
102
RTVSPost2010PropOp53
 70
     1
102
RTVSPost2010Prop54
  1
strokes_ogs.tif
102
RTVSPost2010PropOp54
 70
     1
102
RTVSPost2010Prop55
280
     0
102
RTVSPost2010PropOp55
 70
     1
102
RTVSPost2010Prop56
140
1.0
102
RTVSPost2010PropOp56
 70
     1
102
RTVSPost2010Prop57
140
1.0
102
RTVSPost2010PropOp57
 70
     1
102
RTVSPropertyOp0
 70
     1
102
RTVSPropertyOp1
 70
     1
102
RTVSPropertyOp2
 70
     1
102
RTVSPropertyOp3
 70
     1
102
RTVSPropertyOp4
 70
     1
102
RTVSPropertyOp5
 70
     1
102
RTVSPropertyOp6
 70
     1
102
RTVSPropertyOp7
 70
     1
102
RTVSPropertyOp8
 70
     1
102
RTVSPropertyOp9
 70
     1
102
RTVSPropertyOp10
 70
     1
102
RTVSPropertyOp11
 70
     1
102
RTVSPropertyOp12
 70
     1
102
RTVSPropertyOp13
 70
     1
102
RTVSPropertyOp14
 70
     1
102
RTVSPropertyOp15
 70
     1
102
RTVSPropertyOp16
 70
     1
102
RTVSPropertyOp17
 70
     1
102
RTVSPropertyOp18
 70
     1
102
RTVSPropertyOp19
 70
     1
102
RTVSPropertyOp20
 70
     1
102
RTVSPropertyOp21
 70
     1
102
RTVSPropertyOp22
 70
     1
102
RTVSPropertyOp23
 70
     1
102
RTVSPropertyOp24
 70
     1
102
RTVSPropertyOp25
 70
     1
102
RTVSPropertyOp26
 70
     1
102
RTVSPropertyOp27
 70
     1
102
RTVSPropertyOp28
 70
     1
102
RTVSPropertyOp29
 70
     1
102
RTVSPropertyOp30
 70
     1
102
RTVSPropertyOp31
 70
     1
102
RTVSPropertyOp32
 70
     1
102
RTVSPropertyOp33
 70
     1
102
RTVSPropertyOp34
 70
     1
102
RTVSPropertyOp35
 70
     1
102
RTVSPropertyOp36
 70
     1
102
RTVSPropertyOp37
 70
     1
102
RTVSPropertyOp38
 70
     1
102
RTVSPropertyOp39
 70
     1
102
RTVSPropertyOp40
 70
     1
102
RTVSPropertyOp41
 70
     1
102
RTVSPropertyOp42
 70
     1
102
RTVSPropertyOp43
 70
     1
102
RTVSPropertyOp44
 70
     1
102
RTVSPropertyOp45
 70
     1
102
RTVSPropertyOp46
 70
     1
102
RTVSPropertyOp47
 70
     1
102
RTVSPropertyOp48
 70
     1
102
RTVSPropertyOp49
 70
     1
102
RTVSPropertyOp50
 70
     1
102
RTVSPropertyOp51
 70
     0
102
RTVSPropertyOp52
 70
     0
102
RTVSPropertyOp53
 70
     1
102
RTVSPropertyOp54
 70
     1
102
RTVSPropertyOp55
 70
     1
102
RTVSPropertyOp56
 70
     1
102
RTVSPropertyOp57
 70
     1
102
RTVSPropertyOp58
 70
     1
102
RTVSPropertyOp59
 70
     1
102
RTVSPropertyOp60
 70
     1
102
RTVSPropertyOp61
 70
     1
102
RTVSPropertyOp62
 70
     1
  0
XRECORD
  5
E3B
102
{ACAD_REACTORS
330
E3A
102
}
330
E3A
100
AcDbXrecord
280
     1
102
RTVSPost2010Prop28
280
     0
102
RTVSPost2010PropOp28
 70
     1
102
RTVSPost2010Prop29
280
     1
102
RTVSPost2010PropOp29
 70
     1
102
RTVSPost2010Prop30
280
     1
102
RTVSPost2010PropOp30
 70
     1
102
RTVSPost2010Prop31
280
     0
102
RTVSPost2010PropOp31
 70
     1
102
RTVSPost2010Prop32
280
     0
102
RTVSPost2010PropOp32
 70
     1
102
RTVSPost2010Prop33
280
     0
102
RTVSPost2010PropOp33
 70
     1
102
RTVSPost2010Prop34
280
     0
102
RTVSPost2010PropOp34
 70
     1
102
RTVSPost2010Prop35
280
     0
102
RTVSPost2010PropOp35
 70
     1
102
RTVSPost2010Prop36
280
     0
102
RTVSPost2010PropOp36
 70
     1
102
RTVSPost2010Prop37
 90
       50
102
RTVSPost2010PropOp37
 70
     1
102
RTVSPost2010Prop38
140
0.0
102
RTVSPost2010PropOp38
 70
     1
102
RTVSPost2010Prop39
140
1.0
102
RTVSPost2010PropOp39
 70
     1
102
RTVSPost2010Prop40
 90
        0
102
RTVSPost2010PropOp40
 70
     1
102
RTVSPost2010Prop41ColorIndex
 90
       18
102
RTVSPost2010Prop41ColorRGB
 90
        0
102
RTVSPost2010PropOp41
 70
     1
102
RTVSPost2010Prop42
 90
       50
102
RTVSPost2010PropOp42
 70
     1
102
RTVSPost2010Prop43
 90
        3
102
RTVSPost2010PropOp43
 70
     1
102
RTVSPost2010Prop44ColorIndex
 90
        5
102
RTVSPost2010Prop44ColorRGB
 90
      255
102
RTVSPost2010PropOp44
 70
     1
102
RTVSPost2010Prop45
280
     0
102
RTVSPost2010PropOp45
 70
     1
102
RTVSPost2010Prop46
 90
       50
102
RTVSPost2010PropOp46
 70
     1
102
RTVSPost2010Prop47
 90
       50
102
RTVSPost2010PropOp47
 70
     1
102
RTVSPost2010Prop48
 90
       50
102
RTVSPost2010PropOp48
 70
     1
102
RTVSPost2010Prop49
280
     0
102
RTVSPost2010PropOp49
 70
     1
102
RTVSPost2010Prop50
 90
       50
102
RTVSPost2010PropOp50
 70
     1
102
RTVSPost2010Prop51ColorIndex
 90
      256
102
RTVSPost2010Prop51ColorRGB
 90
-16777216
102
RTVSPost2010PropOp51
 70
     0
102
RTVSPost2010Prop52
140
1.0
102
RTVSPost2010PropOp52
 70
     0
102
RTVSPost2010Prop53
 90
        2
102
RTVSPost2010PropOp53
 70
     1
102
RTVSPost2010Prop54
  1
strokes_ogs.tif
102
RTVSPost2010PropOp54
 70
     1
102
RTVSPost2010Prop55
280
     0
102
RTVSPost2010PropOp55
 70
     1
102
RTVSPost2010Prop56
140
1.0
102
RTVSPost2010PropOp56
 70
     1
102
RTVSPost2010Prop57
140
1.0
102
RTVSPost2010PropOp57
 70
     1
102
RTVSPropertyOp0
 70
     1
102
RTVSPropertyOp1
 70
     1
102
RTVSPropertyOp2
 70
     1
102
RTVSPropertyOp3
 70
     1
102
RTVSPropertyOp4
 70
     1
102
RTVSPropertyOp5
 70
     1
102
RTVSPropertyOp6
 70
     1
102
RTVSPropertyOp7
 70
     1
102
RTVSPropertyOp8
 70
     1
102
RTVSPropertyOp9
 70
     1
102
RTVSPropertyOp10
 70
     1
102
RTVSPropertyOp11
 70
     1
102
RTVSPropertyOp12
 70
     1
102
RTVSPropertyOp13
 70
     1
102
RTVSPropertyOp14
 70
     1
102
RTVSPropertyOp15
 70
     1
102
RTVSPropertyOp16
 70
     1
102
RTVSPropertyOp17
 70
     1
102
RTVSPropertyOp18
 70
     1
102
RTVSPropertyOp19
 70
     1
102
RTVSPropertyOp20
 70
     1
102
RTVSPropertyOp21
 70
     1
102
RTVSPropertyOp22
 70
     1
102
RTVSPropertyOp23
 70
     1
102
RTVSPropertyOp24
 70
     1
102
RTVSPropertyOp25
 70
     1
102
RTVSPropertyOp26
 70
     1
102
RTVSPropertyOp27
 70
     1
102
RTVSPropertyOp28
 70
     1
102
RTVSPropertyOp29
 70
     1
102
RTVSPropertyOp30
 70
     1
102
RTVSPropertyOp31
 70
     1
102
RTVSPropertyOp32
 70
     1
102
RTVSPropertyOp33
 70
     1
102
RTVSPropertyOp34
 70
     1
102
RTVSPropertyOp35
 70
     1
102
RTVSPropertyOp36
 70
     1
102
RTVSPropertyOp37
 70
     1
102
RTVSPropertyOp38
 70
     1
102
RTVSPropertyOp39
 70
     1
102
RTVSPropertyOp40
 70
     1
102
RTVSPropertyOp41
 70
     1
102
RTVSPropertyOp42
 70
     1
102
RTVSPropertyOp43
 70
     1
102
RTVSPropertyOp44
 70
     1
102
RTVSPropertyOp45
 70
     1
102
RTVSPropertyOp46
 70
     1
102
RTVSPropertyOp47
 70
     1
102
RTVSPropertyOp48
 70
     1
102
RTVSPropertyOp49
 70
     1
102
RTVSPropertyOp50
 70
     1
102
RTVSPropertyOp51
 70
     0
102
RTVSPropertyOp52
 70
     0
102
RTVSPropertyOp53
 70
     1
102
RTVSPropertyOp54
 70
     1
102
RTVSPropertyOp55
 70
     1
102
RTVSPropertyOp56
 70
     1
102
RTVSPropertyOp57
 70
     1
102
RTVSPropertyOp58
 70
     1
102
RTVSPropertyOp59
 70
     1
102
RTVSPropertyOp60
 70
     1
102
RTVSPropertyOp61
 70
     1
102
RTVSPropertyOp62
 70
     1
  0
XRECORD
  5
E57
102
{ACAD_REACTORS
330
E56
102
}
330
E56
100
AcDbXrecord
280
     1
102
RTVSPost2010Prop28
280
     0
102
RTVSPost2010PropOp28
 70
     1
102
RTVSPost2010Prop29
280
     1
102
RTVSPost2010PropOp29
 70
     1
102
RTVSPost2010Prop30
280
     1
102
RTVSPost2010PropOp30
 70
     1
102
RTVSPost2010Prop31
280
     0
102
RTVSPost2010PropOp31
 70
     1
102
RTVSPost2010Prop32
280
     0
102
RTVSPost2010PropOp32
 70
     1
102
RTVSPost2010Prop33
280
     0
102
RTVSPost2010PropOp33
 70
     1
102
RTVSPost2010Prop34
280
     0
102
RTVSPost2010PropOp34
 70
     1
102
RTVSPost2010Prop35
280
     0
102
RTVSPost2010PropOp35
 70
     1
102
RTVSPost2010Prop36
280
     0
102
RTVSPost2010PropOp36
 70
     1
102
RTVSPost2010Prop37
 90
       50
102
RTVSPost2010PropOp37
 70
     0
102
RTVSPost2010Prop38
140
0.0
102
RTVSPost2010PropOp38
 70
     0
102
RTVSPost2010Prop39
140
1.0
102
RTVSPost2010PropOp39
 70
     0
102
RTVSPost2010Prop40
 90
        0
102
RTVSPost2010PropOp40
 70
     0
102
RTVSPost2010Prop41ColorIndex
 90
       18
102
RTVSPost2010Prop41ColorRGB
 90
        0
102
RTVSPost2010PropOp41
 70
     0
102
RTVSPost2010Prop42
 90
       50
102
RTVSPost2010PropOp42
 70
     0
102
RTVSPost2010Prop43
 90
        3
102
RTVSPost2010PropOp43
 70
     0
102
RTVSPost2010Prop44ColorIndex
 90
        5
102
RTVSPost2010Prop44ColorRGB
 90
      255
102
RTVSPost2010PropOp44
 70
     0
102
RTVSPost2010Prop45
280
     0
102
RTVSPost2010PropOp45
 70
     1
102
RTVSPost2010Prop46
 90
       50
102
RTVSPost2010PropOp46
 70
     0
102
RTVSPost2010Prop47
 90
       50
102
RTVSPost2010PropOp47
 70
     0
102
RTVSPost2010Prop48
 90
       50
102
RTVSPost2010PropOp48
 70
     0
102
RTVSPost2010Prop49
280
     0
102
RTVSPost2010PropOp49
 70
     1
102
RTVSPost2010Prop50
 90
       50
102
RTVSPost2010PropOp50
 70
     0
102
RTVSPost2010Prop51ColorIndex
 90
      256
102
RTVSPost2010Prop51ColorRGB
 90
-16777216
102
RTVSPost2010PropOp51
 70
     0
102
RTVSPost2010Prop52
140
1.0
102
RTVSPost2010PropOp52
 70
     0
102
RTVSPost2010Prop53
 90
        2
102
RTVSPost2010PropOp53
 70
     0
102
RTVSPost2010Prop54
  1
strokes_ogs.tif
102
RTVSPost2010PropOp54
 70
     0
102
RTVSPost2010Prop55
280
     0
102
RTVSPost2010PropOp55
 70
     1
102
RTVSPost2010Prop56
140
1.0
102
RTVSPost2010PropOp56
 70
     0
102
RTVSPost2010Prop57
140
1.0
102
RTVSPost2010PropOp57
 70
     0
102
RTVSPropertyOp0
 70
     0
102
RTVSPropertyOp1
 70
     0
102
RTVSPropertyOp2
 70
     0
102
RTVSPropertyOp3
 70
     0
102
RTVSPropertyOp4
 70
     0
102
RTVSPropertyOp5
 70
     0
102
RTVSPropertyOp6
 70
     0
102
RTVSPropertyOp7
 70
     0
102
RTVSPropertyOp8
 70
     0
102
RTVSPropertyOp9
 70
     0
102
RTVSPropertyOp10
 70
     0
102
RTVSPropertyOp11
 70
     0
102
RTVSPropertyOp12
 70
     0
102
RTVSPropertyOp13
 70
     0
102
RTVSPropertyOp14
 70
     2
102
RTVSPropertyOp15
 70
     0
102
RTVSPropertyOp16
 70
     0
102
RTVSPropertyOp17
 70
     0
102
RTVSPropertyOp18
 70
     0
102
RTVSPropertyOp19
 70
     0
102
RTVSPropertyOp20
 70
     0
102
RTVSPropertyOp21
 70
     0
102
RTVSPropertyOp22
 70
     0
102
RTVSPropertyOp23
 70
     0
102
RTVSPropertyOp24
 70
     0
102
RTVSPropertyOp25
 70
     0
102
RTVSPropertyOp26
 70
     0
102
RTVSPropertyOp27
 70
     0
102
RTVSPropertyOp28
 70
     1
102
RTVSPropertyOp29
 70
     1
102
RTVSPropertyOp30
 70
     1
102
RTVSPropertyOp31
 70
     1
102
RTVSPropertyOp32
 70
     1
102
RTVSPropertyOp33
 70
     1
102
RTVSPropertyOp34
 70
     1
102
RTVSPropertyOp35
 70
     1
102
RTVSPropertyOp36
 70
     1
102
RTVSPropertyOp37
 70
     0
102
RTVSPropertyOp38
 70
     0
102
RTVSPropertyOp39
 70
     0
102
RTVSPropertyOp40
 70
     0
102
RTVSPropertyOp41
 70
     0
102
RTVSPropertyOp42
 70
     0
102
RTVSPropertyOp43
 70
     0
102
RTVSPropertyOp44
 70
     0
102
RTVSPropertyOp45
 70
     1
102
RTVSPropertyOp46
 70
     0
102
RTVSPropertyOp47
 70
     0
102
RTVSPropertyOp48
 70
     0
102
RTVSPropertyOp49
 70
     1
102
RTVSPropertyOp50
 70
     0
102
RTVSPropertyOp51
 70
     0
102
RTVSPropertyOp52
 70
     0
102
RTVSPropertyOp53
 70
     0
102
RTVSPropertyOp54
 70
     0
102
RTVSPropertyOp55
 70
     1
102
RTVSPropertyOp56
 70
     0
102
RTVSPropertyOp57
 70
     0
102
RTVSPropertyOp58
 70
     0
102
RTVSPropertyOp59
 70
     0
102
RTVSPropertyOp60
 70
     0
102
RTVSPropertyOp61
 70
     0
102
RTVSPropertyOp62
 70
     0
  0
XRECORD
  5
E47
102
{ACAD_REACTORS
330
E46
102
}
330
E46
100
AcDbXrecord
280
     1
102
RTVSPost2010Prop28
280
     0
102
RTVSPost2010PropOp28
 70
     1
102
RTVSPost2010Prop29
280
     1
102
RTVSPost2010PropOp29
 70
     1
102
RTVSPost2010Prop30
280
     1
102
RTVSPost2010PropOp30
 70
     1
102
RTVSPost2010Prop31
280
     0
102
RTVSPost2010PropOp31
 70
     1
102
RTVSPost2010Prop32
280
     0
102
RTVSPost2010PropOp32
 70
     1
102
RTVSPost2010Prop33
280
     0
102
RTVSPost2010PropOp33
 70
     1
102
RTVSPost2010Prop34
280
     0
102
RTVSPost2010PropOp34
 70
     1
102
RTVSPost2010Prop35
280
     0
102
RTVSPost2010PropOp35
 70
     1
102
RTVSPost2010Prop36
280
     0
102
RTVSPost2010PropOp36
 70
     1
102
RTVSPost2010Prop37
 90
       50
102
RTVSPost2010PropOp37
 70
     1
102
RTVSPost2010Prop38
140
0.0
102
RTVSPost2010PropOp38
 70
     1
102
RTVSPost2010Prop39
140
1.0
102
RTVSPost2010PropOp39
 70
     1
102
RTVSPost2010Prop40
 90
        0
102
RTVSPost2010PropOp40
 70
     1
102
RTVSPost2010Prop41ColorIndex
 90
       18
102
RTVSPost2010Prop41ColorRGB
 90
        0
102
RTVSPost2010PropOp41
 70
     1
102
RTVSPost2010Prop42
 90
       50
102
RTVSPost2010PropOp42
 70
     1
102
RTVSPost2010Prop43
 90
        3
102
RTVSPost2010PropOp43
 70
     1
102
RTVSPost2010Prop44ColorIndex
 90
        5
102
RTVSPost2010Prop44ColorRGB
 90
      255
102
RTVSPost2010PropOp44
 70
     1
102
RTVSPost2010Prop45
280
     0
102
RTVSPost2010PropOp45
 70
     1
102
RTVSPost2010Prop46
 90
       50
102
RTVSPost2010PropOp46
 70
     1
102
RTVSPost2010Prop47
 90
       50
102
RTVSPost2010PropOp47
 70
     1
102
RTVSPost2010Prop48
 90
       50
102
RTVSPost2010PropOp48
 70
     1
102
RTVSPost2010Prop49
280
     0
102
RTVSPost2010PropOp49
 70
     1
102
RTVSPost2010Prop50
 90
       50
102
RTVSPost2010PropOp50
 70
     1
102
RTVSPost2010Prop51ColorIndex
 90
      256
102
RTVSPost2010Prop51ColorRGB
 90
-16777216
102
RTVSPost2010PropOp51
 70
     0
102
RTVSPost2010Prop52
140
1.0
102
RTVSPost2010PropOp52
 70
     0
102
RTVSPost2010Prop53
 90
        2
102
RTVSPost2010PropOp53
 70
     1
102
RTVSPost2010Prop54
  1
strokes_ogs.tif
102
RTVSPost2010PropOp54
 70
     1
102
RTVSPost2010Prop55
280
     0
102
RTVSPost2010PropOp55
 70
     1
102
RTVSPost2010Prop56
140
1.0
102
RTVSPost2010PropOp56
 70
     1
102
RTVSPost2010Prop57
140
1.0
102
RTVSPost2010PropOp57
 70
     1
102
RTVSPropertyOp0
 70
     1
102
RTVSPropertyOp1
 70
     1
102
RTVSPropertyOp2
 70
     1
102
RTVSPropertyOp3
 70
     1
102
RTVSPropertyOp4
 70
     1
102
RTVSPropertyOp5
 70
     1
102
RTVSPropertyOp6
 70
     1
102
RTVSPropertyOp7
 70
     1
102
RTVSPropertyOp8
 70
     1
102
RTVSPropertyOp9
 70
     1
102
RTVSPropertyOp10
 70
     1
102
RTVSPropertyOp11
 70
     1
102
RTVSPropertyOp12
 70
     1
102
RTVSPropertyOp13
 70
     1
102
RTVSPropertyOp14
 70
     1
102
RTVSPropertyOp15
 70
     1
102
RTVSPropertyOp16
 70
     1
102
RTVSPropertyOp17
 70
     1
102
RTVSPropertyOp18
 70
     1
102
RTVSPropertyOp19
 70
     1
102
RTVSPropertyOp20
 70
     1
102
RTVSPropertyOp21
 70
     1
102
RTVSPropertyOp22
 70
     1
102
RTVSPropertyOp23
 70
     1
102
RTVSPropertyOp24
 70
     1
102
RTVSPropertyOp25
 70
     1
102
RTVSPropertyOp26
 70
     1
102
RTVSPropertyOp27
 70
     1
102
RTVSPropertyOp28
 70
     1
102
RTVSPropertyOp29
 70
     1
102
RTVSPropertyOp30
 70
     1
102
RTVSPropertyOp31
 70
     1
102
RTVSPropertyOp32
 70
     1
102
RTVSPropertyOp33
 70
     1
102
RTVSPropertyOp34
 70
     1
102
RTVSPropertyOp35
 70
     1
102
RTVSPropertyOp36
 70
     1
102
RTVSPropertyOp37
 70
     1
102
RTVSPropertyOp38
 70
     1
102
RTVSPropertyOp39
 70
     1
102
RTVSPropertyOp40
 70
     1
102
RTVSPropertyOp41
 70
     1
102
RTVSPropertyOp42
 70
     1
102
RTVSPropertyOp43
 70
     1
102
RTVSPropertyOp44
 70
     1
102
RTVSPropertyOp45
 70
     1
102
RTVSPropertyOp46
 70
     1
102
RTVSPropertyOp47
 70
     1
102
RTVSPropertyOp48
 70
     1
102
RTVSPropertyOp49
 70
     1
102
RTVSPropertyOp50
 70
     1
102
RTVSPropertyOp51
 70
     0
102
RTVSPropertyOp52
 70
     0
102
RTVSPropertyOp53
 70
     1
102
RTVSPropertyOp54
 70
     1
102
RTVSPropertyOp55
 70
     1
102
RTVSPropertyOp56
 70
     1
102
RTVSPropertyOp57
 70
     1
102
RTVSPropertyOp58
 70
     1
102
RTVSPropertyOp59
 70
     1
102
RTVSPropertyOp60
 70
     1
102
RTVSPropertyOp61
 70
     1
102
RTVSPropertyOp62
 70
     1
  0
XRECORD
  5
E59
102
{ACAD_REACTORS
330
E58
102
}
330
E58
100
AcDbXrecord
280
     1
102
RTVSPost2010Prop28
280
     0
102
RTVSPost2010PropOp28
 70
     1
102
RTVSPost2010Prop29
280
     1
102
RTVSPost2010PropOp29
 70
     1
102
RTVSPost2010Prop30
280
     1
102
RTVSPost2010PropOp30
 70
     1
102
RTVSPost2010Prop31
280
     0
102
RTVSPost2010PropOp31
 70
     1
102
RTVSPost2010Prop32
280
     0
102
RTVSPost2010PropOp32
 70
     1
102
RTVSPost2010Prop33
280
     0
102
RTVSPost2010PropOp33
 70
     1
102
RTVSPost2010Prop34
280
     0
102
RTVSPost2010PropOp34
 70
     1
102
RTVSPost2010Prop35
280
     0
102
RTVSPost2010PropOp35
 70
     1
102
RTVSPost2010Prop36
280
     0
102
RTVSPost2010PropOp36
 70
     1
102
RTVSPost2010Prop37
 90
       50
102
RTVSPost2010PropOp37
 70
     0
102
RTVSPost2010Prop38
140
0.0
102
RTVSPost2010PropOp38
 70
     0
102
RTVSPost2010Prop39
140
1.0
102
RTVSPost2010PropOp39
 70
     0
102
RTVSPost2010Prop40
 90
        0
102
RTVSPost2010PropOp40
 70
     0
102
RTVSPost2010Prop41ColorIndex
 90
       18
102
RTVSPost2010Prop41ColorRGB
 90
        0
102
RTVSPost2010PropOp41
 70
     0
102
RTVSPost2010Prop42
 90
       50
102
RTVSPost2010PropOp42
 70
     0
102
RTVSPost2010Prop43
 90
        3
102
RTVSPost2010PropOp43
 70
     0
102
RTVSPost2010Prop44ColorIndex
 90
        5
102
RTVSPost2010Prop44ColorRGB
 90
      255
102
RTVSPost2010PropOp44
 70
     0
102
RTVSPost2010Prop45
280
     0
102
RTVSPost2010PropOp45
 70
     1
102
RTVSPost2010Prop46
 90
       50
102
RTVSPost2010PropOp46
 70
     0
102
RTVSPost2010Prop47
 90
       50
102
RTVSPost2010PropOp47
 70
     0
102
RTVSPost2010Prop48
 90
       50
102
RTVSPost2010PropOp48
 70
     0
102
RTVSPost2010Prop49
280
     0
102
RTVSPost2010PropOp49
 70
     1
102
RTVSPost2010Prop50
 90
       50
102
RTVSPost2010PropOp50
 70
     0
102
RTVSPost2010Prop51ColorIndex
 90
      256
102
RTVSPost2010Prop51ColorRGB
 90
-16777216
102
RTVSPost2010PropOp51
 70
     0
102
RTVSPost2010Prop52
140
1.0
102
RTVSPost2010PropOp52
 70
     0
102
RTVSPost2010Prop53
 90
        2
102
RTVSPost2010PropOp53
 70
     0
102
RTVSPost2010Prop54
  1
strokes_ogs.tif
102
RTVSPost2010PropOp54
 70
     0
102
RTVSPost2010Prop55
280
     0
102
RTVSPost2010PropOp55
 70
     1
102
RTVSPost2010Prop56
140
1.0
102
RTVSPost2010PropOp56
 70
     0
102
RTVSPost2010Prop57
140
1.0
102
RTVSPost2010PropOp57
 70
     0
102
RTVSPropertyOp0
 70
     0
102
RTVSPropertyOp1
 70
     0
102
RTVSPropertyOp2
 70
     0
102
RTVSPropertyOp3
 70
     0
102
RTVSPropertyOp4
 70
     0
102
RTVSPropertyOp5
 70
     0
102
RTVSPropertyOp6
 70
     0
102
RTVSPropertyOp7
 70
     0
102
RTVSPropertyOp8
 70
     0
102
RTVSPropertyOp9
 70
     0
102
RTVSPropertyOp10
 70
     0
102
RTVSPropertyOp11
 70
     0
102
RTVSPropertyOp12
 70
     0
102
RTVSPropertyOp13
 70
     0
102
RTVSPropertyOp14
 70
     2
102
RTVSPropertyOp15
 70
     0
102
RTVSPropertyOp16
 70
     0
102
RTVSPropertyOp17
 70
     0
102
RTVSPropertyOp18
 70
     0
102
RTVSPropertyOp19
 70
     0
102
RTVSPropertyOp20
 70
     0
102
RTVSPropertyOp21
 70
     0
102
RTVSPropertyOp22
 70
     0
102
RTVSPropertyOp23
 70
     0
102
RTVSPropertyOp24
 70
     0
102
RTVSPropertyOp25
 70
     0
102
RTVSPropertyOp26
 70
     0
102
RTVSPropertyOp27
 70
     0
102
RTVSPropertyOp28
 70
     1
102
RTVSPropertyOp29
 70
     1
102
RTVSPropertyOp30
 70
     1
102
RTVSPropertyOp31
 70
     1
102
RTVSPropertyOp32
 70
     1
102
RTVSPropertyOp33
 70
     1
102
RTVSPropertyOp34
 70
     1
102
RTVSPropertyOp35
 70
     1
102
RTVSPropertyOp36
 70
     1
102
RTVSPropertyOp37
 70
     0
102
RTVSPropertyOp38
 70
     0
102
RTVSPropertyOp39
 70
     0
102
RTVSPropertyOp40
 70
     0
102
RTVSPropertyOp41
 70
     0
102
RTVSPropertyOp42
 70
     0
102
RTVSPropertyOp43
 70
     0
102
RTVSPropertyOp44
 70
     0
102
RTVSPropertyOp45
 70
     1
102
RTVSPropertyOp46
 70
     0
102
RTVSPropertyOp47
 70
     0
102
RTVSPropertyOp48
 70
     0
102
RTVSPropertyOp49
 70
     1
102
RTVSPropertyOp50
 70
     0
102
RTVSPropertyOp51
 70
     0
102
RTVSPropertyOp52
 70
     0
102
RTVSPropertyOp53
 70
     0
102
RTVSPropertyOp54
 70
     0
102
RTVSPropertyOp55
 70
     1
102
RTVSPropertyOp56
 70
     0
102
RTVSPropertyOp57
 70
     0
102
RTVSPropertyOp58
 70
     0
102
RTVSPropertyOp59
 70
     0
102
RTVSPropertyOp60
 70
     0
102
RTVSPropertyOp61
 70
     0
102
RTVSPropertyOp62
 70
     0
  0
XRECORD
  5
E3F
102
{ACAD_REACTORS
330
E3E
102
}
330
E3E
100
AcDbXrecord
280
     1
102
RTVSPost2010Prop28
280
     0
102
RTVSPost2010PropOp28
 70
     1
102
RTVSPost2010Prop29
280
     1
102
RTVSPost2010PropOp29
 70
     1
102
RTVSPost2010Prop30
280
     1
102
RTVSPost2010PropOp30
 70
     1
102
RTVSPost2010Prop31
280
     0
102
RTVSPost2010PropOp31
 70
     1
102
RTVSPost2010Prop32
280
     0
102
RTVSPost2010PropOp32
 70
     1
102
RTVSPost2010Prop33
280
     0
102
RTVSPost2010PropOp33
 70
     1
102
RTVSPost2010Prop34
280
     0
102
RTVSPost2010PropOp34
 70
     1
102
RTVSPost2010Prop35
280
     0
102
RTVSPost2010PropOp35
 70
     1
102
RTVSPost2010Prop36
280
     0
102
RTVSPost2010PropOp36
 70
     1
102
RTVSPost2010Prop37
 90
       50
102
RTVSPost2010PropOp37
 70
     1
102
RTVSPost2010Prop38
140
0.0
102
RTVSPost2010PropOp38
 70
     1
102
RTVSPost2010Prop39
140
1.0
102
RTVSPost2010PropOp39
 70
     1
102
RTVSPost2010Prop40
 90
        0
102
RTVSPost2010PropOp40
 70
     1
102
RTVSPost2010Prop41ColorIndex
 90
       18
102
RTVSPost2010Prop41ColorRGB
 90
        0
102
RTVSPost2010PropOp41
 70
     1
102
RTVSPost2010Prop42
 90
       50
102
RTVSPost2010PropOp42
 70
     1
102
RTVSPost2010Prop43
 90
        3
102
RTVSPost2010PropOp43
 70
     1
102
RTVSPost2010Prop44ColorIndex
 90
        5
102
RTVSPost2010Prop44ColorRGB
 90
      255
102
RTVSPost2010PropOp44
 70
     1
102
RTVSPost2010Prop45
280
     0
102
RTVSPost2010PropOp45
 70
     1
102
RTVSPost2010Prop46
 90
       50
102
RTVSPost2010PropOp46
 70
     1
102
RTVSPost2010Prop47
 90
       50
102
RTVSPost2010PropOp47
 70
     1
102
RTVSPost2010Prop48
 90
       50
102
RTVSPost2010PropOp48
 70
     1
102
RTVSPost2010Prop49
280
     0
102
RTVSPost2010PropOp49
 70
     1
102
RTVSPost2010Prop50
 90
       50
102
RTVSPost2010PropOp50
 70
     1
102
RTVSPost2010Prop51ColorIndex
 90
      256
102
RTVSPost2010Prop51ColorRGB
 90
-16777216
102
RTVSPost2010PropOp51
 70
     0
102
RTVSPost2010Prop52
140
1.0
102
RTVSPost2010PropOp52
 70
     0
102
RTVSPost2010Prop53
 90
        2
102
RTVSPost2010PropOp53
 70
     1
102
RTVSPost2010Prop54
  1
strokes_ogs.tif
102
RTVSPost2010PropOp54
 70
     1
102
RTVSPost2010Prop55
280
     0
102
RTVSPost2010PropOp55
 70
     1
102
RTVSPost2010Prop56
140
1.0
102
RTVSPost2010PropOp56
 70
     1
102
RTVSPost2010Prop57
140
1.0
102
RTVSPost2010PropOp57
 70
     1
102
RTVSPropertyOp0
 70
     1
102
RTVSPropertyOp1
 70
     1
102
RTVSPropertyOp2
 70
     1
102
RTVSPropertyOp3
 70
     1
102
RTVSPropertyOp4
 70
     1
102
RTVSPropertyOp5
 70
     1
102
RTVSPropertyOp6
 70
     1
102
RTVSPropertyOp7
 70
     1
102
RTVSPropertyOp8
 70
     1
102
RTVSPropertyOp9
 70
     1
102
RTVSPropertyOp10
 70
     1
102
RTVSPropertyOp11
 70
     1
102
RTVSPropertyOp12
 70
     1
102
RTVSPropertyOp13
 70
     1
102
RTVSPropertyOp14
 70
     1
102
RTVSPropertyOp15
 70
     1
102
RTVSPropertyOp16
 70
     1
102
RTVSPropertyOp17
 70
     1
102
RTVSPropertyOp18
 70
     1
102
RTVSPropertyOp19
 70
     1
102
RTVSPropertyOp20
 70
     1
102
RTVSPropertyOp21
 70
     1
102
RTVSPropertyOp22
 70
     1
102
RTVSPropertyOp23
 70
     1
102
RTVSPropertyOp24
 70
     1
102
RTVSPropertyOp25
 70
     1
102
RTVSPropertyOp26
 70
     1
102
RTVSPropertyOp27
 70
     1
102
RTVSPropertyOp28
 70
     1
102
RTVSPropertyOp29
 70
     1
102
RTVSPropertyOp30
 70
     1
102
RTVSPropertyOp31
 70
     1
102
RTVSPropertyOp32
 70
     1
102
RTVSPropertyOp33
 70
     1
102
RTVSPropertyOp34
 70
     1
102
RTVSPropertyOp35
 70
     1
102
RTVSPropertyOp36
 70
     1
102
RTVSPropertyOp37
 70
     1
102
RTVSPropertyOp38
 70
     1
102
RTVSPropertyOp39
 70
     1
102
RTVSPropertyOp40
 70
     1
102
RTVSPropertyOp41
 70
     1
102
RTVSPropertyOp42
 70
     1
102
RTVSPropertyOp43
 70
     1
102
RTVSPropertyOp44
 70
     1
102
RTVSPropertyOp45
 70
     1
102
RTVSPropertyOp46
 70
     1
102
RTVSPropertyOp47
 70
     1
102
RTVSPropertyOp48
 70
     1
102
RTVSPropertyOp49
 70
     1
102
RTVSPropertyOp50
 70
     1
102
RTVSPropertyOp51
 70
     0
102
RTVSPropertyOp52
 70
     0
102
RTVSPropertyOp53
 70
     1
102
RTVSPropertyOp54
 70
     1
102
RTVSPropertyOp55
 70
     1
102
RTVSPropertyOp56
 70
     1
102
RTVSPropertyOp57
 70
     1
102
RTVSPropertyOp58
 70
     1
102
RTVSPropertyOp59
 70
     1
102
RTVSPropertyOp60
 70
     1
102
RTVSPropertyOp61
 70
     1
102
RTVSPropertyOp62
 70
     1
  0
XRECORD
  5
E55
102
{ACAD_REACTORS
330
E54
102
}
330
E54
100
AcDbXrecord
280
     1
102
RTVSPost2010Prop28
280
     0
102
RTVSPost2010PropOp28
 70
     1
102
RTVSPost2010Prop29
280
     1
102
RTVSPost2010PropOp29
 70
     1
102
RTVSPost2010Prop30
280
     1
102
RTVSPost2010PropOp30
 70
     1
102
RTVSPost2010Prop31
280
     0
102
RTVSPost2010PropOp31
 70
     1
102
RTVSPost2010Prop32
280
     0
102
RTVSPost2010PropOp32
 70
     1
102
RTVSPost2010Prop33
280
     0
102
RTVSPost2010PropOp33
 70
     1
102
RTVSPost2010Prop34
280
     0
102
RTVSPost2010PropOp34
 70
     1
102
RTVSPost2010Prop35
280
     0
102
RTVSPost2010PropOp35
 70
     1
102
RTVSPost2010Prop36
280
     0
102
RTVSPost2010PropOp36
 70
     1
102
RTVSPost2010Prop37
 90
       50
102
RTVSPost2010PropOp37
 70
     1
102
RTVSPost2010Prop38
140
0.0
102
RTVSPost2010PropOp38
 70
     1
102
RTVSPost2010Prop39
140
1.0
102
RTVSPost2010PropOp39
 70
     1
102
RTVSPost2010Prop40
 90
        0
102
RTVSPost2010PropOp40
 70
     1
102
RTVSPost2010Prop41ColorIndex
 90
       18
102
RTVSPost2010Prop41ColorRGB
 90
        0
102
RTVSPost2010PropOp41
 70
     1
102
RTVSPost2010Prop42
 90
       50
102
RTVSPost2010PropOp42
 70
     1
102
RTVSPost2010Prop43
 90
        3
102
RTVSPost2010PropOp43
 70
     1
102
RTVSPost2010Prop44ColorIndex
 90
        5
102
RTVSPost2010Prop44ColorRGB
 90
      255
102
RTVSPost2010PropOp44
 70
     1
102
RTVSPost2010Prop45
280
     0
102
RTVSPost2010PropOp45
 70
     1
102
RTVSPost2010Prop46
 90
       50
102
RTVSPost2010PropOp46
 70
     1
102
RTVSPost2010Prop47
 90
       50
102
RTVSPost2010PropOp47
 70
     1
102
RTVSPost2010Prop48
 90
       50
102
RTVSPost2010PropOp48
 70
     1
102
RTVSPost2010Prop49
280
     0
102
RTVSPost2010PropOp49
 70
     1
102
RTVSPost2010Prop50
 90
       50
102
RTVSPost2010PropOp50
 70
     1
102
RTVSPost2010Prop51ColorIndex
 90
      256
102
RTVSPost2010Prop51ColorRGB
 90
-16777216
102
RTVSPost2010PropOp51
 70
     0
102
RTVSPost2010Prop52
140
1.0
102
RTVSPost2010PropOp52
 70
     0
102
RTVSPost2010Prop53
 90
        2
102
RTVSPost2010PropOp53
 70
     1
102
RTVSPost2010Prop54
  1
strokes_ogs.tif
102
RTVSPost2010PropOp54
 70
     1
102
RTVSPost2010Prop55
280
     0
102
RTVSPost2010PropOp55
 70
     1
102
RTVSPost2010Prop56
140
1.0
102
RTVSPost2010PropOp56
 70
     1
102
RTVSPost2010Prop57
140
1.0
102
RTVSPost2010PropOp57
 70
     1
102
RTVSPropertyOp0
 70
     1
102
RTVSPropertyOp1
 70
     1
102
RTVSPropertyOp2
 70
     1
102
RTVSPropertyOp3
 70
     1
102
RTVSPropertyOp4
 70
     1
102
RTVSPropertyOp5
 70
     1
102
RTVSPropertyOp6
 70
     1
102
RTVSPropertyOp7
 70
     1
102
RTVSPropertyOp8
 70
     1
102
RTVSPropertyOp9
 70
     1
102
RTVSPropertyOp10
 70
     1
102
RTVSPropertyOp11
 70
     1
102
RTVSPropertyOp12
 70
     1
102
RTVSPropertyOp13
 70
     1
102
RTVSPropertyOp14
 70
     1
102
RTVSPropertyOp15
 70
     1
102
RTVSPropertyOp16
 70
     1
102
RTVSPropertyOp17
 70
     1
102
RTVSPropertyOp18
 70
     1
102
RTVSPropertyOp19
 70
     1
102
RTVSPropertyOp20
 70
     1
102
RTVSPropertyOp21
 70
     1
102
RTVSPropertyOp22
 70
     1
102
RTVSPropertyOp23
 70
     1
102
RTVSPropertyOp24
 70
     1
102
RTVSPropertyOp25
 70
     1
102
RTVSPropertyOp26
 70
     1
102
RTVSPropertyOp27
 70
     1
102
RTVSPropertyOp28
 70
     1
102
RTVSPropertyOp29
 70
     1
102
RTVSPropertyOp30
 70
     1
102
RTVSPropertyOp31
 70
     1
102
RTVSPropertyOp32
 70
     1
102
RTVSPropertyOp33
 70
     1
102
RTVSPropertyOp34
 70
     1
102
RTVSPropertyOp35
 70
     1
102
RTVSPropertyOp36
 70
     1
102
RTVSPropertyOp37
 70
     1
102
RTVSPropertyOp38
 70
     1
102
RTVSPropertyOp39
 70
     1
102
RTVSPropertyOp40
 70
     1
102
RTVSPropertyOp41
 70
     1
102
RTVSPropertyOp42
 70
     1
102
RTVSPropertyOp43
 70
     1
102
RTVSPropertyOp44
 70
     1
102
RTVSPropertyOp45
 70
     1
102
RTVSPropertyOp46
 70
     1
102
RTVSPropertyOp47
 70
     1
102
RTVSPropertyOp48
 70
     1
102
RTVSPropertyOp49
 70
     1
102
RTVSPropertyOp50
 70
     1
102
RTVSPropertyOp51
 70
     0
102
RTVSPropertyOp52
 70
     0
102
RTVSPropertyOp53
 70
     1
102
RTVSPropertyOp54
 70
     1
102
RTVSPropertyOp55
 70
     1
102
RTVSPropertyOp56
 70
     1
102
RTVSPropertyOp57
 70
     1
102
RTVSPropertyOp58
 70
     1
102
RTVSPropertyOp59
 70
     1
102
RTVSPropertyOp60
 70
     1
102
RTVSPropertyOp61
 70
     1
102
RTVSPropertyOp62
 70
     1
  0
XRECORD
  5
E53
102
{ACAD_REACTORS
330
E52
102
}
330
E52
100
AcDbXrecord
280
     1
102
RTVSPost2010Prop28
280
     0
102
RTVSPost2010PropOp28
 70
     1
102
RTVSPost2010Prop29
280
     1
102
RTVSPost2010PropOp29
 70
     1
102
RTVSPost2010Prop30
280
     1
102
RTVSPost2010PropOp30
 70
     1
102
RTVSPost2010Prop31
280
     0
102
RTVSPost2010PropOp31
 70
     1
102
RTVSPost2010Prop32
280
     0
102
RTVSPost2010PropOp32
 70
     1
102
RTVSPost2010Prop33
280
     0
102
RTVSPost2010PropOp33
 70
     1
102
RTVSPost2010Prop34
280
     0
102
RTVSPost2010PropOp34
 70
     1
102
RTVSPost2010Prop35
280
     0
102
RTVSPost2010PropOp35
 70
     1
102
RTVSPost2010Prop36
280
     0
102
RTVSPost2010PropOp36
 70
     1
102
RTVSPost2010Prop37
 90
       50
102
RTVSPost2010PropOp37
 70
     1
102
RTVSPost2010Prop38
140
0.0
102
RTVSPost2010PropOp38
 70
     1
102
RTVSPost2010Prop39
140
1.0
102
RTVSPost2010PropOp39
 70
     1
102
RTVSPost2010Prop40
 90
        0
102
RTVSPost2010PropOp40
 70
     1
102
RTVSPost2010Prop41ColorIndex
 90
       18
102
RTVSPost2010Prop41ColorRGB
 90
        0
102
RTVSPost2010PropOp41
 70
     1
102
RTVSPost2010Prop42
 90
       50
102
RTVSPost2010PropOp42
 70
     1
102
RTVSPost2010Prop43
 90
        3
102
RTVSPost2010PropOp43
 70
     1
102
RTVSPost2010Prop44ColorIndex
 90
        5
102
RTVSPost2010Prop44ColorRGB
 90
      255
102
RTVSPost2010PropOp44
 70
     1
102
RTVSPost2010Prop45
280
     0
102
RTVSPost2010PropOp45
 70
     1
102
RTVSPost2010Prop46
 90
       50
102
RTVSPost2010PropOp46
 70
     1
102
RTVSPost2010Prop47
 90
       50
102
RTVSPost2010PropOp47
 70
     1
102
RTVSPost2010Prop48
 90
       50
102
RTVSPost2010PropOp48
 70
     1
102
RTVSPost2010Prop49
280
     0
102
RTVSPost2010PropOp49
 70
     1
102
RTVSPost2010Prop50
 90
       50
102
RTVSPost2010PropOp50
 70
     1
102
RTVSPost2010Prop51ColorIndex
 90
      256
102
RTVSPost2010Prop51ColorRGB
 90
-16777216
102
RTVSPost2010PropOp51
 70
     0
102
RTVSPost2010Prop52
140
1.0
102
RTVSPost2010PropOp52
 70
     0
102
RTVSPost2010Prop53
 90
        2
102
RTVSPost2010PropOp53
 70
     1
102
RTVSPost2010Prop54
  1
strokes_ogs.tif
102
RTVSPost2010PropOp54
 70
     1
102
RTVSPost2010Prop55
280
     0
102
RTVSPost2010PropOp55
 70
     1
102
RTVSPost2010Prop56
140
1.0
102
RTVSPost2010PropOp56
 70
     1
102
RTVSPost2010Prop57
140
1.0
102
RTVSPost2010PropOp57
 70
     1
102
RTVSPropertyOp0
 70
     1
102
RTVSPropertyOp1
 70
     1
102
RTVSPropertyOp2
 70
     1
102
RTVSPropertyOp3
 70
     1
102
RTVSPropertyOp4
 70
     1
102
RTVSPropertyOp5
 70
     1
102
RTVSPropertyOp6
 70
     1
102
RTVSPropertyOp7
 70
     1
102
RTVSPropertyOp8
 70
     1
102
RTVSPropertyOp9
 70
     1
102
RTVSPropertyOp10
 70
     1
102
RTVSPropertyOp11
 70
     1
102
RTVSPropertyOp12
 70
     1
102
RTVSPropertyOp13
 70
     1
102
RTVSPropertyOp14
 70
     1
102
RTVSPropertyOp15
 70
     1
102
RTVSPropertyOp16
 70
     1
102
RTVSPropertyOp17
 70
     1
102
RTVSPropertyOp18
 70
     1
102
RTVSPropertyOp19
 70
     1
102
RTVSPropertyOp20
 70
     1
102
RTVSPropertyOp21
 70
     1
102
RTVSPropertyOp22
 70
     1
102
RTVSPropertyOp23
 70
     1
102
RTVSPropertyOp24
 70
     1
102
RTVSPropertyOp25
 70
     1
102
RTVSPropertyOp26
 70
     1
102
RTVSPropertyOp27
 70
     1
102
RTVSPropertyOp28
 70
     1
102
RTVSPropertyOp29
 70
     1
102
RTVSPropertyOp30
 70
     1
102
RTVSPropertyOp31
 70
     1
102
RTVSPropertyOp32
 70
     1
102
RTVSPropertyOp33
 70
     1
102
RTVSPropertyOp34
 70
     1
102
RTVSPropertyOp35
 70
     1
102
RTVSPropertyOp36
 70
     1
102
RTVSPropertyOp37
 70
     1
102
RTVSPropertyOp38
 70
     1
102
RTVSPropertyOp39
 70
     1
102
RTVSPropertyOp40
 70
     1
102
RTVSPropertyOp41
 70
     1
102
RTVSPropertyOp42
 70
     1
102
RTVSPropertyOp43
 70
     1
102
RTVSPropertyOp44
 70
     1
102
RTVSPropertyOp45
 70
     1
102
RTVSPropertyOp46
 70
     1
102
RTVSPropertyOp47
 70
     1
102
RTVSPropertyOp48
 70
     1
102
RTVSPropertyOp49
 70
     1
102
RTVSPropertyOp50
 70
     1
102
RTVSPropertyOp51
 70
     0
102
RTVSPropertyOp52
 70
     0
102
RTVSPropertyOp53
 70
     1
102
RTVSPropertyOp54
 70
     1
102
RTVSPropertyOp55
 70
     1
102
RTVSPropertyOp56
 70
     1
102
RTVSPropertyOp57
 70
     1
102
RTVSPropertyOp58
 70
     1
102
RTVSPropertyOp59
 70
     1
102
RTVSPropertyOp60
 70
     1
102
RTVSPropertyOp61
 70
     1
102
RTVSPropertyOp62
 70
     1
  0
XRECORD
  5
E4D
102
{ACAD_REACTORS
330
E4C
102
}
330
E4C
100
AcDbXrecord
280
     1
102
RTVSPost2010Prop28
280
     0
102
RTVSPost2010PropOp28
 70
     1
102
RTVSPost2010Prop29
280
     1
102
RTVSPost2010PropOp29
 70
     1
102
RTVSPost2010Prop30
280
     1
102
RTVSPost2010PropOp30
 70
     1
102
RTVSPost2010Prop31
280
     0
102
RTVSPost2010PropOp31
 70
     1
102
RTVSPost2010Prop32
280
     0
102
RTVSPost2010PropOp32
 70
     1
102
RTVSPost2010Prop33
280
     0
102
RTVSPost2010PropOp33
 70
     1
102
RTVSPost2010Prop34
280
     0
102
RTVSPost2010PropOp34
 70
     1
102
RTVSPost2010Prop35
280
     0
102
RTVSPost2010PropOp35
 70
     1
102
RTVSPost2010Prop36
280
     0
102
RTVSPost2010PropOp36
 70
     1
102
RTVSPost2010Prop37
 90
       50
102
RTVSPost2010PropOp37
 70
     1
102
RTVSPost2010Prop38
140
0.0
102
RTVSPost2010PropOp38
 70
     1
102
RTVSPost2010Prop39
140
1.0
102
RTVSPost2010PropOp39
 70
     1
102
RTVSPost2010Prop40
 90
        0
102
RTVSPost2010PropOp40
 70
     1
102
RTVSPost2010Prop41ColorIndex
 90
       18
102
RTVSPost2010Prop41ColorRGB
 90
        0
102
RTVSPost2010PropOp41
 70
     1
102
RTVSPost2010Prop42
 90
       50
102
RTVSPost2010PropOp42
 70
     1
102
RTVSPost2010Prop43
 90
        3
102
RTVSPost2010PropOp43
 70
     1
102
RTVSPost2010Prop44ColorIndex
 90
        5
102
RTVSPost2010Prop44ColorRGB
 90
      255
102
RTVSPost2010PropOp44
 70
     1
102
RTVSPost2010Prop45
280
     0
102
RTVSPost2010PropOp45
 70
     1
102
RTVSPost2010Prop46
 90
       50
102
RTVSPost2010PropOp46
 70
     1
102
RTVSPost2010Prop47
 90
       50
102
RTVSPost2010PropOp47
 70
     1
102
RTVSPost2010Prop48
 90
       50
102
RTVSPost2010PropOp48
 70
     1
102
RTVSPost2010Prop49
280
     0
102
RTVSPost2010PropOp49
 70
     1
102
RTVSPost2010Prop50
 90
       50
102
RTVSPost2010PropOp50
 70
     1
102
RTVSPost2010Prop51ColorIndex
 90
      256
102
RTVSPost2010Prop51ColorRGB
 90
-16777216
102
RTVSPost2010PropOp51
 70
     0
102
RTVSPost2010Prop52
140
1.0
102
RTVSPost2010PropOp52
 70
     0
102
RTVSPost2010Prop53
 90
        2
102
RTVSPost2010PropOp53
 70
     1
102
RTVSPost2010Prop54
  1
strokes_ogs.tif
102
RTVSPost2010PropOp54
 70
     1
102
RTVSPost2010Prop55
280
     0
102
RTVSPost2010PropOp55
 70
     1
102
RTVSPost2010Prop56
140
1.0
102
RTVSPost2010PropOp56
 70
     1
102
RTVSPost2010Prop57
140
1.0
102
RTVSPost2010PropOp57
 70
     1
102
RTVSPropertyOp0
 70
     1
102
RTVSPropertyOp1
 70
     1
102
RTVSPropertyOp2
 70
     1
102
RTVSPropertyOp3
 70
     1
102
RTVSPropertyOp4
 70
     1
102
RTVSPropertyOp5
 70
     1
102
RTVSPropertyOp6
 70
     1
102
RTVSPropertyOp7
 70
     1
102
RTVSPropertyOp8
 70
     1
102
RTVSPropertyOp9
 70
     1
102
RTVSPropertyOp10
 70
     1
102
RTVSPropertyOp11
 70
     1
102
RTVSPropertyOp12
 70
     1
102
RTVSPropertyOp13
 70
     1
102
RTVSPropertyOp14
 70
     1
102
RTVSPropertyOp15
 70
     1
102
RTVSPropertyOp16
 70
     1
102
RTVSPropertyOp17
 70
     1
102
RTVSPropertyOp18
 70
     1
102
RTVSPropertyOp19
 70
     1
102
RTVSPropertyOp20
 70
     1
102
RTVSPropertyOp21
 70
     1
102
RTVSPropertyOp22
 70
     1
102
RTVSPropertyOp23
 70
     1
102
RTVSPropertyOp24
 70
     1
102
RTVSPropertyOp25
 70
     1
102
RTVSPropertyOp26
 70
     1
102
RTVSPropertyOp27
 70
     1
102
RTVSPropertyOp28
 70
     1
102
RTVSPropertyOp29
 70
     1
102
RTVSPropertyOp30
 70
     1
102
RTVSPropertyOp31
 70
     1
102
RTVSPropertyOp32
 70
     1
102
RTVSPropertyOp33
 70
     1
102
RTVSPropertyOp34
 70
     1
102
RTVSPropertyOp35
 70
     1
102
RTVSPropertyOp36
 70
     1
102
RTVSPropertyOp37
 70
     1
102
RTVSPropertyOp38
 70
     1
102
RTVSPropertyOp39
 70
     1
102
RTVSPropertyOp40
 70
     1
102
RTVSPropertyOp41
 70
     1
102
RTVSPropertyOp42
 70
     1
102
RTVSPropertyOp43
 70
     1
102
RTVSPropertyOp44
 70
     1
102
RTVSPropertyOp45
 70
     1
102
RTVSPropertyOp46
 70
     1
102
RTVSPropertyOp47
 70
     1
102
RTVSPropertyOp48
 70
     1
102
RTVSPropertyOp49
 70
     1
102
RTVSPropertyOp50
 70
     1
102
RTVSPropertyOp51
 70
     0
102
RTVSPropertyOp52
 70
     0
102
RTVSPropertyOp53
 70
     1
102
RTVSPropertyOp54
 70
     1
102
RTVSPropertyOp55
 70
     1
102
RTVSPropertyOp56
 70
     1
102
RTVSPropertyOp57
 70
     1
102
RTVSPropertyOp58
 70
     1
102
RTVSPropertyOp59
 70
     1
102
RTVSPropertyOp60
 70
     1
102
RTVSPropertyOp61
 70
     1
102
RTVSPropertyOp62
 70
     1
  0
XRECORD
  5
E4F
102
{ACAD_REACTORS
330
E4E
102
}
330
E4E
100
AcDbXrecord
280
     1
102
RTVSPost2010Prop28
280
     0
102
RTVSPost2010PropOp28
 70
     1
102
RTVSPost2010Prop29
280
     1
102
RTVSPost2010PropOp29
 70
     1
102
RTVSPost2010Prop30
280
     1
102
RTVSPost2010PropOp30
 70
     1
102
RTVSPost2010Prop31
280
     0
102
RTVSPost2010PropOp31
 70
     1
102
RTVSPost2010Prop32
280
     0
102
RTVSPost2010PropOp32
 70
     1
102
RTVSPost2010Prop33
280
     0
102
RTVSPost2010PropOp33
 70
     1
102
RTVSPost2010Prop34
280
     0
102
RTVSPost2010PropOp34
 70
     1
102
RTVSPost2010Prop35
280
     0
102
RTVSPost2010PropOp35
 70
     1
102
RTVSPost2010Prop36
280
     0
102
RTVSPost2010PropOp36
 70
     1
102
RTVSPost2010Prop37
 90
       50
102
RTVSPost2010PropOp37
 70
     1
102
RTVSPost2010Prop38
140
0.0
102
RTVSPost2010PropOp38
 70
     1
102
RTVSPost2010Prop39
140
1.0
102
RTVSPost2010PropOp39
 70
     1
102
RTVSPost2010Prop40
 90
        0
102
RTVSPost2010PropOp40
 70
     1
102
RTVSPost2010Prop41ColorIndex
 90
       18
102
RTVSPost2010Prop41ColorRGB
 90
        0
102
RTVSPost2010PropOp41
 70
     1
102
RTVSPost2010Prop42
 90
       50
102
RTVSPost2010PropOp42
 70
     1
102
RTVSPost2010Prop43
 90
        3
102
RTVSPost2010PropOp43
 70
     1
102
RTVSPost2010Prop44ColorIndex
 90
        5
102
RTVSPost2010Prop44ColorRGB
 90
      255
102
RTVSPost2010PropOp44
 70
     1
102
RTVSPost2010Prop45
280
     0
102
RTVSPost2010PropOp45
 70
     1
102
RTVSPost2010Prop46
 90
       50
102
RTVSPost2010PropOp46
 70
     1
102
RTVSPost2010Prop47
 90
       50
102
RTVSPost2010PropOp47
 70
     1
102
RTVSPost2010Prop48
 90
       50
102
RTVSPost2010PropOp48
 70
     1
102
RTVSPost2010Prop49
280
     0
102
RTVSPost2010PropOp49
 70
     1
102
RTVSPost2010Prop50
 90
       50
102
RTVSPost2010PropOp50
 70
     1
102
RTVSPost2010Prop51ColorIndex
 90
      256
102
RTVSPost2010Prop51ColorRGB
 90
-16777216
102
RTVSPost2010PropOp51
 70
     0
102
RTVSPost2010Prop52
140
1.0
102
RTVSPost2010PropOp52
 70
     0
102
RTVSPost2010Prop53
 90
        2
102
RTVSPost2010PropOp53
 70
     1
102
RTVSPost2010Prop54
  1
strokes_ogs.tif
102
RTVSPost2010PropOp54
 70
     1
102
RTVSPost2010Prop55
280
     0
102
RTVSPost2010PropOp55
 70
     1
102
RTVSPost2010Prop56
140
1.0
102
RTVSPost2010PropOp56
 70
     1
102
RTVSPost2010Prop57
140
1.0
102
RTVSPost2010PropOp57
 70
     1
102
RTVSPropertyOp0
 70
     1
102
RTVSPropertyOp1
 70
     1
102
RTVSPropertyOp2
 70
     1
102
RTVSPropertyOp3
 70
     1
102
RTVSPropertyOp4
 70
     1
102
RTVSPropertyOp5
 70
     1
102
RTVSPropertyOp6
 70
     1
102
RTVSPropertyOp7
 70
     1
102
RTVSPropertyOp8
 70
     1
102
RTVSPropertyOp9
 70
     1
102
RTVSPropertyOp10
 70
     1
102
RTVSPropertyOp11
 70
     1
102
RTVSPropertyOp12
 70
     1
102
RTVSPropertyOp13
 70
     1
102
RTVSPropertyOp14
 70
     1
102
RTVSPropertyOp15
 70
     1
102
RTVSPropertyOp16
 70
     1
102
RTVSPropertyOp17
 70
     1
102
RTVSPropertyOp18
 70
     1
102
RTVSPropertyOp19
 70
     1
102
RTVSPropertyOp20
 70
     1
102
RTVSPropertyOp21
 70
     1
102
RTVSPropertyOp22
 70
     1
102
RTVSPropertyOp23
 70
     1
102
RTVSPropertyOp24
 70
     1
102
RTVSPropertyOp25
 70
     1
102
RTVSPropertyOp26
 70
     1
102
RTVSPropertyOp27
 70
     1
102
RTVSPropertyOp28
 70
     1
102
RTVSPropertyOp29
 70
     1
102
RTVSPropertyOp30
 70
     1
102
RTVSPropertyOp31
 70
     1
102
RTVSPropertyOp32
 70
     1
102
RTVSPropertyOp33
 70
     1
102
RTVSPropertyOp34
 70
     1
102
RTVSPropertyOp35
 70
     1
102
RTVSPropertyOp36
 70
     1
102
RTVSPropertyOp37
 70
     1
102
RTVSPropertyOp38
 70
     1
102
RTVSPropertyOp39
 70
     1
102
RTVSPropertyOp40
 70
     1
102
RTVSPropertyOp41
 70
     1
102
RTVSPropertyOp42
 70
     1
102
RTVSPropertyOp43
 70
     1
102
RTVSPropertyOp44
 70
     1
102
RTVSPropertyOp45
 70
     1
102
RTVSPropertyOp46
 70
     1
102
RTVSPropertyOp47
 70
     1
102
RTVSPropertyOp48
 70
     1
102
RTVSPropertyOp49
 70
     1
102
RTVSPropertyOp50
 70
     1
102
RTVSPropertyOp51
 70
     0
102
RTVSPropertyOp52
 70
     0
102
RTVSPropertyOp53
 70
     1
102
RTVSPropertyOp54
 70
     1
102
RTVSPropertyOp55
 70
     1
102
RTVSPropertyOp56
 70
     1
102
RTVSPropertyOp57
 70
     1
102
RTVSPropertyOp58
 70
     1
102
RTVSPropertyOp59
 70
     1
102
RTVSPropertyOp60
 70
     1
102
RTVSPropertyOp61
 70
     1
102
RTVSPropertyOp62
 70
     1
  0
XRECORD
  5
E45
102
{ACAD_REACTORS
330
E44
102
}
330
E44
100
AcDbXrecord
280
     1
102
RTVSPost2010Prop28
280
     0
102
RTVSPost2010PropOp28
 70
     1
102
RTVSPost2010Prop29
280
     1
102
RTVSPost2010PropOp29
 70
     1
102
RTVSPost2010Prop30
280
     1
102
RTVSPost2010PropOp30
 70
     1
102
RTVSPost2010Prop31
280
     0
102
RTVSPost2010PropOp31
 70
     1
102
RTVSPost2010Prop32
280
     0
102
RTVSPost2010PropOp32
 70
     1
102
RTVSPost2010Prop33
280
     0
102
RTVSPost2010PropOp33
 70
     1
102
RTVSPost2010Prop34
280
     0
102
RTVSPost2010PropOp34
 70
     1
102
RTVSPost2010Prop35
280
     0
102
RTVSPost2010PropOp35
 70
     1
102
RTVSPost2010Prop36
280
     0
102
RTVSPost2010PropOp36
 70
     1
102
RTVSPost2010Prop37
 90
       50
102
RTVSPost2010PropOp37
 70
     1
102
RTVSPost2010Prop38
140
0.0
102
RTVSPost2010PropOp38
 70
     1
102
RTVSPost2010Prop39
140
1.0
102
RTVSPost2010PropOp39
 70
     1
102
RTVSPost2010Prop40
 90
        0
102
RTVSPost2010PropOp40
 70
     1
102
RTVSPost2010Prop41ColorIndex
 90
       18
102
RTVSPost2010Prop41ColorRGB
 90
        0
102
RTVSPost2010PropOp41
 70
     1
102
RTVSPost2010Prop42
 90
       50
102
RTVSPost2010PropOp42
 70
     1
102
RTVSPost2010Prop43
 90
        3
102
RTVSPost2010PropOp43
 70
     1
102
RTVSPost2010Prop44ColorIndex
 90
        5
102
RTVSPost2010Prop44ColorRGB
 90
      255
102
RTVSPost2010PropOp44
 70
     1
102
RTVSPost2010Prop45
280
     0
102
RTVSPost2010PropOp45
 70
     1
102
RTVSPost2010Prop46
 90
       50
102
RTVSPost2010PropOp46
 70
     1
102
RTVSPost2010Prop47
 90
       50
102
RTVSPost2010PropOp47
 70
     1
102
RTVSPost2010Prop48
 90
       50
102
RTVSPost2010PropOp48
 70
     1
102
RTVSPost2010Prop49
280
     0
102
RTVSPost2010PropOp49
 70
     1
102
RTVSPost2010Prop50
 90
       50
102
RTVSPost2010PropOp50
 70
     1
102
RTVSPost2010Prop51ColorIndex
 90
      256
102
RTVSPost2010Prop51ColorRGB
 90
-16777216
102
RTVSPost2010PropOp51
 70
     0
102
RTVSPost2010Prop52
140
1.0
102
RTVSPost2010PropOp52
 70
     0
102
RTVSPost2010Prop53
 90
        2
102
RTVSPost2010PropOp53
 70
     1
102
RTVSPost2010Prop54
  1
strokes_ogs.tif
102
RTVSPost2010PropOp54
 70
     1
102
RTVSPost2010Prop55
280
     0
102
RTVSPost2010PropOp55
 70
     1
102
RTVSPost2010Prop56
140
1.0
102
RTVSPost2010PropOp56
 70
     1
102
RTVSPost2010Prop57
140
1.0
102
RTVSPost2010PropOp57
 70
     1
102
RTVSPropertyOp0
 70
     1
102
RTVSPropertyOp1
 70
     1
102
RTVSPropertyOp2
 70
     1
102
RTVSPropertyOp3
 70
     1
102
RTVSPropertyOp4
 70
     1
102
RTVSPropertyOp5
 70
     1
102
RTVSPropertyOp6
 70
     1
102
RTVSPropertyOp7
 70
     1
102
RTVSPropertyOp8
 70
     1
102
RTVSPropertyOp9
 70
     1
102
RTVSPropertyOp10
 70
     1
102
RTVSPropertyOp11
 70
     1
102
RTVSPropertyOp12
 70
     1
102
RTVSPropertyOp13
 70
     1
102
RTVSPropertyOp14
 70
     1
102
RTVSPropertyOp15
 70
     1
102
RTVSPropertyOp16
 70
     1
102
RTVSPropertyOp17
 70
     1
102
RTVSPropertyOp18
 70
     1
102
RTVSPropertyOp19
 70
     1
102
RTVSPropertyOp20
 70
     1
102
RTVSPropertyOp21
 70
     1
102
RTVSPropertyOp22
 70
     1
102
RTVSPropertyOp23
 70
     1
102
RTVSPropertyOp24
 70
     1
102
RTVSPropertyOp25
 70
     1
102
RTVSPropertyOp26
 70
     1
102
RTVSPropertyOp27
 70
     1
102
RTVSPropertyOp28
 70
     1
102
RTVSPropertyOp29
 70
     1
102
RTVSPropertyOp30
 70
     1
102
RTVSPropertyOp31
 70
     1
102
RTVSPropertyOp32
 70
     1
102
RTVSPropertyOp33
 70
     1
102
RTVSPropertyOp34
 70
     1
102
RTVSPropertyOp35
 70
     1
102
RTVSPropertyOp36
 70
     1
102
RTVSPropertyOp37
 70
     1
102
RTVSPropertyOp38
 70
     1
102
RTVSPropertyOp39
 70
     1
102
RTVSPropertyOp40
 70
     1
102
RTVSPropertyOp41
 70
     1
102
RTVSPropertyOp42
 70
     1
102
RTVSPropertyOp43
 70
     1
102
RTVSPropertyOp44
 70
     1
102
RTVSPropertyOp45
 70
     1
102
RTVSPropertyOp46
 70
     1
102
RTVSPropertyOp47
 70
     1
102
RTVSPropertyOp48
 70
     1
102
RTVSPropertyOp49
 70
     1
102
RTVSPropertyOp50
 70
     1
102
RTVSPropertyOp51
 70
     0
102
RTVSPropertyOp52
 70
     0
102
RTVSPropertyOp53
 70
     1
102
RTVSPropertyOp54
 70
     1
102
RTVSPropertyOp55
 70
     1
102
RTVSPropertyOp56
 70
     1
102
RTVSPropertyOp57
 70
     1
102
RTVSPropertyOp58
 70
     1
102
RTVSPropertyOp59
 70
     1
102
RTVSPropertyOp60
 70
     1
102
RTVSPropertyOp61
 70
     1
102
RTVSPropertyOp62
 70
     1
  0
XRECORD
  5
E39
102
{ACAD_REACTORS
330
E38
102
}
330
E38
100
AcDbXrecord
280
     1
102
RTVSPost2010Prop28
280
     0
102
RTVSPost2010PropOp28
 70
     1
102
RTVSPost2010Prop29
280
     1
102
RTVSPost2010PropOp29
 70
     1
102
RTVSPost2010Prop30
280
     1
102
RTVSPost2010PropOp30
 70
     1
102
RTVSPost2010Prop31
280
     0
102
RTVSPost2010PropOp31
 70
     1
102
RTVSPost2010Prop32
280
     0
102
RTVSPost2010PropOp32
 70
     1
102
RTVSPost2010Prop33
280
     0
102
RTVSPost2010PropOp33
 70
     1
102
RTVSPost2010Prop34
280
     0
102
RTVSPost2010PropOp34
 70
     1
102
RTVSPost2010Prop35
280
     0
102
RTVSPost2010PropOp35
 70
     1
102
RTVSPost2010Prop36
280
     0
102
RTVSPost2010PropOp36
 70
     1
102
RTVSPost2010Prop37
 90
       50
102
RTVSPost2010PropOp37
 70
     1
102
RTVSPost2010Prop38
140
0.0
102
RTVSPost2010PropOp38
 70
     1
102
RTVSPost2010Prop39
140
1.0
102
RTVSPost2010PropOp39
 70
     1
102
RTVSPost2010Prop40
 90
        0
102
RTVSPost2010PropOp40
 70
     1
102
RTVSPost2010Prop41ColorIndex
 90
       18
102
RTVSPost2010Prop41ColorRGB
 90
        0
102
RTVSPost2010PropOp41
 70
     1
102
RTVSPost2010Prop42
 90
       50
102
RTVSPost2010PropOp42
 70
     1
102
RTVSPost2010Prop43
 90
        3
102
RTVSPost2010PropOp43
 70
     1
102
RTVSPost2010Prop44ColorIndex
 90
        5
102
RTVSPost2010Prop44ColorRGB
 90
      255
102
RTVSPost2010PropOp44
 70
     1
102
RTVSPost2010Prop45
280
     0
102
RTVSPost2010PropOp45
 70
     1
102
RTVSPost2010Prop46
 90
       50
102
RTVSPost2010PropOp46
 70
     1
102
RTVSPost2010Prop47
 90
       50
102
RTVSPost2010PropOp47
 70
     1
102
RTVSPost2010Prop48
 90
       50
102
RTVSPost2010PropOp48
 70
     1
102
RTVSPost2010Prop49
280
     0
102
RTVSPost2010PropOp49
 70
     1
102
RTVSPost2010Prop50
 90
       50
102
RTVSPost2010PropOp50
 70
     1
102
RTVSPost2010Prop51ColorIndex
 90
      256
102
RTVSPost2010Prop51ColorRGB
 90
-16777216
102
RTVSPost2010PropOp51
 70
     0
102
RTVSPost2010Prop52
140
1.0
102
RTVSPost2010PropOp52
 70
     0
102
RTVSPost2010Prop53
 90
        2
102
RTVSPost2010PropOp53
 70
     1
102
RTVSPost2010Prop54
  1
strokes_ogs.tif
102
RTVSPost2010PropOp54
 70
     1
102
RTVSPost2010Prop55
280
     0
102
RTVSPost2010PropOp55
 70
     1
102
RTVSPost2010Prop56
140
1.0
102
RTVSPost2010PropOp56
 70
     1
102
RTVSPost2010Prop57
140
1.0
102
RTVSPost2010PropOp57
 70
     1
102
RTVSPropertyOp0
 70
     1
102
RTVSPropertyOp1
 70
     1
102
RTVSPropertyOp2
 70
     1
102
RTVSPropertyOp3
 70
     1
102
RTVSPropertyOp4
 70
     1
102
RTVSPropertyOp5
 70
     1
102
RTVSPropertyOp6
 70
     1
102
RTVSPropertyOp7
 70
     1
102
RTVSPropertyOp8
 70
     1
102
RTVSPropertyOp9
 70
     1
102
RTVSPropertyOp10
 70
     1
102
RTVSPropertyOp11
 70
     1
102
RTVSPropertyOp12
 70
     1
102
RTVSPropertyOp13
 70
     1
102
RTVSPropertyOp14
 70
     1
102
RTVSPropertyOp15
 70
     1
102
RTVSPropertyOp16
 70
     1
102
RTVSPropertyOp17
 70
     1
102
RTVSPropertyOp18
 70
     1
102
RTVSPropertyOp19
 70
     1
102
RTVSPropertyOp20
 70
     1
102
RTVSPropertyOp21
 70
     1
102
RTVSPropertyOp22
 70
     1
102
RTVSPropertyOp23
 70
     1
102
RTVSPropertyOp24
 70
     1
102
RTVSPropertyOp25
 70
     1
102
RTVSPropertyOp26
 70
     1
102
RTVSPropertyOp27
 70
     1
102
RTVSPropertyOp28
 70
     1
102
RTVSPropertyOp29
 70
     1
102
RTVSPropertyOp30
 70
     1
102
RTVSPropertyOp31
 70
     1
102
RTVSPropertyOp32
 70
     1
102
RTVSPropertyOp33
 70
     1
102
RTVSPropertyOp34
 70
     1
102
RTVSPropertyOp35
 70
     1
102
RTVSPropertyOp36
 70
     1
102
RTVSPropertyOp37
 70
     1
102
RTVSPropertyOp38
 70
     1
102
RTVSPropertyOp39
 70
     1
102
RTVSPropertyOp40
 70
     1
102
RTVSPropertyOp41
 70
     1
102
RTVSPropertyOp42
 70
     1
102
RTVSPropertyOp43
 70
     1
102
RTVSPropertyOp44
 70
     1
102
RTVSPropertyOp45
 70
     1
102
RTVSPropertyOp46
 70
     1
102
RTVSPropertyOp47
 70
     1
102
RTVSPropertyOp48
 70
     1
102
RTVSPropertyOp49
 70
     1
102
RTVSPropertyOp50
 70
     1
102
RTVSPropertyOp51
 70
     0
102
RTVSPropertyOp52
 70
     0
102
RTVSPropertyOp53
 70
     1
102
RTVSPropertyOp54
 70
     1
102
RTVSPropertyOp55
 70
     1
102
RTVSPropertyOp56
 70
     1
102
RTVSPropertyOp57
 70
     1
102
RTVSPropertyOp58
 70
     1
102
RTVSPropertyOp59
 70
     1
102
RTVSPropertyOp60
 70
     1
102
RTVSPropertyOp61
 70
     1
102
RTVSPropertyOp62
 70
     1
  0
XRECORD
  5
E51
102
{ACAD_REACTORS
330
E50
102
}
330
E50
100
AcDbXrecord
280
     1
102
RTVSPost2010Prop28
280
     0
102
RTVSPost2010PropOp28
 70
     1
102
RTVSPost2010Prop29
280
     1
102
RTVSPost2010PropOp29
 70
     1
102
RTVSPost2010Prop30
280
     1
102
RTVSPost2010PropOp30
 70
     1
102
RTVSPost2010Prop31
280
     0
102
RTVSPost2010PropOp31
 70
     1
102
RTVSPost2010Prop32
280
     0
102
RTVSPost2010PropOp32
 70
     1
102
RTVSPost2010Prop33
280
     0
102
RTVSPost2010PropOp33
 70
     1
102
RTVSPost2010Prop34
280
     0
102
RTVSPost2010PropOp34
 70
     1
102
RTVSPost2010Prop35
280
     0
102
RTVSPost2010PropOp35
 70
     1
102
RTVSPost2010Prop36
280
     0
102
RTVSPost2010PropOp36
 70
     1
102
RTVSPost2010Prop37
 90
       50
102
RTVSPost2010PropOp37
 70
     1
102
RTVSPost2010Prop38
140
0.0
102
RTVSPost2010PropOp38
 70
     1
102
RTVSPost2010Prop39
140
1.0
102
RTVSPost2010PropOp39
 70
     1
102
RTVSPost2010Prop40
 90
        0
102
RTVSPost2010PropOp40
 70
     1
102
RTVSPost2010Prop41ColorIndex
 90
       18
102
RTVSPost2010Prop41ColorRGB
 90
        0
102
RTVSPost2010PropOp41
 70
     1
102
RTVSPost2010Prop42
 90
       50
102
RTVSPost2010PropOp42
 70
     1
102
RTVSPost2010Prop43
 90
        3
102
RTVSPost2010PropOp43
 70
     1
102
RTVSPost2010Prop44ColorIndex
 90
        5
102
RTVSPost2010Prop44ColorRGB
 90
      255
102
RTVSPost2010PropOp44
 70
     1
102
RTVSPost2010Prop45
280
     0
102
RTVSPost2010PropOp45
 70
     1
102
RTVSPost2010Prop46
 90
       50
102
RTVSPost2010PropOp46
 70
     1
102
RTVSPost2010Prop47
 90
       50
102
RTVSPost2010PropOp47
 70
     1
102
RTVSPost2010Prop48
 90
       50
102
RTVSPost2010PropOp48
 70
     1
102
RTVSPost2010Prop49
280
     0
102
RTVSPost2010PropOp49
 70
     1
102
RTVSPost2010Prop50
 90
       50
102
RTVSPost2010PropOp50
 70
     1
102
RTVSPost2010Prop51ColorIndex
 90
      256
102
RTVSPost2010Prop51ColorRGB
 90
-16777216
102
RTVSPost2010PropOp51
 70
     0
102
RTVSPost2010Prop52
140
1.0
102
RTVSPost2010PropOp52
 70
     0
102
RTVSPost2010Prop53
 90
        2
102
RTVSPost2010PropOp53
 70
     1
102
RTVSPost2010Prop54
  1
strokes_ogs.tif
102
RTVSPost2010PropOp54
 70
     1
102
RTVSPost2010Prop55
280
     0
102
RTVSPost2010PropOp55
 70
     1
102
RTVSPost2010Prop56
140
1.0
102
RTVSPost2010PropOp56
 70
     1
102
RTVSPost2010Prop57
140
1.0
102
RTVSPost2010PropOp57
 70
     1
102
RTVSPropertyOp0
 70
     1
102
RTVSPropertyOp1
 70
     1
102
RTVSPropertyOp2
 70
     1
102
RTVSPropertyOp3
 70
     1
102
RTVSPropertyOp4
 70
     1
102
RTVSPropertyOp5
 70
     1
102
RTVSPropertyOp6
 70
     1
102
RTVSPropertyOp7
 70
     1
102
RTVSPropertyOp8
 70
     1
102
RTVSPropertyOp9
 70
     1
102
RTVSPropertyOp10
 70
     1
102
RTVSPropertyOp11
 70
     1
102
RTVSPropertyOp12
 70
     1
102
RTVSPropertyOp13
 70
     1
102
RTVSPropertyOp14
 70
     1
102
RTVSPropertyOp15
 70
     1
102
RTVSPropertyOp16
 70
     1
102
RTVSPropertyOp17
 70
     1
102
RTVSPropertyOp18
 70
     1
102
RTVSPropertyOp19
 70
     1
102
RTVSPropertyOp20
 70
     1
102
RTVSPropertyOp21
 70
     1
102
RTVSPropertyOp22
 70
     1
102
RTVSPropertyOp23
 70
     1
102
RTVSPropertyOp24
 70
     1
102
RTVSPropertyOp25
 70
     1
102
RTVSPropertyOp26
 70
     1
102
RTVSPropertyOp27
 70
     1
102
RTVSPropertyOp28
 70
     1
102
RTVSPropertyOp29
 70
     1
102
RTVSPropertyOp30
 70
     1
102
RTVSPropertyOp31
 70
     1
102
RTVSPropertyOp32
 70
     1
102
RTVSPropertyOp33
 70
     1
102
RTVSPropertyOp34
 70
     1
102
RTVSPropertyOp35
 70
     1
102
RTVSPropertyOp36
 70
     1
102
RTVSPropertyOp37
 70
     1
102
RTVSPropertyOp38
 70
     1
102
RTVSPropertyOp39
 70
     1
102
RTVSPropertyOp40
 70
     1
102
RTVSPropertyOp41
 70
     1
102
RTVSPropertyOp42
 70
     1
102
RTVSPropertyOp43
 70
     1
102
RTVSPropertyOp44
 70
     1
102
RTVSPropertyOp45
 70
     1
102
RTVSPropertyOp46
 70
     1
102
RTVSPropertyOp47
 70
     1
102
RTVSPropertyOp48
 70
     1
102
RTVSPropertyOp49
 70
     1
102
RTVSPropertyOp50
 70
     1
102
RTVSPropertyOp51
 70
     0
102
RTVSPropertyOp52
 70
     0
102
RTVSPropertyOp53
 70
     1
102
RTVSPropertyOp54
 70
     1
102
RTVSPropertyOp55
 70
     1
102
RTVSPropertyOp56
 70
     1
102
RTVSPropertyOp57
 70
     1
102
RTVSPropertyOp58
 70
     1
102
RTVSPropertyOp59
 70
     1
102
RTVSPropertyOp60
 70
     1
102
RTVSPropertyOp61
 70
     1
102
RTVSPropertyOp62
 70
     1
  0
ENDSEC
  0
EOF
