  0
SECTION
  2
HEADER
  9
$ACADVER
  1
AC1015
  9
$ACADMAINTVER
 70
    20
  9
$DWGCODEPAGE
  3
ANSI_932
  9
$INSBASE
 10
0.0
 20
0.0
 30
0.0
  9
$EXTMIN
 10
14.44007740054621
 20
66.95161594203523
 30
0.0
  9
$EXTMAX
 10
663.4943387318094
 20
735.9198466305959
 30
0.0
  9
$LIMMIN
 10
0.0
 20
0.0
  9
$LIMMAX
 10
420.0
 20
297.0
  9
$ORTHOMODE
 70
     0
  9
$REGENMODE
 70
     1
  9
$FILLMODE
 70
     1
  9
$QTEXTMODE
 70
     0
  9
$MIRRTEXT
 70
     1
  9
$LTSCALE
 40
1.0
  9
$ATTMODE
 70
     1
  9
$TEXTSIZE
 40
2.5
  9
$TRACEWID
 40
1.0
  9
$TEXTSTYLE
  7
STANDARD
  9
$CLAYER
  8
0
  9
$CELTYPE
  6
ByLayer
  9
$CECOLOR
 62
   256
  9
$CELTSCALE
 40
1.0
  9
$DISPSILH
 70
     0
  9
$DIMSCALE
 40
1.0
  9
$DIMASZ
 40
2.5
  9
$DIMEXO
 40
0.625
  9
$DIMDLI
 40
3.75
  9
$DIMRND
 40
0.0
  9
$DIMDLE
 40
0.0
  9
$DIMEXE
 40
1.25
  9
$DIMTP
 40
0.0
  9
$DIMTM
 40
0.0
  9
$DIMTXT
 40
2.5
  9
$DIMCEN
 40
2.5
  9
$DIMTSZ
 40
0.0
  9
$DIMTOL
 70
     0
  9
$DIMLIM
 70
     0
  9
$DIMTIH
 70
     0
  9
$DIMTOH
 70
     0
  9
$DIMSE1
 70
     0
  9
$DIMSE2
 70
     0
  9
$DIMTAD
 70
     1
  9
$DIMZIN
 70
     8
  9
$DIMBLK
  1

  9
$DIMASO
 70
     1
  9
$DIMSHO
 70
     1
  9
$DIMPOST
  1

  9
$DIMAPOST
  1

  9
$DIMALT
 70
     0
  9
$DIMALTD
 70
     3
  9
$DIMALTF
 40
0.03937007874016
  9
$DIMLFAC
 40
1.0
  9
$DIMTOFL
 70
     1
  9
$DIMTVP
 40
0.0
  9
$DIMTIX
 70
     0
  9
$DIMSOXD
 70
     0
  9
$DIMSAH
 70
     0
  9
$DIMBLK1
  1

  9
$DIMBLK2
  1

  9
$DIMSTYLE
  2
ISO-25
  9
$DIMCLRD
 70
     0
  9
$DIMCLRE
 70
     0
  9
$DIMCLRT
 70
     0
  9
$DIMTFAC
 40
1.0
  9
$DIMGAP
 40
0.625
  9
$DIMJUST
 70
     0
  9
$DIMSD1
 70
     0
  9
$DIMSD2
 70
     0
  9
$DIMTOLJ
 70
     1
  9
$DIMTZIN
 70
     0
  9
$DIMALTZ
 70
     0
  9
$DIMALTTZ
 70
     0
  9
$DIMUPT
 70
     0
  9
$DIMDEC
 70
     4
  9
$DIMTDEC
 70
     4
  9
$DIMALTU
 70
     2
  9
$DIMALTTD
 70
     2
  9
$DIMTXSTY
  7
STANDARD
  9
$DIMAUNIT
 70
     0
  9
$DIMADEC
 70
     0
  9
$DIMALTRND
 40
0.0
  9
$DIMAZIN
 70
     0
  9
$DIMDSEP
 70
    46
  9
$DIMATFIT
 70
     3
  9
$DIMFRAC
 70
     0
  9
$DIMLDRBLK
  1

  9
$DIMLUNIT
 70
     2
  9
$DIMLWD
 70
    -2
  9
$DIMLWE
 70
    -2
  9
$DIMTMOVE
 70
     0
  9
$LUNITS
 70
     2
  9
$LUPREC
 70
     4
  9
$SKETCHINC
 40
1.0
  9
$FILLETRAD
 40
10.0
  9
$AUNITS
 70
     0
  9
$AUPREC
 70
     0
  9
$MENU
  1
.
  9
$ELEVATION
 40
0.0
  9
$PELEVATION
 40
0.0
  9
$THICKNESS
 40
0.0
  9
$LIMCHECK
 70
     0
  9
$CHAMFERA
 40
10.0
  9
$CHAMFERB
 40
10.0
  9
$CHAMFERC
 40
0.0
  9
$CHAMFERD
 40
0.0
  9
$SKPOLY
 70
     0
  9
$TDCREATE
 40
2452263.784814815
  9
$TDUCREATE
 40
2452263.409823704
  9
$TDUPDATE
 40
2459990.433761574
  9
$TDUUPDATE
 40
2459990.058761574
  9
$TDINDWG
 40
0.2895999653
  9
$TDUSRTIMER
 40
0.2895996065
  9
$USRTIMER
 70
     1
  9
$ANGBASE
 50
0.0
  9
$ANGDIR
 70
     0
  9
$PDMODE
 70
     0
  9
$PDSIZE
 40
0.0
  9
$PLINEWID
 40
0.0
  9
$SPLFRAME
 70
     0
  9
$SPLINETYPE
 70
     6
  9
$SPLINESEGS
 70
     8
  9
$HANDSEED
  5
924
  9
$SURFTAB1
 70
     6
  9
$SURFTAB2
 70
     6
  9
$SURFTYPE
 70
     6
  9
$SURFU
 70
     6
  9
$SURFV
 70
     6
  9
$UCSBASE
  2

  9
$UCSNAME
  2

  9
$UCSORG
 10
0.0
 20
0.0
 30
0.0
  9
$UCSXDIR
 10
1.0
 20
0.0
 30
0.0
  9
$UCSYDIR
 10
0.0
 20
1.0
 30
0.0
  9
$UCSORTHOREF
  2

  9
$UCSORTHOVIEW
 70
     0
  9
$UCSORGTOP
 10
0.0
 20
0.0
 30
0.0
  9
$UCSORGBOTTOM
 10
0.0
 20
0.0
 30
0.0
  9
$UCSORGLEFT
 10
0.0
 20
0.0
 30
0.0
  9
$UCSORGRIGHT
 10
0.0
 20
0.0
 30
0.0
  9
$UCSORGFRONT
 10
0.0
 20
0.0
 30
0.0
  9
$UCSORGBACK
 10
0.0
 20
0.0
 30
0.0
  9
$PUCSBASE
  2

  9
$PUCSNAME
  2

  9
$PUCSORG
 10
0.0
 20
0.0
 30
0.0
  9
$PUCSXDIR
 10
1.0
 20
0.0
 30
0.0
  9
$PUCSYDIR
 10
0.0
 20
1.0
 30
0.0
  9
$PUCSORTHOREF
  2

  9
$PUCSORTHOVIEW
 70
     0
  9
$PUCSORGTOP
 10
0.0
 20
0.0
 30
0.0
  9
$PUCSORGBOTTOM
 10
0.0
 20
0.0
 30
0.0
  9
$PUCSORGLEFT
 10
0.0
 20
0.0
 30
0.0
  9
$PUCSORGRIGHT
 10
0.0
 20
0.0
 30
0.0
  9
$PUCSORGFRONT
 10
0.0
 20
0.0
 30
0.0
  9
$PUCSORGBACK
 10
0.0
 20
0.0
 30
0.0
  9
$USERI1
 70
     0
  9
$USERI2
 70
     0
  9
$USERI3
 70
     0
  9
$USERI4
 70
     0
  9
$USERI5
 70
     0
  9
$USERR1
 40
0.0
  9
$USERR2
 40
0.0
  9
$USERR3
 40
0.0
  9
$USERR4
 40
0.0
  9
$USERR5
 40
0.0
  9
$WORLDVIEW
 70
     1
  9
$SHADEDGE
 70
     3
  9
$SHADEDIF
 70
    70
  9
$TILEMODE
 70
     1
  9
$MAXACTVP
 70
    64
  9
$PINSBASE
 10
0.0
 20
0.0
 30
0.0
  9
$PLIMCHECK
 70
     0
  9
$PEXTMIN
 10
1.000000000000000E+20
 20
1.000000000000000E+20
 30
1.000000000000000E+20
  9
$PEXTMAX
 10
-1.000000000000000E+20
 20
-1.000000000000000E+20
 30
-1.000000000000000E+20
  9
$PLIMMIN
 10
0.0
 20
0.0
  9
$PLIMMAX
 10
420.0
 20
297.0
  9
$UNITMODE
 70
     0
  9
$VISRETAIN
 70
     1
  9
$PLINEGEN
 70
     0
  9
$PSLTSCALE
 70
     1
  9
$TREEDEPTH
 70
  3020
  9
$CMLSTYLE
  2
Standard
  9
$CMLJUST
 70
     0
  9
$CMLSCALE
 40
1.0
  9
$PROXYGRAPHICS
 70
     1
  9
$MEASUREMENT
 70
     0
  9
$CELWEIGHT
370
    -1
  9
$ENDCAPS
280
     0
  9
$JOINSTYLE
280
     0
  9
$LWDISPLAY
290
     0
  9
$INSUNITS
 70
     0
  9
$HYPERLINKBASE
  1

  9
$STYLESHEET
  1

  9
$XEDIT
290
     1
  9
$CEPSNTYPE
380
     0
  9
$PSTYLEMODE
290
     1
  9
$FINGERPRINTGUID
  2
{AD90E99B-946E-4590-9902-B7EDF8D901D8}
  9
$VERSIONGUID
  2
{29CDE69D-DECF-4D48-9CFE-D975FC96271B}
  9
$EXTNAMES
290
     1
  9
$PSVPSCALE
 40
0.0
  9
$OLESTARTUP
290
     0
  0
ENDSEC
  0
SECTION
  2
CLASSES
  0
CLASS
  1
ACDBDICTIONARYWDFLT
  2
AcDbDictionaryWithDefault
  3
ObjectDBX Classes
 90
        0
280
     0
281
     0
  0
CLASS
  1
ACDBPLACEHOLDER
  2
AcDbPlaceHolder
  3
ObjectDBX Classes
 90
        0
280
     0
281
     0
  0
CLASS
  1
LAYOUT
  2
AcDbLayout
  3
ObjectDBX Classes
 90
        0
280
     0
281
     0
  0
CLASS
  1
DICTIONARYVAR
  2
AcDbDictionaryVar
  3
ObjectDBX Classes
 90
        0
280
     0
281
     0
  0
CLASS
  1
MATERIAL
  2
AcDbMaterial
  3
ObjectDBX Classes
 90
     1153
280
     0
281
     0
  0
CLASS
  1
VISUALSTYLE
  2
AcDbVisualStyle
  3
ObjectDBX Classes
 90
     4095
280
     0
281
     0
  0
CLASS
  1
TABLESTYLE
  2
AcDbTableStyle
  3
ObjectDBX Classes
 90
     4095
280
     0
281
     0
  0
CLASS
  1
SCALE
  2
AcDbScale
  3
ObjectDBX Classes
 90
     1153
280
     0
281
     0
  0
CLASS
  1
MLEADERSTYLE
  2
AcDbMLeaderStyle
  3
ACDB_MLEADERSTYLE_CLASS
 90
     4095
280
     0
281
     0
  0
CLASS
  1
ACDBSECTIONVIEWSTYLE
  2
AcDbSectionViewStyle
  3
ObjectDBX Classes
 90
     1025
280
     0
281
     0
  0
CLASS
  1
ACDBDETAILVIEWSTYLE
  2
AcDbDetailViewStyle
  3
ObjectDBX Classes
 90
     1025
280
     0
281
     0
  0
CLASS
  1
CELLSTYLEMAP
  2
AcDbCellStyleMap
  3
ObjectDBX Classes
 90
     1152
280
     0
281
     0
  0
CLASS
  1
SORTENTSTABLE
  2
AcDbSortentsTable
  3
ObjectDBX Classes
 90
        0
280
     0
281
     0
  0
ENDSEC
  0
SECTION
  2
TABLES
  0
TABLE
  2
VPORT
  5
143
330
0
100
AcDbSymbolTable
 70
     1
  0
VPORT
  5
382
330
143
100
AcDbSymbolTableRecord
100
AcDbViewportTableRecord
  2
*Active
 70
     0
 10
0.0
 20
0.0
 11
1.0
 21
1.0
 12
135.1660277702313
 22
402.0607045539547
 13
0.0
 23
0.0
 14
10.0
 24
10.0
 15
10.0
 25
10.0
 16
0.0
 26
0.0
 36
1.0
 17
0.0
 27
0.0
 37
0.0
 40
673.5127389948295
 41
2.209439528023598
 42
50.0
 43
0.0
 44
0.0
 50
0.0
 51
0.0
 71
     0
 72
   100
 73
     1
 74
     3
 75
     0
 76
     0
 77
     0
 78
     0
281
     0
 65
     1
110
0.0
120
0.0
130
0.0
111
1.0
121
0.0
131
0.0
112
0.0
122
1.0
132
0.0
 79
     0
146
0.0
1001
ACAD_NAV_VCDISPLAY
1070
     3
  0
ENDTAB
  0
TABLE
  2
LTYPE
  5
140
330
0
100
AcDbSymbolTable
 70
     2
  0
LTYPE
  5
14E
330
140
100
AcDbSymbolTableRecord
100
AcDbLinetypeTableRecord
  2
ByBlock
 70
     0
  3

 72
    65
 73
     0
 40
0.0
  0
LTYPE
  5
14F
330
140
100
AcDbSymbolTableRecord
100
AcDbLinetypeTableRecord
  2
ByLayer
 70
     0
  3

 72
    65
 73
     0
 40
0.0
  0
LTYPE
  5
150
330
140
100
AcDbSymbolTableRecord
100
AcDbLinetypeTableRecord
  2
CONTINUOUS
 70
     0
  3
Solid line
 72
    65
 73
     0
 40
0.0
  0
ENDTAB
  0
TABLE
  2
LAYER
  5
13D
102
{ACAD_XDICTIONARY
360
4B6
102
}
330
0
100
AcDbSymbolTable
 70
     5
  0
LAYER
  5
14B
102
{ACAD_XDICTIONARY
360
3D6
102
}
330
13D
100
AcDbSymbolTableRecord
100
AcDbLayerTableRecord
  2
0
 70
     0
 62
     7
  6
CONTINUOUS
370
    -3
390
14A
  0
LAYER
  5
15F
102
{ACAD_XDICTIONARY
360
3D8
102
}
330
13D
100
AcDbSymbolTableRecord
100
AcDbLayerTableRecord
  2
1外形線
 70
     0
 62
     3
  6
CONTINUOUS
370
    -3
390
14A
  0
LAYER
  5
160
102
{ACAD_XDICTIONARY
360
3DA
102
}
330
13D
100
AcDbSymbolTableRecord
100
AcDbLayerTableRecord
  2
C4
 70
     0
 62
     3
  6
CONTINUOUS
370
    -3
390
14A
  0
LAYER
  5
1FF
330
13D
100
AcDbSymbolTableRecord
100
AcDbLayerTableRecord
  2
Defpoints
 70
     0
 62
     7
  6
CONTINUOUS
290
     0
370
    -3
390
14A
  0
LAYER
  5
4B3
102
{ACAD_XDICTIONARY
360
4B4
102
}
330
13D
100
AcDbSymbolTableRecord
100
AcDbLayerTableRecord
  2
2寸法線
 70
     0
 62
     2
  6
CONTINUOUS
370
    -3
390
14A
  0
ENDTAB
  0
TABLE
  2
STYLE
  5
13E
330
0
100
AcDbSymbolTable
 70
     2
  0
STYLE
  5
14C
330
13E
100
AcDbSymbolTableRecord
100
AcDbTextStyleTableRecord
  2
STANDARD
 70
     0
 40
0.0
 41
1.0
 50
0.0
 71
     0
 42
2.5
  3
txt
  4

  0
STYLE
  5
161
330
13E
100
AcDbSymbolTableRecord
100
AcDbTextStyleTableRecord
  2
KANJI
 70
     0
 40
0.0
 41
1.0
 50
0.0
 71
     0
 42
2.5
  3
simplex.shx
  4
extfont.shx
  0
ENDTAB
  0
TABLE
  2
VIEW
  5
141
330
0
100
AcDbSymbolTable
 70
     0
  0
ENDTAB
  0
TABLE
  2
UCS
  5
142
330
0
100
AcDbSymbolTable
 70
     0
  0
ENDTAB
  0
TABLE
  2
APPID
  5
144
330
0
100
AcDbSymbolTable
 70
     4
  0
APPID
  5
14D
330
144
100
AcDbSymbolTableRecord
100
AcDbRegAppTableRecord
  2
ACAD
 70
     0
  0
APPID
  5
3E4
330
144
100
AcDbSymbolTableRecord
100
AcDbRegAppTableRecord
  2
ACAD_NAV_VCDISPLAY
 70
     0
  0
APPID
  5
421
330
144
100
AcDbSymbolTableRecord
100
AcDbRegAppTableRecord
  2
ACAD_MLEADERVER
 70
     0
  0
APPID
  5
6A3
330
144
100
AcDbSymbolTableRecord
100
AcDbRegAppTableRecord
  2
ACAD_EXEMPT_FROM_CAD_STANDARDS
 70
     0
  0
ENDTAB
  0
TABLE
  2
DIMSTYLE
  5
145
330
0
100
AcDbSymbolTable
 70
     4
100
AcDbDimStyleTable
 71
     1
340
162
  0
DIMSTYLE
105
162
330
145
100
AcDbSymbolTableRecord
100
AcDbDimStyleTableRecord
  2
ISO-25
 70
     0
 41
2.5
 42
0.625
 43
3.75
 44
1.25
 73
     0
 74
     0
 77
     1
 78
     8
140
2.5
141
2.5
143
0.03937007874016
147
0.625
171
     3
172
     1
274
     3
279
     2
284
     8
285
     8
286
     8
340
14C
  0
DIMSTYLE
105
163
330
145
100
AcDbSymbolTableRecord
100
AcDbDimStyleTableRecord
  2
STANDARD
 70
     0
274
     3
279
     2
284
     8
285
     8
286
     8
340
14C
  0
DIMSTYLE
105
4B5
330
145
100
AcDbSymbolTableRecord
100
AcDbDimStyleTableRecord
  2
M
 70
     0
 40
0.0
 41
2.0
 42
1.0
 43
0.0
 44
1.0
 73
     0
 74
     0
 77
     1
 78
     8
140
2.5
141
0.0
147
0.5
172
     1
173
     1
284
     8
340
161
341
44D
343
44D
344
44D
  0
ENDTAB
  0
TABLE
  2
BLOCK_RECORD
  5
13C
330
0
100
AcDbSymbolTable
 70
    40
  0
BLOCK_RECORD
  5
159
102
{ACAD_XDICTIONARY
360
6A0
102
}
330
13C
100
AcDbSymbolTableRecord
100
AcDbBlockTableRecord
  2
*Model_Space
340
15C
  0
BLOCK_RECORD
  5
155
330
13C
100
AcDbSymbolTableRecord
100
AcDbBlockTableRecord
  2
*Paper_Space
340
158
  0
BLOCK_RECORD
  5
16D
330
13C
100
AcDbSymbolTableRecord
100
AcDbBlockTableRecord
  2
*U0
340
0
  0
BLOCK_RECORD
  5
430
330
13C
100
AcDbSymbolTableRecord
100
AcDbBlockTableRecord
  2
*D1
340
0
  0
BLOCK_RECORD
  5
43D
330
13C
100
AcDbSymbolTableRecord
100
AcDbBlockTableRecord
  2
*D2
340
0
  0
BLOCK_RECORD
  5
449
330
13C
100
AcDbSymbolTableRecord
100
AcDbBlockTableRecord
  2
Y2
340
0
  0
BLOCK_RECORD
  5
44D
330
13C
100
AcDbSymbolTableRecord
100
AcDbBlockTableRecord
  2
2
340
0
102
{BLKREFS
331
652
331
653
331
47C
331
47D
331
488
331
489
331
494
331
495
331
4A0
331
4A1
331
4AC
331
4AD
331
456
331
457
331
462
331
463
331
470
331
471
331
65B
331
65C
331
664
331
665
331
66D
331
66E
331
676
331
677
331
635
331
636
331
63E
331
63F
331
649
331
64A
102
}
  0
BLOCK_RECORD
  5
451
330
13C
100
AcDbSymbolTableRecord
100
AcDbBlockTableRecord
  2
*D5
340
0
  0
BLOCK_RECORD
  5
45D
330
13C
100
AcDbSymbolTableRecord
100
AcDbBlockTableRecord
  2
*D6
340
0
  0
BLOCK_RECORD
  5
469
330
13C
100
AcDbSymbolTableRecord
100
AcDbBlockTableRecord
  2
*D7
340
0
  0
BLOCK_RECORD
  5
477
330
13C
100
AcDbSymbolTableRecord
100
AcDbBlockTableRecord
  2
*D8
340
0
  0
BLOCK_RECORD
  5
483
330
13C
100
AcDbSymbolTableRecord
100
AcDbBlockTableRecord
  2
*D9
340
0
  0
BLOCK_RECORD
  5
48F
330
13C
100
AcDbSymbolTableRecord
100
AcDbBlockTableRecord
  2
*D10
340
0
  0
BLOCK_RECORD
  5
49B
330
13C
100
AcDbSymbolTableRecord
100
AcDbBlockTableRecord
  2
*D11
340
0
  0
BLOCK_RECORD
  5
4A7
330
13C
100
AcDbSymbolTableRecord
100
AcDbBlockTableRecord
  2
*D12
340
0
  0
BLOCK_RECORD
  5
5D0
330
13C
100
AcDbSymbolTableRecord
100
AcDbBlockTableRecord
  2
*D13
340
0
  0
BLOCK_RECORD
  5
5DC
330
13C
100
AcDbSymbolTableRecord
100
AcDbBlockTableRecord
  2
*D14
340
0
  0
BLOCK_RECORD
  5
5E8
330
13C
100
AcDbSymbolTableRecord
100
AcDbBlockTableRecord
  2
*D15
340
0
  0
BLOCK_RECORD
  5
5F6
330
13C
100
AcDbSymbolTableRecord
100
AcDbBlockTableRecord
  2
*D16
340
0
  0
BLOCK_RECORD
  5
602
330
13C
100
AcDbSymbolTableRecord
100
AcDbBlockTableRecord
  2
*D17
340
0
  0
BLOCK_RECORD
  5
60E
330
13C
100
AcDbSymbolTableRecord
100
AcDbBlockTableRecord
  2
*D18
340
0
  0
BLOCK_RECORD
  5
61A
330
13C
100
AcDbSymbolTableRecord
100
AcDbBlockTableRecord
  2
*D19
340
0
  0
BLOCK_RECORD
  5
626
330
13C
100
AcDbSymbolTableRecord
100
AcDbBlockTableRecord
  2
*D20
340
0
  0
BLOCK_RECORD
  5
693
330
13C
100
AcDbSymbolTableRecord
100
AcDbBlockTableRecord
  2
*D21
340
0
  0
BLOCK_RECORD
  5
6FA
330
13C
100
AcDbSymbolTableRecord
100
AcDbBlockTableRecord
  2
*D22
340
0
  0
BLOCK_RECORD
  5
706
330
13C
100
AcDbSymbolTableRecord
100
AcDbBlockTableRecord
  2
*D23
340
0
  0
BLOCK_RECORD
  5
712
330
13C
100
AcDbSymbolTableRecord
100
AcDbBlockTableRecord
  2
*D24
340
0
  0
BLOCK_RECORD
  5
71E
330
13C
100
AcDbSymbolTableRecord
100
AcDbBlockTableRecord
  2
*D25
340
0
  0
BLOCK_RECORD
  5
72A
330
13C
100
AcDbSymbolTableRecord
100
AcDbBlockTableRecord
  2
*D26
340
0
  0
BLOCK_RECORD
  5
736
330
13C
100
AcDbSymbolTableRecord
100
AcDbBlockTableRecord
  2
*D27
340
0
  0
BLOCK_RECORD
  5
7E2
330
13C
100
AcDbSymbolTableRecord
100
AcDbBlockTableRecord
  2
*D29
340
0
  0
BLOCK_RECORD
  5
7EE
330
13C
100
AcDbSymbolTableRecord
100
AcDbBlockTableRecord
  2
*D30
340
0
  0
BLOCK_RECORD
  5
7FA
330
13C
100
AcDbSymbolTableRecord
100
AcDbBlockTableRecord
  2
*D31
340
0
  0
BLOCK_RECORD
  5
806
330
13C
100
AcDbSymbolTableRecord
100
AcDbBlockTableRecord
  2
*D32
340
0
  0
BLOCK_RECORD
  5
812
330
13C
100
AcDbSymbolTableRecord
100
AcDbBlockTableRecord
  2
*D33
340
0
  0
BLOCK_RECORD
  5
81E
330
13C
100
AcDbSymbolTableRecord
100
AcDbBlockTableRecord
  2
*D34
340
0
  0
BLOCK_RECORD
  5
861
330
13C
100
AcDbSymbolTableRecord
100
AcDbBlockTableRecord
  2
*D35
340
0
  0
BLOCK_RECORD
  5
86E
330
13C
100
AcDbSymbolTableRecord
100
AcDbBlockTableRecord
  2
*D36
340
0
  0
BLOCK_RECORD
  5
87B
330
13C
100
AcDbSymbolTableRecord
100
AcDbBlockTableRecord
  2
*D37
340
0
  0
BLOCK_RECORD
  5
888
330
13C
100
AcDbSymbolTableRecord
100
AcDbBlockTableRecord
  2
*D38
340
0
  0
ENDTAB
  0
ENDSEC
  0
SECTION
  2
BLOCKS
  0
BLOCK
  5
15A
330
159
100
AcDbEntity
  8
0
100
AcDbBlockBegin
  2
*Model_Space
 70
     0
 10
0.0
 20
0.0
 30
0.0
  3
*Model_Space
  1

  0
ENDBLK
  5
15B
330
159
100
AcDbEntity
  8
0
100
AcDbBlockEnd
  0
BLOCK
  5
156
330
155
100
AcDbEntity
 67
     1
  8
0
100
AcDbBlockBegin
  2
*Paper_Space
 70
     0
 10
0.0
 20
0.0
 30
0.0
  3
*Paper_Space
  1

  0
ENDBLK
  5
157
330
155
100
AcDbEntity
 67
     1
  8
0
100
AcDbBlockEnd
  0
BLOCK
  5
16E
330
16D
100
AcDbEntity
  8
0
100
AcDbBlockBegin
  2
*U0
 70
     1
 10
0.0
 20
0.0
 30
0.0
  3
*U0
  1

  0
SOLID
  5
137
330
16D
100
AcDbEntity
  8
0
  6
Continuous
100
AcDbTrace
 10
-0.5999999999988905
 20
0.0000000000000095
 30
0.0
 11
0.0000000000000284
 21
0.0
 31
0.0
 12
-0.899999999998343
 22
0.2411542731875897
 32
0.0
 13
-0.899999999998343
 23
0.2411542731875897
 33
0.0
  0
SOLID
  5
138
330
16D
100
AcDbEntity
  8
0
  6
Continuous
100
AcDbTrace
 10
-0.5999999999988905
 20
0.0000000000000095
 30
0.0
 11
-0.899999999998343
 21
0.2411542731875897
 31
0.0
 12
-0.8999999999983572
 22
-0.2411542731875613
 32
0.0
 13
-0.8999999999983572
 23
-0.2411542731875613
 33
0.0
  0
SOLID
  5
139
330
16D
100
AcDbEntity
  8
0
  6
Continuous
100
AcDbTrace
 10
-0.5999999999988905
 20
0.0000000000000095
 30
0.0
 11
-0.8999999999983572
 21
-0.2411542731875613
 31
0.0
 12
0.0000000000000284
 22
0.0
 32
0.0
 13
0.0000000000000284
 23
0.0
 33
0.0
  0
ENDBLK
  5
13B
330
16D
100
AcDbEntity
  8
0
100
AcDbBlockEnd
  0
BLOCK
  5
431
330
430
100
AcDbEntity
  8
0
100
AcDbBlockBegin
  2
*D1
 70
     1
 10
0.0
 20
0.0
 30
0.0
  3
*D1
  1

  0
LINE
  5
685
330
430
100
AcDbEntity
  8
0
 62
     0
370
    -2
100
AcDbLine
 10
119.4574074137867
 20
508.2535533865646
 30
0.0
 11
41.40545318463229
 21
508.2535533865646
 31
0.0
  0
LINE
  5
686
330
430
100
AcDbEntity
  8
0
 62
     0
370
    -2
100
AcDbLine
 10
64.45740741378696
 20
441.2535533865647
 30
0.0
 11
41.40545318463231
 21
441.2535533865647
 31
0.0
  0
LINE
  5
687
330
430
100
AcDbEntity
  8
0
 62
     0
370
    -2
100
AcDbLine
 10
42.65545318463229
 20
505.7535533865646
 30
0.0
 11
42.65545318463231
 21
443.7535533865649
 31
0.0
  0
SOLID
  5
688
330
430
100
AcDbEntity
  8
0
 62
     0
100
AcDbTrace
 10
42.23878651796563
 20
505.7535533865646
 30
0.0
 11
43.07211985129896
 21
505.7535533865646
 31
0.0
 12
42.65545318463229
 22
508.2535533865646
 32
0.0
 13
42.65545318463229
 23
508.2535533865646
 33
0.0
  0
SOLID
  5
689
330
430
100
AcDbEntity
  8
0
 62
     0
100
AcDbTrace
 10
42.23878651796565
 20
443.7535533865649
 30
0.0
 11
43.07211985129898
 21
443.7535533865649
 31
0.0
 12
42.65545318463231
 22
441.2535533865647
 32
0.0
 13
42.65545318463231
 23
441.2535533865647
 33
0.0
  0
MTEXT
  5
68A
330
430
100
AcDbEntity
  8
0
 62
     0
100
AcDbMText
 10
40.78045318463242
 20
474.7535533865646
 30
0.0
 40
2.5
 41
0.0
 71
     5
 72
     1
  1
\A1;67
 11
0.0000000000000001
 21
1.0
 31
0.0
 73
     1
 44
1.0
1001
ACAD
1000
MTEXTBEGIN
1070
    73
1070
     1
1070
    44
1040
1.0
1070
    74
1070
     0
1000
MTEXTEND
  0
POINT
  5
68B
330
430
100
AcDbEntity
  8
Defpoints
 62
     0
100
AcDbPoint
 10
120.0824074137867
 20
508.2535533865646
 30
0.0
  0
POINT
  5
68C
330
430
100
AcDbEntity
  8
Defpoints
 62
     0
100
AcDbPoint
 10
65.08240741378696
 20
441.2535533865647
 30
0.0
  0
POINT
  5
68D
330
430
100
AcDbEntity
  8
Defpoints
 62
     0
100
AcDbPoint
 10
42.65545318463231
 20
441.2535533865647
 30
0.0
  0
ENDBLK
  5
432
330
430
100
AcDbEntity
  8
0
100
AcDbBlockEnd
  0
BLOCK
  5
43E
330
43D
100
AcDbEntity
  8
0
100
AcDbBlockBegin
  2
*D2
 70
     1
 10
0.0
 20
0.0
 30
0.0
  3
*D2
  1

  0
LINE
  5
67C
330
43D
100
AcDbEntity
  8
0
 62
     0
370
    -2
100
AcDbLine
 10
107.756498104447
 20
170.2588642977931
 30
0.0
 11
38.67139104703986
 21
170.2588642977931
 31
0.0
  0
LINE
  5
67D
330
43D
100
AcDbEntity
  8
0
 62
     0
370
    -2
100
AcDbLine
 10
60.47096419851436
 20
97.25886429779322
 30
0.0
 11
38.67139104703987
 21
97.25886429779322
 31
0.0
  0
LINE
  5
67E
330
43D
100
AcDbEntity
  8
0
 62
     0
370
    -2
100
AcDbLine
 10
39.92139104703986
 20
167.7588642977931
 30
0.0
 11
39.92139104703987
 21
99.75886429779322
 31
0.0
  0
SOLID
  5
67F
330
43D
100
AcDbEntity
  8
0
 62
     0
100
AcDbTrace
 10
39.50472438037319
 20
167.7588642977931
 30
0.0
 11
40.3380577137065
 21
167.7588642977931
 31
0.0
 12
39.92139104703986
 22
170.2588642977931
 32
0.0
 13
39.92139104703986
 23
170.2588642977931
 33
0.0
  0
SOLID
  5
680
330
43D
100
AcDbEntity
  8
0
 62
     0
100
AcDbTrace
 10
39.50472438037321
 20
99.75886429779322
 30
0.0
 11
40.33805771370653
 21
99.75886429779322
 31
0.0
 12
39.92139104703987
 22
97.25886429779322
 32
0.0
 13
39.92139104703987
 23
97.25886429779322
 33
0.0
  0
MTEXT
  5
681
330
43D
100
AcDbEntity
  8
0
 62
     0
100
AcDbMText
 10
38.04639104703989
 20
133.7588642977932
 30
0.0
 40
2.5
 41
0.0
 71
     5
 72
     1
  1
\A1;73
 11
0.0000000000000001
 21
1.0
 31
0.0
 73
     1
 44
1.0
1001
ACAD
1000
MTEXTBEGIN
1070
    73
1070
     1
1070
    44
1040
1.0
1070
    74
1070
     0
1000
MTEXTEND
  0
POINT
  5
682
330
43D
100
AcDbEntity
  8
Defpoints
 62
     0
100
AcDbPoint
 10
108.381498104447
 20
170.2588642977931
 30
0.0
  0
POINT
  5
683
330
43D
100
AcDbEntity
  8
Defpoints
 62
     0
100
AcDbPoint
 10
61.09596419851436
 20
97.25886429779322
 30
0.0
  0
POINT
  5
684
330
43D
100
AcDbEntity
  8
Defpoints
 62
     0
100
AcDbPoint
 10
39.92139104703987
 20
97.25886429779322
 30
0.0
  0
ENDBLK
  5
43F
330
43D
100
AcDbEntity
  8
0
100
AcDbBlockEnd
  0
BLOCK
  5
44A
330
449
100
AcDbEntity
  8
0
 48
2.0
100
AcDbBlockBegin
  2
Y2
 70
     0
 10
0.0
 20
0.0
 30
0.0
  3
Y2
  1

  0
SOLID
  5
44B
330
449
100
AcDbEntity
  8
0
  6
ByBlock
 62
     0
100
AcDbTrace
 10
-1.811110924292108
 20
0.485285709567151
 30
0.0
 11
-1.811110924292108
 21
-0.4852857095673784
 31
0.0
 12
-0.0000000000000568
 22
-0.0000000000000142
 32
0.0
 13
-0.0000000000000568
 23
-0.0000000000000142
 33
0.0
  0
ENDBLK
  5
44C
330
449
100
AcDbEntity
  8
0
 48
2.0
100
AcDbBlockEnd
  0
BLOCK
  5
44E
330
44D
100
AcDbEntity
  8
0
 48
3.0
100
AcDbBlockBegin
  2
2
 70
     0
 10
0.0
 20
0.0
 30
0.0
  3
2
  1

  0
HATCH
  5
44F
330
44D
100
AcDbEntity
  8
0
  6
ByBlock
 62
     0
 48
3.0
100
AcDbHatch
 10
0.0
 20
0.0
 30
0.0
210
0.0
220
0.0
230
1.0
  2
SOLID
 70
     1
 71
     0
 91
        1
 92
        1
 93
        3
 72
     1
 10
-0.9999999999983517
 20
0.2679491924306774
 11
0.0
 21
0.0
 72
     1
 10
0.0
 20
0.0
 11
-0.9999999999983517
 21
-0.2679491924306765
 72
     1
 10
-0.9999999999983524
 20
-0.267949192430676
 11
-0.9999999999983524
 21
0.2679491924306774
 97
        0
 75
     0
 76
     1
 98
        1
 10
2.995745117231336
 20
-4.124946096263201
  0
ENDBLK
  5
450
330
44D
100
AcDbEntity
  8
0
 48
3.0
100
AcDbBlockEnd
  0
BLOCK
  5
452
330
451
100
AcDbEntity
  8
0
 48
2.0
100
AcDbBlockBegin
  2
*D5
 70
     1
 10
0.0
 20
0.0
 30
0.0
  3
*D5
  1

  0
LINE
  5
453
330
451
100
AcDbEntity
  8
2寸法線
 62
     0
370
    -2
100
AcDbLine
 10
576.199422902316
 20
-422.5045088953461
 30
0.0
 11
576.199422902316
 21
-434.1359135764235
 31
0.0
  0
LINE
  5
454
330
451
100
AcDbEntity
  8
2寸法線
 62
     0
370
    -2
100
AcDbLine
 10
632.1994229023158
 20
-422.5045088953461
 30
0.0
 11
632.1994229023158
 21
-434.1359135764235
 31
0.0
  0
LINE
  5
455
330
451
100
AcDbEntity
  8
2寸法線
 62
     0
370
    -3
100
AcDbLine
 10
580.199422902316
 20
-433.1359135764235
 30
0.0
 11
628.1994229023158
 21
-433.1359135764235
 31
0.0
  0
INSERT
  5
456
330
451
100
AcDbEntity
  8
2寸法線
 62
     0
370
    -3
100
AcDbBlockReference
  2
2
 10
576.199422902316
 20
-433.1359135764235
 30
0.0
 41
4.0
 42
4.0
 43
4.0
 50
180.0
  0
INSERT
  5
457
330
451
100
AcDbEntity
  8
2寸法線
 62
     0
370
    -3
100
AcDbBlockReference
  2
2
 10
632.1994229023158
 20
-433.1359135764235
 30
0.0
 41
4.0
 42
4.0
 43
4.0
  0
MTEXT
  5
458
330
451
100
AcDbEntity
  8
2寸法線
 62
     0
100
AcDbMText
 10
604.199422902316
 20
-430.1359135764235
 30
0.0
 40
4.0
 41
0.0
 71
     5
 72
     1
  1
\A1;70
  7
KANJI
 73
     1
 44
1.0
1001
ACAD
1000
MTEXTBEGIN
1070
    73
1070
     1
1070
    44
1040
1.0
1070
    74
1070
     0
1000
MTEXTEND
  0
POINT
  5
459
330
451
100
AcDbEntity
  8
Defpoints
 62
     0
100
AcDbPoint
 10
576.199422902316
 20
-421.5045088953461
 30
0.0
  0
POINT
  5
45A
330
451
100
AcDbEntity
  8
Defpoints
 62
     0
100
AcDbPoint
 10
632.1994229023158
 20
-421.5045088953461
 30
0.0
  0
POINT
  5
45B
330
451
100
AcDbEntity
  8
Defpoints
 62
     0
100
AcDbPoint
 10
632.1994229023158
 20
-433.1359135764235
 30
0.0
  0
ENDBLK
  5
45C
330
451
100
AcDbEntity
  8
0
 48
2.0
100
AcDbBlockEnd
  0
BLOCK
  5
45E
330
45D
100
AcDbEntity
  8
0
 48
2.0
100
AcDbBlockBegin
  2
*D6
 70
     1
 10
0.0
 20
0.0
 30
0.0
  3
*D6
  1

  0
LINE
  5
45F
330
45D
100
AcDbEntity
  8
2寸法線
 62
     0
370
    -2
100
AcDbLine
 10
492.0185667042794
 20
-422.5045088953461
 30
0.0
 11
492.0185667042794
 21
-434.5139638648999
 31
0.0
  0
LINE
  5
460
330
45D
100
AcDbEntity
  8
2寸法線
 62
     0
370
    -2
100
AcDbLine
 10
418.9392807353288
 20
-422.5045088953461
 30
0.0
 11
418.9392807353288
 21
-434.5139638648999
 31
0.0
  0
LINE
  5
461
330
45D
100
AcDbEntity
  8
2寸法線
 62
     0
370
    -3
100
AcDbLine
 10
488.0185667042794
 20
-433.5139638649
 30
0.0
 11
422.9392807353288
 21
-433.5139638649
 31
0.0
  0
INSERT
  5
462
330
45D
100
AcDbEntity
  8
2寸法線
 62
     0
370
    -3
100
AcDbBlockReference
  2
2
 10
492.0185667042794
 20
-433.5139638649
 30
0.0
 41
4.0
 42
4.0
 43
4.0
  0
INSERT
  5
463
330
45D
100
AcDbEntity
  8
2寸法線
 62
     0
370
    -3
100
AcDbBlockReference
  2
2
 10
418.9392807353288
 20
-433.5139638649
 30
0.0
 41
4.0
 42
4.0
 43
4.0
 50
180.0
  0
MTEXT
  5
464
330
45D
100
AcDbEntity
  8
2寸法線
 62
     0
100
AcDbMText
 10
455.599189037748
 20
-430.5139638648999
 30
0.0
 40
4.0
 41
0.0
 71
     5
 72
     1
  1
\A1;92
  7
KANJI
 73
     1
 44
1.0
1001
ACAD
1000
MTEXTBEGIN
1070
    73
1070
     1
1070
    44
1040
1.0
1070
    74
1070
     0
1000
MTEXTEND
  0
POINT
  5
465
330
45D
100
AcDbEntity
  8
Defpoints
 62
     0
100
AcDbPoint
 10
492.0185667042794
 20
-421.5045088953461
 30
0.0
  0
POINT
  5
466
330
45D
100
AcDbEntity
  8
Defpoints
 62
     0
100
AcDbPoint
 10
418.9392807353288
 20
-421.5045088953461
 30
0.0
  0
POINT
  5
467
330
45D
100
AcDbEntity
  8
Defpoints
 62
     0
100
AcDbPoint
 10
418.9392807353288
 20
-433.5139638649
 30
0.0
  0
ENDBLK
  5
468
330
45D
100
AcDbEntity
  8
0
 48
2.0
100
AcDbBlockEnd
  0
BLOCK
  5
46A
330
469
100
AcDbEntity
  8
0
 48
2.0
100
AcDbBlockBegin
  2
*D7
 70
     1
 10
0.0
 20
0.0
 30
0.0
  3
*D7
  1

  0
LINE
  5
46B
330
469
100
AcDbEntity
  8
2寸法線
 62
     0
370
    -2
100
AcDbLine
 10
624.1994229023158
 20
-315.3045088953388
 30
0.0
 11
624.1994229023158
 21
-304.016307558281
 31
0.0
  0
LINE
  5
46C
330
469
100
AcDbEntity
  8
2寸法線
 62
     0
370
    -2
100
AcDbLine
 10
632.1994229023158
 20
-312.5045088953389
 30
0.0
 11
632.1994229023158
 21
-304.016307558281
 31
0.0
  0
LINE
  5
46D
330
469
100
AcDbEntity
  8
2寸法線
 62
     0
370
    -3
100
AcDbLine
 10
620.1994229023158
 20
-305.016307558281
 30
0.0
 11
616.1994229023158
 21
-305.016307558281
 31
0.0
  0
LINE
  5
46E
330
469
100
AcDbEntity
  8
2寸法線
 62
     0
370
    -3
100
AcDbLine
 10
636.1994229023158
 20
-305.016307558281
 30
0.0
 11
640.1994229023158
 21
-305.016307558281
 31
0.0
  0
LINE
  5
46F
330
469
100
AcDbEntity
  8
2寸法線
 62
     0
370
    -3
100
AcDbLine
 10
624.1994229023158
 20
-305.016307558281
 30
0.0
 11
632.1994229023158
 21
-305.016307558281
 31
0.0
  0
INSERT
  5
470
330
469
100
AcDbEntity
  8
2寸法線
 62
     0
370
    -3
100
AcDbBlockReference
  2
2
 10
624.1994229023158
 20
-305.016307558281
 30
0.0
 41
4.0
 42
4.0
 43
4.0
  0
INSERT
  5
471
330
469
100
AcDbEntity
  8
2寸法線
 62
     0
370
    -3
100
AcDbBlockReference
  2
2
 10
632.1994229023158
 20
-305.016307558281
 30
0.0
 41
4.0
 42
4.0
 43
4.0
 50
180.0
  0
MTEXT
  5
472
330
469
100
AcDbEntity
  8
2寸法線
 62
     0
100
AcDbMText
 10
628.1994229023158
 20
-302.016307558281
 30
0.0
 40
4.0
 41
0.0
 71
     5
 72
     1
  1
\A1;10
  7
KANJI
 73
     1
 44
1.0
1001
ACAD
1000
MTEXTBEGIN
1070
    73
1070
     1
1070
    44
1040
1.0
1070
    74
1070
     0
1000
MTEXTEND
  0
POINT
  5
473
330
469
100
AcDbEntity
  8
Defpoints
 62
     0
100
AcDbPoint
 10
624.1994229023158
 20
-316.3045088953388
 30
0.0
  0
POINT
  5
474
330
469
100
AcDbEntity
  8
Defpoints
 62
     0
100
AcDbPoint
 10
632.1994229023158
 20
-313.5045088953388
 30
0.0
  0
POINT
  5
475
330
469
100
AcDbEntity
  8
Defpoints
 62
     0
100
AcDbPoint
 10
632.1994229023158
 20
-305.016307558281
 30
0.0
  0
ENDBLK
  5
476
330
469
100
AcDbEntity
  8
0
 48
2.0
100
AcDbBlockEnd
  0
BLOCK
  5
478
330
477
100
AcDbEntity
  8
0
 48
2.0
100
AcDbBlockBegin
  2
*D8
 70
     1
 10
0.0
 20
0.0
 30
0.0
  3
*D8
  1

  0
LINE
  5
479
330
477
100
AcDbEntity
  8
2寸法線
 62
     0
370
    -2
100
AcDbLine
 10
622.9314737098806
 20
-333.5045088953461
 30
0.0
 11
559.6340382175285
 21
-333.5045088953461
 31
0.0
  0
LINE
  5
47A
330
477
100
AcDbEntity
  8
2寸法線
 62
     0
370
    -2
100
AcDbLine
 10
575.199422902316
 20
-422.5045088953461
 30
0.0
 11
559.6340382175285
 21
-422.5045088953461
 31
0.0
  0
LINE
  5
47B
330
477
100
AcDbEntity
  8
2寸法線
 62
     0
370
    -3
100
AcDbLine
 10
560.6340382175285
 20
-337.5045088953462
 30
0.0
 11
560.6340382175285
 21
-418.5045088953461
 31
0.0
  0
INSERT
  5
47C
330
477
100
AcDbEntity
  8
2寸法線
 62
     0
370
    -3
100
AcDbBlockReference
  2
2
 10
560.6340382175285
 20
-333.5045088953461
 30
0.0
 41
4.0
 42
4.0
 43
4.0
 50
90.0
  0
INSERT
  5
47D
330
477
100
AcDbEntity
  8
2寸法線
 62
     0
370
    -3
100
AcDbBlockReference
  2
2
 10
560.6340382175285
 20
-422.5045088953461
 30
0.0
 41
4.0
 42
4.0
 43
4.0
 50
270.0
  0
MTEXT
  5
47E
330
477
100
AcDbEntity
  8
2寸法線
 62
     0
100
AcDbMText
 10
557.6340382175287
 20
-378.0045088953461
 30
0.0
 40
4.0
 41
0.0
 71
     5
 72
     1
  1
\A1;110
  7
KANJI
 11
0.0000000000000001
 21
1.0
 31
0.0
 73
     1
 44
1.0
1001
ACAD
1000
MTEXTBEGIN
1070
    73
1070
     1
1070
    44
1040
1.0
1070
    74
1070
     0
1000
MTEXTEND
  0
POINT
  5
47F
330
477
100
AcDbEntity
  8
Defpoints
 62
     0
100
AcDbPoint
 10
623.9314737098806
 20
-333.5045088953461
 30
0.0
  0
POINT
  5
480
330
477
100
AcDbEntity
  8
Defpoints
 62
     0
100
AcDbPoint
 10
576.199422902316
 20
-422.5045088953461
 30
0.0
  0
POINT
  5
481
330
477
100
AcDbEntity
  8
Defpoints
 62
     0
100
AcDbPoint
 10
560.6340382175285
 20
-422.5045088953461
 30
0.0
  0
ENDBLK
  5
482
330
477
100
AcDbEntity
  8
0
 48
2.0
100
AcDbBlockEnd
  0
BLOCK
  5
484
330
483
100
AcDbEntity
  8
0
 48
2.0
100
AcDbBlockBegin
  2
*D9
 70
     1
 10
0.0
 20
0.0
 30
0.0
  3
*D9
  1

  0
LINE
  5
485
330
483
100
AcDbEntity
  8
2寸法線
 62
     0
370
    -2
100
AcDbLine
 10
409.1629736350878
 20
-336.0601406392007
 30
0.0
 11
409.1629736350878
 21
-302.4261393946436
 31
0.0
  0
LINE
  5
486
330
483
100
AcDbEntity
  8
2寸法線
 62
     0
370
    -2
100
AcDbLine
 10
502.0354044404113
 20
-336.0601406392015
 30
0.0
 11
502.0354044404113
 21
-302.4261393946436
 31
0.0
  0
LINE
  5
487
330
483
100
AcDbEntity
  8
2寸法線
 62
     0
370
    -3
100
AcDbLine
 10
413.1629736350878
 20
-303.4261393946435
 30
0.0
 11
498.0354044404113
 21
-303.4261393946435
 31
0.0
  0
INSERT
  5
488
330
483
100
AcDbEntity
  8
2寸法線
 62
     0
370
    -3
100
AcDbBlockReference
  2
2
 10
409.1629736350878
 20
-303.4261393946435
 30
0.0
 41
4.0
 42
4.0
 43
4.0
 50
180.0
  0
INSERT
  5
489
330
483
100
AcDbEntity
  8
2寸法線
 62
     0
370
    -3
100
AcDbBlockReference
  2
2
 10
502.0354044404113
 20
-303.4261393946435
 30
0.0
 41
4.0
 42
4.0
 43
4.0
  0
MTEXT
  5
48A
330
483
100
AcDbEntity
  8
2寸法線
 62
     0
100
AcDbMText
 10
455.5991890377496
 20
-300.4261393946435
 30
0.0
 40
4.0
 41
0.0
 71
     5
 72
     1
  1
\A1;115
  7
KANJI
 73
     1
 44
1.0
1001
ACAD
1000
MTEXTBEGIN
1070
    73
1070
     1
1070
    44
1040
1.0
1070
    74
1070
     0
1000
MTEXTEND
  0
POINT
  5
48B
330
483
100
AcDbEntity
  8
Defpoints
 62
     0
100
AcDbPoint
 10
409.1629736350878
 20
-337.0601406392006
 30
0.0
  0
POINT
  5
48C
330
483
100
AcDbEntity
  8
Defpoints
 62
     0
100
AcDbPoint
 10
502.0354044404113
 20
-337.0601406392014
 30
0.0
  0
POINT
  5
48D
330
483
100
AcDbEntity
  8
Defpoints
 62
     0
100
AcDbPoint
 10
502.0354044404113
 20
-303.4261393946435
 30
0.0
  0
ENDBLK
  5
48E
330
483
100
AcDbEntity
  8
0
 48
2.0
100
AcDbBlockEnd
  0
BLOCK
  5
490
330
48F
100
AcDbEntity
  8
0
 48
2.0
100
AcDbBlockBegin
  2
*D10
 70
     1
 10
0.0
 20
0.0
 30
0.0
  3
*D10
  1

  0
LINE
  5
491
330
48F
100
AcDbEntity
  8
2寸法線
 62
     0
370
    -2
100
AcDbLine
 10
407.5991890377481
 20
-422.5045088953461
 30
0.0
 11
407.5991890377481
 21
-451.4481987594336
 31
0.0
  0
LINE
  5
492
330
48F
100
AcDbEntity
  8
2寸法線
 62
     0
370
    -2
100
AcDbLine
 10
503.5991890377481
 20
-422.5045088953461
 30
0.0
 11
503.5991890377481
 21
-451.4481987594336
 31
0.0
  0
LINE
  5
493
330
48F
100
AcDbEntity
  8
2寸法線
 62
     0
370
    -3
100
AcDbLine
 10
411.5991890377481
 20
-450.4481987594336
 30
0.0
 11
499.5991890377481
 21
-450.4481987594336
 31
0.0
  0
INSERT
  5
494
330
48F
100
AcDbEntity
  8
2寸法線
 62
     0
370
    -3
100
AcDbBlockReference
  2
2
 10
407.5991890377481
 20
-450.4481987594336
 30
0.0
 41
4.0
 42
4.0
 43
4.0
 50
180.0
  0
INSERT
  5
495
330
48F
100
AcDbEntity
  8
2寸法線
 62
     0
370
    -3
100
AcDbBlockReference
  2
2
 10
503.5991890377481
 20
-450.4481987594336
 30
0.0
 41
4.0
 42
4.0
 43
4.0
  0
MTEXT
  5
496
330
48F
100
AcDbEntity
  8
2寸法線
 62
     0
100
AcDbMText
 10
455.599189037748
 20
-447.4481987594336
 30
0.0
 40
4.0
 41
0.0
 71
     5
 72
     1
  1
\A1;120
  7
KANJI
 73
     1
 44
1.0
1001
ACAD
1000
MTEXTBEGIN
1070
    73
1070
     1
1070
    44
1040
1.0
1070
    74
1070
     0
1000
MTEXTEND
  0
POINT
  5
497
330
48F
100
AcDbEntity
  8
Defpoints
 62
     0
100
AcDbPoint
 10
407.5991890377481
 20
-421.5045088953461
 30
0.0
  0
POINT
  5
498
330
48F
100
AcDbEntity
  8
Defpoints
 62
     0
100
AcDbPoint
 10
503.5991890377481
 20
-421.5045088953461
 30
0.0
  0
POINT
  5
499
330
48F
100
AcDbEntity
  8
Defpoints
 62
     0
100
AcDbPoint
 10
503.5991890377481
 20
-450.4481987594336
 30
0.0
  0
ENDBLK
  5
49A
330
48F
100
AcDbEntity
  8
0
 48
2.0
100
AcDbBlockEnd
  0
BLOCK
  5
49C
330
49B
100
AcDbEntity
  8
0
 48
2.0
100
AcDbBlockBegin
  2
*D11
 70
     1
 10
0.0
 20
0.0
 30
0.0
  3
*D11
  1

  0
LINE
  5
49D
330
49B
100
AcDbEntity
  8
2寸法線
 62
     0
370
    -2
100
AcDbLine
 10
432.1588594668865
 20
-313.5045088953461
 30
0.0
 11
399.8925549205523
 21
-313.5045088953461
 31
0.0
  0
LINE
  5
49E
330
49B
100
AcDbEntity
  8
2寸法線
 62
     0
370
    -2
100
AcDbLine
 10
406.599189037748
 20
-421.5045088953461
 30
0.0
 11
399.8925549205523
 21
-421.5045088953461
 31
0.0
  0
LINE
  5
49F
330
49B
100
AcDbEntity
  8
2寸法線
 62
     0
370
    -3
100
AcDbLine
 10
400.8925549205523
 20
-317.5045088953461
 30
0.0
 11
400.8925549205522
 21
-417.5045088953461
 31
0.0
  0
INSERT
  5
4A0
330
49B
100
AcDbEntity
  8
2寸法線
 62
     0
370
    -3
100
AcDbBlockReference
  2
2
 10
400.8925549205523
 20
-313.5045088953461
 30
0.0
 41
4.0
 42
4.0
 43
4.0
 50
90.0
  0
INSERT
  5
4A1
330
49B
100
AcDbEntity
  8
2寸法線
 62
     0
370
    -3
100
AcDbBlockReference
  2
2
 10
400.8925549205522
 20
-421.5045088953461
 30
0.0
 41
4.0
 42
4.0
 43
4.0
 50
270.0
  0
MTEXT
  5
4A2
330
49B
100
AcDbEntity
  8
2寸法線
 62
     0
100
AcDbMText
 10
397.8925549205523
 20
-367.5045088953461
 30
0.0
 40
4.0
 41
0.0
 71
     5
 72
     1
  1
\A1;135
  7
KANJI
 11
0.0000000000000001
 21
1.0
 31
0.0
 73
     1
 44
1.0
1001
ACAD
1000
MTEXTBEGIN
1070
    73
1070
     1
1070
    44
1040
1.0
1070
    74
1070
     0
1000
MTEXTEND
  0
POINT
  5
4A3
330
49B
100
AcDbEntity
  8
Defpoints
 62
     0
100
AcDbPoint
 10
433.1588594668865
 20
-313.5045088953461
 30
0.0
  0
POINT
  5
4A4
330
49B
100
AcDbEntity
  8
Defpoints
 62
     0
100
AcDbPoint
 10
407.5991890377481
 20
-421.5045088953461
 30
0.0
  0
POINT
  5
4A5
330
49B
100
AcDbEntity
  8
Defpoints
 62
     0
100
AcDbPoint
 10
400.8925549205522
 20
-421.5045088953461
 30
0.0
  0
ENDBLK
  5
4A6
330
49B
100
AcDbEntity
  8
0
 48
2.0
100
AcDbBlockEnd
  0
BLOCK
  5
4A8
330
4A7
100
AcDbEntity
  8
0
 48
2.0
100
AcDbBlockBegin
  2
*D12
 70
     1
 10
0.0
 20
0.0
 30
0.0
  3
*D12
  1

  0
LINE
  5
4A9
330
4A7
100
AcDbEntity
  8
2寸法線
 62
     0
370
    -2
100
AcDbLine
 10
475.0682222385687
 20
-363.5045088953467
 30
0.0
 11
522.192392578464
 21
-363.5045088953467
 31
0.0
  0
LINE
  5
4AA
330
4A7
100
AcDbEntity
  8
2寸法線
 62
     0
370
    -2
100
AcDbLine
 10
493.0185667042795
 20
-421.5045088953461
 30
0.0
 11
522.192392578464
 21
-421.5045088953461
 31
0.0
  0
LINE
  5
4AB
330
4A7
100
AcDbEntity
  8
2寸法線
 62
     0
370
    -3
100
AcDbLine
 10
521.192392578464
 20
-367.5045088953467
 30
0.0
 11
521.192392578464
 21
-417.5045088953461
 31
0.0
  0
INSERT
  5
4AC
330
4A7
100
AcDbEntity
  8
2寸法線
 62
     0
370
    -3
100
AcDbBlockReference
  2
2
 10
521.192392578464
 20
-363.5045088953467
 30
0.0
 41
4.0
 42
4.0
 43
4.0
 50
90.0
  0
INSERT
  5
4AD
330
4A7
100
AcDbEntity
  8
2寸法線
 62
     0
370
    -3
100
AcDbBlockReference
  2
2
 10
521.192392578464
 20
-421.5045088953461
 30
0.0
 41
4.0
 42
4.0
 43
4.0
 50
270.0
  0
MTEXT
  5
4AE
330
4A7
100
AcDbEntity
  8
2寸法線
 62
     0
100
AcDbMText
 10
518.1923925784641
 20
-392.5045088953464
 30
0.0
 40
4.0
 41
0.0
 71
     5
 72
     1
  1
\A1;73
  7
KANJI
 11
0.0000000000000001
 21
1.0
 31
0.0
 73
     1
 44
1.0
1001
ACAD
1000
MTEXTBEGIN
1070
    73
1070
     1
1070
    44
1040
1.0
1070
    74
1070
     0
1000
MTEXTEND
  0
POINT
  5
4AF
330
4A7
100
AcDbEntity
  8
Defpoints
 62
     0
100
AcDbPoint
 10
474.0682222385687
 20
-363.5045088953467
 30
0.0
  0
POINT
  5
4B0
330
4A7
100
AcDbEntity
  8
Defpoints
 62
     0
100
AcDbPoint
 10
492.0185667042794
 20
-421.5045088953461
 30
0.0
  0
POINT
  5
4B1
330
4A7
100
AcDbEntity
  8
Defpoints
 62
     0
100
AcDbPoint
 10
521.192392578464
 20
-421.5045088953461
 30
0.0
  0
ENDBLK
  5
4B2
330
4A7
100
AcDbEntity
  8
0
 48
2.0
100
AcDbBlockEnd
  0
BLOCK
  5
5D1
330
5D0
100
AcDbEntity
  8
0
100
AcDbBlockBegin
  2
*D13
 70
     1
 10
0.0
 20
0.0
 30
0.0
  3
*D13
  1

  0
LINE
  5
632
330
5D0
100
AcDbEntity
  8
2寸法線
 62
     0
370
    -2
100
AcDbLine
 10
541.1807231972264
 20
115.9574601241295
 30
0.0
 11
541.1807231972264
 21
104.3260554430521
 31
0.0
  0
LINE
  5
633
330
5D0
100
AcDbEntity
  8
2寸法線
 62
     0
370
    -2
100
AcDbLine
 10
597.1807231972262
 20
115.9574601241295
 30
0.0
 11
597.1807231972262
 21
104.3260554430521
 31
0.0
  0
LINE
  5
634
330
5D0
100
AcDbEntity
  8
2寸法線
 62
     0
370
    -3
100
AcDbLine
 10
545.1807231972264
 20
105.3260554430521
 30
0.0
 11
593.1807231972262
 21
105.3260554430521
 31
0.0
  0
INSERT
  5
635
330
5D0
100
AcDbEntity
  8
2寸法線
 62
     0
370
    -3
100
AcDbBlockReference
  2
2
 10
541.1807231972264
 20
105.3260554430521
 30
0.0
 41
4.0
 42
4.0
 43
4.0
 50
180.0
  0
INSERT
  5
636
330
5D0
100
AcDbEntity
  8
2寸法線
 62
     0
370
    -3
100
AcDbBlockReference
  2
2
 10
597.1807231972262
 20
105.3260554430521
 30
0.0
 41
4.0
 42
4.0
 43
4.0
  0
MTEXT
  5
637
330
5D0
100
AcDbEntity
  8
2寸法線
 62
     0
100
AcDbMText
 10
569.1807231972262
 20
108.3260554430521
 30
0.0
 40
4.0
 41
0.0
 71
     5
 72
     1
  1
\A1;70
  7
KANJI
 73
     1
 44
1.0
1001
ACAD
1000
MTEXTBEGIN
1070
    73
1070
     1
1070
    44
1040
1.0
1070
    74
1070
     0
1000
MTEXTEND
  0
POINT
  5
638
330
5D0
100
AcDbEntity
  8
Defpoints
 62
     0
100
AcDbPoint
 10
541.1807231972264
 20
116.9574601241295
 30
0.0
  0
POINT
  5
639
330
5D0
100
AcDbEntity
  8
Defpoints
 62
     0
100
AcDbPoint
 10
597.1807231972262
 20
116.9574601241295
 30
0.0
  0
POINT
  5
63A
330
5D0
100
AcDbEntity
  8
Defpoints
 62
     0
100
AcDbPoint
 10
597.1807231972262
 20
105.3260554430521
 30
0.0
  0
ENDBLK
  5
5D2
330
5D0
100
AcDbEntity
  8
0
100
AcDbBlockEnd
  0
BLOCK
  5
5DD
330
5DC
100
AcDbEntity
  8
0
100
AcDbBlockBegin
  2
*D14
 70
     1
 10
0.0
 20
0.0
 30
0.0
  3
*D14
  1

  0
LINE
  5
63B
330
5DC
100
AcDbEntity
  8
2寸法線
 62
     0
370
    -2
100
AcDbLine
 10
456.9998669991898
 20
115.9574601241295
 30
0.0
 11
456.9998669991898
 21
103.9480051545756
 31
0.0
  0
LINE
  5
63C
330
5DC
100
AcDbEntity
  8
2寸法線
 62
     0
370
    -2
100
AcDbLine
 10
383.9205810302392
 20
115.9574601241295
 30
0.0
 11
383.9205810302392
 21
103.9480051545756
 31
0.0
  0
LINE
  5
63D
330
5DC
100
AcDbEntity
  8
2寸法線
 62
     0
370
    -3
100
AcDbLine
 10
452.9998669991898
 20
104.9480051545756
 30
0.0
 11
387.9205810302392
 21
104.9480051545756
 31
0.0
  0
INSERT
  5
63E
330
5DC
100
AcDbEntity
  8
2寸法線
 62
     0
370
    -3
100
AcDbBlockReference
  2
2
 10
456.9998669991898
 20
104.9480051545756
 30
0.0
 41
4.0
 42
4.0
 43
4.0
  0
INSERT
  5
63F
330
5DC
100
AcDbEntity
  8
2寸法線
 62
     0
370
    -3
100
AcDbBlockReference
  2
2
 10
383.9205810302392
 20
104.9480051545756
 30
0.0
 41
4.0
 42
4.0
 43
4.0
 50
180.0
  0
MTEXT
  5
640
330
5DC
100
AcDbEntity
  8
2寸法線
 62
     0
100
AcDbMText
 10
420.5804893326584
 20
107.9480051545756
 30
0.0
 40
4.0
 41
0.0
 71
     5
 72
     1
  1
\A1;92
  7
KANJI
 73
     1
 44
1.0
1001
ACAD
1000
MTEXTBEGIN
1070
    73
1070
     1
1070
    44
1040
1.0
1070
    74
1070
     0
1000
MTEXTEND
  0
POINT
  5
641
330
5DC
100
AcDbEntity
  8
Defpoints
 62
     0
100
AcDbPoint
 10
456.9998669991898
 20
116.9574601241295
 30
0.0
  0
POINT
  5
642
330
5DC
100
AcDbEntity
  8
Defpoints
 62
     0
100
AcDbPoint
 10
383.9205810302392
 20
116.9574601241295
 30
0.0
  0
POINT
  5
643
330
5DC
100
AcDbEntity
  8
Defpoints
 62
     0
100
AcDbPoint
 10
383.9205810302392
 20
104.9480051545756
 30
0.0
  0
ENDBLK
  5
5DE
330
5DC
100
AcDbEntity
  8
0
100
AcDbBlockEnd
  0
BLOCK
  5
5E9
330
5E8
100
AcDbEntity
  8
0
100
AcDbBlockBegin
  2
*D15
 70
     1
 10
0.0
 20
0.0
 30
0.0
  3
*D15
  1

  0
LINE
  5
644
330
5E8
100
AcDbEntity
  8
2寸法線
 62
     0
370
    -2
100
AcDbLine
 10
589.1807231972262
 20
223.1574601241368
 30
0.0
 11
589.1807231972262
 21
234.4456614611946
 31
0.0
  0
LINE
  5
645
330
5E8
100
AcDbEntity
  8
2寸法線
 62
     0
370
    -2
100
AcDbLine
 10
597.1807231972262
 20
225.9574601241368
 30
0.0
 11
597.1807231972262
 21
234.4456614611946
 31
0.0
  0
LINE
  5
646
330
5E8
100
AcDbEntity
  8
2寸法線
 62
     0
370
    -3
100
AcDbLine
 10
585.1807231972262
 20
233.4456614611946
 30
0.0
 11
581.1807231972262
 21
233.4456614611946
 31
0.0
  0
LINE
  5
647
330
5E8
100
AcDbEntity
  8
2寸法線
 62
     0
370
    -3
100
AcDbLine
 10
601.1807231972262
 20
233.4456614611946
 30
0.0
 11
605.1807231972262
 21
233.4456614611946
 31
0.0
  0
LINE
  5
648
330
5E8
100
AcDbEntity
  8
2寸法線
 62
     0
370
    -3
100
AcDbLine
 10
589.1807231972262
 20
233.4456614611946
 30
0.0
 11
597.1807231972262
 21
233.4456614611946
 31
0.0
  0
INSERT
  5
649
330
5E8
100
AcDbEntity
  8
2寸法線
 62
     0
370
    -3
100
AcDbBlockReference
  2
2
 10
589.1807231972262
 20
233.4456614611946
 30
0.0
 41
4.0
 42
4.0
 43
4.0
  0
INSERT
  5
64A
330
5E8
100
AcDbEntity
  8
2寸法線
 62
     0
370
    -3
100
AcDbBlockReference
  2
2
 10
597.1807231972262
 20
233.4456614611946
 30
0.0
 41
4.0
 42
4.0
 43
4.0
 50
180.0
  0
MTEXT
  5
64B
330
5E8
100
AcDbEntity
  8
2寸法線
 62
     0
100
AcDbMText
 10
593.1807231972262
 20
236.4456614611946
 30
0.0
 40
4.0
 41
0.0
 71
     5
 72
     1
  1
\A1;10
  7
KANJI
 73
     1
 44
1.0
1001
ACAD
1000
MTEXTBEGIN
1070
    73
1070
     1
1070
    44
1040
1.0
1070
    74
1070
     0
1000
MTEXTEND
  0
POINT
  5
64C
330
5E8
100
AcDbEntity
  8
Defpoints
 62
     0
100
AcDbPoint
 10
589.1807231972262
 20
222.1574601241368
 30
0.0
  0
POINT
  5
64D
330
5E8
100
AcDbEntity
  8
Defpoints
 62
     0
100
AcDbPoint
 10
597.1807231972262
 20
224.9574601241368
 30
0.0
  0
POINT
  5
64E
330
5E8
100
AcDbEntity
  8
Defpoints
 62
     0
100
AcDbPoint
 10
597.1807231972262
 20
233.4456614611946
 30
0.0
  0
ENDBLK
  5
5EA
330
5E8
100
AcDbEntity
  8
0
100
AcDbBlockEnd
  0
BLOCK
  5
5F7
330
5F6
100
AcDbEntity
  8
0
100
AcDbBlockBegin
  2
*D16
 70
     1
 10
0.0
 20
0.0
 30
0.0
  3
*D16
  1

  0
LINE
  5
64F
330
5F6
100
AcDbEntity
  8
2寸法線
 62
     0
370
    -2
100
AcDbLine
 10
587.9127740047912
 20
204.9574601241296
 30
0.0
 11
524.6153385124391
 21
204.9574601241296
 31
0.0
  0
LINE
  5
650
330
5F6
100
AcDbEntity
  8
2寸法線
 62
     0
370
    -2
100
AcDbLine
 10
540.1807231972266
 20
115.9574601241295
 30
0.0
 11
524.6153385124391
 21
115.9574601241295
 31
0.0
  0
LINE
  5
651
330
5F6
100
AcDbEntity
  8
2寸法線
 62
     0
370
    -3
100
AcDbLine
 10
525.6153385124391
 20
200.9574601241296
 30
0.0
 11
525.6153385124391
 21
119.9574601241296
 31
0.0
  0
INSERT
  5
652
330
5F6
100
AcDbEntity
  8
2寸法線
 62
     0
370
    -3
100
AcDbBlockReference
  2
2
 10
525.6153385124391
 20
204.9574601241296
 30
0.0
 41
4.0
 42
4.0
 43
4.0
 50
90.0
  0
INSERT
  5
653
330
5F6
100
AcDbEntity
  8
2寸法線
 62
     0
370
    -3
100
AcDbBlockReference
  2
2
 10
525.6153385124391
 20
115.9574601241295
 30
0.0
 41
4.0
 42
4.0
 43
4.0
 50
270.0
  0
MTEXT
  5
654
330
5F6
100
AcDbEntity
  8
2寸法線
 62
     0
100
AcDbMText
 10
522.6153385124389
 20
160.4574601241294
 30
0.0
 40
4.0
 41
0.0
 71
     5
 72
     1
  1
\A1;110
  7
KANJI
 11
0.0000000000000001
 21
1.0
 31
0.0
 73
     1
 44
1.0
1001
ACAD
1000
MTEXTBEGIN
1070
    73
1070
     1
1070
    44
1040
1.0
1070
    74
1070
     0
1000
MTEXTEND
  0
POINT
  5
655
330
5F6
100
AcDbEntity
  8
Defpoints
 62
     0
100
AcDbPoint
 10
588.9127740047912
 20
204.9574601241296
 30
0.0
  0
POINT
  5
656
330
5F6
100
AcDbEntity
  8
Defpoints
 62
     0
100
AcDbPoint
 10
541.1807231972264
 20
115.9574601241295
 30
0.0
  0
POINT
  5
657
330
5F6
100
AcDbEntity
  8
Defpoints
 62
     0
100
AcDbPoint
 10
525.6153385124391
 20
115.9574601241295
 30
0.0
  0
ENDBLK
  5
5F8
330
5F6
100
AcDbEntity
  8
0
100
AcDbBlockEnd
  0
BLOCK
  5
603
330
602
100
AcDbEntity
  8
0
100
AcDbBlockBegin
  2
*D17
 70
     1
 10
0.0
 20
0.0
 30
0.0
  3
*D17
  1

  0
LINE
  5
658
330
602
100
AcDbEntity
  8
2寸法線
 62
     0
370
    -2
100
AcDbLine
 10
374.1442739299982
 20
202.401828380275
 30
0.0
 11
374.1442739299982
 21
236.0358296248321
 31
0.0
  0
LINE
  5
659
330
602
100
AcDbEntity
  8
2寸法線
 62
     0
370
    -2
100
AcDbLine
 10
467.0167047353216
 20
202.4018283802742
 30
0.0
 11
467.0167047353216
 21
236.0358296248321
 31
0.0
  0
LINE
  5
65A
330
602
100
AcDbEntity
  8
2寸法線
 62
     0
370
    -3
100
AcDbLine
 10
378.1442739299982
 20
235.0358296248321
 30
0.0
 11
463.0167047353216
 21
235.0358296248321
 31
0.0
  0
INSERT
  5
65B
330
602
100
AcDbEntity
  8
2寸法線
 62
     0
370
    -3
100
AcDbBlockReference
  2
2
 10
374.1442739299982
 20
235.0358296248321
 30
0.0
 41
4.0
 42
4.0
 43
4.0
 50
180.0
  0
INSERT
  5
65C
330
602
100
AcDbEntity
  8
2寸法線
 62
     0
370
    -3
100
AcDbBlockReference
  2
2
 10
467.0167047353216
 20
235.0358296248321
 30
0.0
 41
4.0
 42
4.0
 43
4.0
  0
MTEXT
  5
65D
330
602
100
AcDbEntity
  8
2寸法線
 62
     0
100
AcDbMText
 10
420.5804893326599
 20
238.0358296248321
 30
0.0
 40
4.0
 41
0.0
 71
     5
 72
     1
  1
\A1;115
  7
KANJI
 73
     1
 44
1.0
1001
ACAD
1000
MTEXTBEGIN
1070
    73
1070
     1
1070
    44
1040
1.0
1070
    74
1070
     0
1000
MTEXTEND
  0
POINT
  5
65E
330
602
100
AcDbEntity
  8
Defpoints
 62
     0
100
AcDbPoint
 10
374.1442739299982
 20
201.401828380275
 30
0.0
  0
POINT
  5
65F
330
602
100
AcDbEntity
  8
Defpoints
 62
     0
100
AcDbPoint
 10
467.0167047353216
 20
201.4018283802742
 30
0.0
  0
POINT
  5
660
330
602
100
AcDbEntity
  8
Defpoints
 62
     0
100
AcDbPoint
 10
467.0167047353216
 20
235.0358296248321
 30
0.0
  0
ENDBLK
  5
604
330
602
100
AcDbEntity
  8
0
100
AcDbBlockEnd
  0
BLOCK
  5
60F
330
60E
100
AcDbEntity
  8
0
100
AcDbBlockBegin
  2
*D18
 70
     1
 10
0.0
 20
0.0
 30
0.0
  3
*D18
  1

  0
LINE
  5
661
330
60E
100
AcDbEntity
  8
2寸法線
 62
     0
370
    -2
100
AcDbLine
 10
372.5804893326586
 20
115.9574601241295
 30
0.0
 11
372.5804893326586
 21
87.01377026004205
 31
0.0
  0
LINE
  5
662
330
60E
100
AcDbEntity
  8
2寸法線
 62
     0
370
    -2
100
AcDbLine
 10
468.5804893326585
 20
115.9574601241295
 30
0.0
 11
468.5804893326585
 21
87.01377026004205
 31
0.0
  0
LINE
  5
663
330
60E
100
AcDbEntity
  8
2寸法線
 62
     0
370
    -3
100
AcDbLine
 10
376.5804893326585
 20
88.01377026004205
 30
0.0
 11
464.5804893326585
 21
88.01377026004205
 31
0.0
  0
INSERT
  5
664
330
60E
100
AcDbEntity
  8
2寸法線
 62
     0
370
    -3
100
AcDbBlockReference
  2
2
 10
372.5804893326586
 20
88.01377026004205
 30
0.0
 41
4.0
 42
4.0
 43
4.0
 50
180.0
  0
INSERT
  5
665
330
60E
100
AcDbEntity
  8
2寸法線
 62
     0
370
    -3
100
AcDbBlockReference
  2
2
 10
468.5804893326585
 20
88.01377026004205
 30
0.0
 41
4.0
 42
4.0
 43
4.0
  0
MTEXT
  5
666
330
60E
100
AcDbEntity
  8
2寸法線
 62
     0
100
AcDbMText
 10
420.5804893326584
 20
91.01377026004206
 30
0.0
 40
4.0
 41
0.0
 71
     5
 72
     1
  1
\A1;120
  7
KANJI
 73
     1
 44
1.0
1001
ACAD
1000
MTEXTBEGIN
1070
    73
1070
     1
1070
    44
1040
1.0
1070
    74
1070
     0
1000
MTEXTEND
  0
POINT
  5
667
330
60E
100
AcDbEntity
  8
Defpoints
 62
     0
100
AcDbPoint
 10
372.5804893326586
 20
116.9574601241295
 30
0.0
  0
POINT
  5
668
330
60E
100
AcDbEntity
  8
Defpoints
 62
     0
100
AcDbPoint
 10
468.5804893326585
 20
116.9574601241295
 30
0.0
  0
POINT
  5
669
330
60E
100
AcDbEntity
  8
Defpoints
 62
     0
100
AcDbPoint
 10
468.5804893326585
 20
88.01377026004205
 30
0.0
  0
ENDBLK
  5
610
330
60E
100
AcDbEntity
  8
0
100
AcDbBlockEnd
  0
BLOCK
  5
61B
330
61A
100
AcDbEntity
  8
0
100
AcDbBlockBegin
  2
*D19
 70
     1
 10
0.0
 20
0.0
 30
0.0
  3
*D19
  1

  0
LINE
  5
66A
330
61A
100
AcDbEntity
  8
2寸法線
 62
     0
370
    -2
100
AcDbLine
 10
397.1401597617971
 20
224.9574601241296
 30
0.0
 11
364.8738552154628
 21
224.9574601241296
 31
0.0
  0
LINE
  5
66B
330
61A
100
AcDbEntity
  8
2寸法線
 62
     0
370
    -2
100
AcDbLine
 10
371.5804893326587
 20
116.9574601241295
 30
0.0
 11
364.8738552154628
 21
116.9574601241295
 31
0.0
  0
LINE
  5
66C
330
61A
100
AcDbEntity
  8
2寸法線
 62
     0
370
    -3
100
AcDbLine
 10
365.8738552154627
 20
220.9574601241296
 30
0.0
 11
365.8738552154628
 21
120.9574601241296
 31
0.0
  0
INSERT
  5
66D
330
61A
100
AcDbEntity
  8
2寸法線
 62
     0
370
    -3
100
AcDbBlockReference
  2
2
 10
365.8738552154627
 20
224.9574601241296
 30
0.0
 41
4.0
 42
4.0
 43
4.0
 50
90.0
  0
INSERT
  5
66E
330
61A
100
AcDbEntity
  8
2寸法線
 62
     0
370
    -3
100
AcDbBlockReference
  2
2
 10
365.8738552154628
 20
116.9574601241295
 30
0.0
 41
4.0
 42
4.0
 43
4.0
 50
270.0
  0
MTEXT
  5
66F
330
61A
100
AcDbEntity
  8
2寸法線
 62
     0
100
AcDbMText
 10
362.8738552154628
 20
170.9574601241295
 30
0.0
 40
4.0
 41
0.0
 71
     5
 72
     1
  1
\A1;135
  7
KANJI
 11
0.0000000000000001
 21
1.0
 31
0.0
 73
     1
 44
1.0
1001
ACAD
1000
MTEXTBEGIN
1070
    73
1070
     1
1070
    44
1040
1.0
1070
    74
1070
     0
1000
MTEXTEND
  0
POINT
  5
670
330
61A
100
AcDbEntity
  8
Defpoints
 62
     0
100
AcDbPoint
 10
398.1401597617971
 20
224.9574601241296
 30
0.0
  0
POINT
  5
671
330
61A
100
AcDbEntity
  8
Defpoints
 62
     0
100
AcDbPoint
 10
372.5804893326587
 20
116.9574601241295
 30
0.0
  0
POINT
  5
672
330
61A
100
AcDbEntity
  8
Defpoints
 62
     0
100
AcDbPoint
 10
365.8738552154628
 20
116.9574601241295
 30
0.0
  0
ENDBLK
  5
61C
330
61A
100
AcDbEntity
  8
0
100
AcDbBlockEnd
  0
BLOCK
  5
627
330
626
100
AcDbEntity
  8
0
100
AcDbBlockBegin
  2
*D20
 70
     1
 10
0.0
 20
0.0
 30
0.0
  3
*D20
  1

  0
LINE
  5
673
330
626
100
AcDbEntity
  8
2寸法線
 62
     0
370
    -2
100
AcDbLine
 10
440.0495225334792
 20
174.957460124129
 30
0.0
 11
487.1736928733746
 21
174.957460124129
 31
0.0
  0
LINE
  5
674
330
626
100
AcDbEntity
  8
2寸法線
 62
     0
370
    -2
100
AcDbLine
 10
457.99986699919
 20
116.9574601241295
 30
0.0
 11
487.1736928733747
 21
116.9574601241295
 31
0.0
  0
LINE
  5
675
330
626
100
AcDbEntity
  8
2寸法線
 62
     0
370
    -3
100
AcDbLine
 10
486.1736928733746
 20
170.957460124129
 30
0.0
 11
486.1736928733747
 21
120.9574601241296
 31
0.0
  0
INSERT
  5
676
330
626
100
AcDbEntity
  8
2寸法線
 62
     0
370
    -3
100
AcDbBlockReference
  2
2
 10
486.1736928733746
 20
174.957460124129
 30
0.0
 41
4.0
 42
4.0
 43
4.0
 50
90.0
  0
INSERT
  5
677
330
626
100
AcDbEntity
  8
2寸法線
 62
     0
370
    -3
100
AcDbBlockReference
  2
2
 10
486.1736928733747
 20
116.9574601241295
 30
0.0
 41
4.0
 42
4.0
 43
4.0
 50
270.0
  0
MTEXT
  5
678
330
626
100
AcDbEntity
  8
2寸法線
 62
     0
100
AcDbMText
 10
483.1736928733746
 20
145.9574601241291
 30
0.0
 40
4.0
 41
0.0
 71
     5
 72
     1
  1
\A1;73
  7
KANJI
 11
0.0000000000000001
 21
1.0
 31
0.0
 73
     1
 44
1.0
1001
ACAD
1000
MTEXTBEGIN
1070
    73
1070
     1
1070
    44
1040
1.0
1070
    74
1070
     0
1000
MTEXTEND
  0
POINT
  5
679
330
626
100
AcDbEntity
  8
Defpoints
 62
     0
100
AcDbPoint
 10
439.0495225334793
 20
174.957460124129
 30
0.0
  0
POINT
  5
67A
330
626
100
AcDbEntity
  8
Defpoints
 62
     0
100
AcDbPoint
 10
456.9998669991901
 20
116.9574601241295
 30
0.0
  0
POINT
  5
67B
330
626
100
AcDbEntity
  8
Defpoints
 62
     0
100
AcDbPoint
 10
486.1736928733747
 20
116.9574601241295
 30
0.0
  0
ENDBLK
  5
628
330
626
100
AcDbEntity
  8
0
100
AcDbBlockEnd
  0
BLOCK
  5
694
330
693
100
AcDbEntity
  8
0
100
AcDbBlockBegin
  2
*D21
 70
     1
 10
0.0
 20
0.0
 30
0.0
  3
*D21
  1

  0
LINE
  5
696
330
693
100
AcDbEntity
  8
0
 62
     0
370
    -2
100
AcDbLine
 10
219.0047625628448
 20
509.2535533865647
 30
0.0
 11
41.46303952414018
 21
509.2535533865646
 31
0.0
  0
LINE
  5
697
330
693
100
AcDbEntity
  8
0
 62
     0
370
    -2
100
AcDbLine
 10
219.0047625628448
 20
441.2535533865646
 30
0.0
 11
41.46303952414021
 21
441.2535533865646
 31
0.0
  0
LINE
  5
698
330
693
100
AcDbEntity
  8
0
 62
     0
370
    -2
100
AcDbLine
 10
42.71303952414018
 20
506.7535533865646
 30
0.0
 11
42.71303952414021
 21
443.7535533865646
 31
0.0
  0
SOLID
  5
699
330
693
100
AcDbEntity
  8
0
 62
     0
100
AcDbTrace
 10
42.29637285747352
 20
506.7535533865646
 30
0.0
 11
43.12970619080686
 21
506.7535533865646
 31
0.0
 12
42.71303952414018
 22
509.2535533865646
 32
0.0
 13
42.71303952414018
 23
509.2535533865646
 33
0.0
  0
SOLID
  5
69A
330
693
100
AcDbEntity
  8
0
 62
     0
100
AcDbTrace
 10
42.29637285747354
 20
443.7535533865646
 30
0.0
 11
43.12970619080686
 21
443.7535533865646
 31
0.0
 12
42.71303952414021
 22
441.2535533865646
 32
0.0
 13
42.71303952414021
 23
441.2535533865646
 33
0.0
  0
MTEXT
  5
69B
330
693
100
AcDbEntity
  8
0
 62
     0
100
AcDbMText
 10
40.83803952414032
 20
475.2535533865644
 30
0.0
 40
2.5
 41
0.0
 71
     5
 72
     1
  1
\A1;68
 11
0.0000000000000001
 21
1.0
 31
0.0
 73
     1
 44
1.0
1001
ACAD
1000
MTEXTBEGIN
1070
    73
1070
     1
1070
    44
1040
1.0
1070
    74
1070
     0
1000
MTEXTEND
  0
POINT
  5
69C
330
693
100
AcDbEntity
  8
Defpoints
 62
     0
100
AcDbPoint
 10
219.6297625628448
 20
509.2535533865647
 30
0.0
  0
POINT
  5
69D
330
693
100
AcDbEntity
  8
Defpoints
 62
     0
100
AcDbPoint
 10
219.6297625628448
 20
441.2535533865646
 30
0.0
  0
POINT
  5
69E
330
693
100
AcDbEntity
  8
Defpoints
 62
     0
100
AcDbPoint
 10
42.71303952414021
 20
441.2535533865646
 30
0.0
  0
ENDBLK
  5
695
330
693
100
AcDbEntity
  8
0
100
AcDbBlockEnd
  0
BLOCK
  5
6FB
330
6FA
100
AcDbEntity
  8
0
100
AcDbBlockBegin
  2
*D22
 70
     1
 10
0.0
 20
0.0
 30
0.0
  3
*D22
  1

  0
LINE
  5
6FC
330
6FA
100
AcDbEntity
  8
2寸法線
 62
     0
370
    -2
100
AcDbLine
 10
434.9249436225875
 20
345.5853240529604
 30
0.0
 11
422.093594354005
 21
345.5853240529604
 31
0.0
  0
LINE
  5
6FD
330
6FA
100
AcDbEntity
  8
2寸法線
 62
     0
370
    -2
100
AcDbLine
 10
434.9249436225876
 20
411.0853240529604
 30
0.0
 11
422.0935943540049
 21
411.0853240529604
 31
0.0
  0
LINE
  5
6FE
330
6FA
100
AcDbEntity
  8
2寸法線
 62
     0
370
    -2
100
AcDbLine
 10
423.3435943540049
 20
348.0853240529603
 30
0.0
 11
423.3435943540049
 21
408.5853240529604
 31
0.0
  0
SOLID
  5
6FF
330
6FA
100
AcDbEntity
  8
2寸法線
 62
     0
100
AcDbTrace
 10
422.9269276873383
 20
348.0853240529603
 30
0.0
 11
423.7602610206717
 21
348.0853240529603
 31
0.0
 12
423.3435943540049
 22
345.5853240529604
 32
0.0
 13
423.3435943540049
 23
345.5853240529604
 33
0.0
  0
SOLID
  5
700
330
6FA
100
AcDbEntity
  8
2寸法線
 62
     0
100
AcDbTrace
 10
422.9269276873382
 20
408.5853240529604
 30
0.0
 11
423.7602610206716
 21
408.5853240529604
 31
0.0
 12
423.3435943540049
 22
411.0853240529604
 32
0.0
 13
423.3435943540049
 23
411.0853240529604
 33
0.0
  0
MTEXT
  5
701
330
6FA
100
AcDbEntity
  8
2寸法線
 62
     0
100
AcDbMText
 10
421.4685943540049
 20
378.3353240529602
 30
0.0
 40
2.5
 41
0.0
 71
     5
 72
     1
  1
\A1;65.5
 11
0.0000000000000001
 21
1.0
 31
0.0
 73
     1
 44
1.0
1001
ACAD
1000
MTEXTBEGIN
1070
    73
1070
     1
1070
    44
1040
1.0
1070
    74
1070
     0
1000
MTEXTEND
  0
POINT
  5
702
330
6FA
100
AcDbEntity
  8
Defpoints
 62
     0
100
AcDbPoint
 10
435.5499436225875
 20
345.5853240529604
 30
0.0
  0
POINT
  5
703
330
6FA
100
AcDbEntity
  8
Defpoints
 62
     0
100
AcDbPoint
 10
435.5499436225876
 20
411.0853240529604
 30
0.0
  0
POINT
  5
704
330
6FA
100
AcDbEntity
  8
Defpoints
 62
     0
100
AcDbPoint
 10
423.3435943540049
 20
411.0853240529604
 30
0.0
  0
ENDBLK
  5
705
330
6FA
100
AcDbEntity
  8
0
100
AcDbBlockEnd
  0
BLOCK
  5
707
330
706
100
AcDbEntity
  8
0
100
AcDbBlockBegin
  2
*D23
 70
     1
 10
0.0
 20
0.0
 30
0.0
  3
*D23
  1

  0
LINE
  5
708
330
706
100
AcDbEntity
  8
2寸法線
 62
     0
370
    -2
100
AcDbLine
 10
511.841792410129
 20
413.5853240529604
 30
0.0
 11
495.8253339019062
 21
413.5853240529604
 31
0.0
  0
LINE
  5
709
330
706
100
AcDbEntity
  8
2寸法線
 62
     0
370
    -2
100
AcDbLine
 10
511.8417924101291
 20
345.5853240529604
 30
0.0
 11
495.8253339019062
 21
345.5853240529604
 31
0.0
  0
LINE
  5
70A
330
706
100
AcDbEntity
  8
2寸法線
 62
     0
370
    -2
100
AcDbLine
 10
497.0753339019061
 20
411.0853240529604
 30
0.0
 11
497.0753339019062
 21
348.0853240529603
 31
0.0
  0
SOLID
  5
70B
330
706
100
AcDbEntity
  8
2寸法線
 62
     0
100
AcDbTrace
 10
496.6586672352395
 20
411.0853240529604
 30
0.0
 11
497.4920005685729
 21
411.0853240529604
 31
0.0
 12
497.0753339019061
 22
413.5853240529604
 32
0.0
 13
497.0753339019061
 23
413.5853240529604
 33
0.0
  0
SOLID
  5
70C
330
706
100
AcDbEntity
  8
2寸法線
 62
     0
100
AcDbTrace
 10
496.6586672352396
 20
348.0853240529603
 30
0.0
 11
497.492000568573
 21
348.0853240529603
 31
0.0
 12
497.0753339019062
 22
345.5853240529604
 32
0.0
 13
497.0753339019062
 23
345.5853240529604
 33
0.0
  0
MTEXT
  5
70D
330
706
100
AcDbEntity
  8
2寸法線
 62
     0
100
AcDbMText
 10
495.2003339019062
 20
379.5853240529602
 30
0.0
 40
2.5
 41
0.0
 71
     5
 72
     1
  1
\A1;68
 11
0.0000000000000001
 21
1.0
 31
0.0
 73
     1
 44
1.0
1001
ACAD
1000
MTEXTBEGIN
1070
    73
1070
     1
1070
    44
1040
1.0
1070
    74
1070
     0
1000
MTEXTEND
  0
POINT
  5
70E
330
706
100
AcDbEntity
  8
Defpoints
 62
     0
100
AcDbPoint
 10
512.4667924101291
 20
413.5853240529604
 30
0.0
  0
POINT
  5
70F
330
706
100
AcDbEntity
  8
Defpoints
 62
     0
100
AcDbPoint
 10
512.4667924101291
 20
345.5853240529604
 30
0.0
  0
POINT
  5
710
330
706
100
AcDbEntity
  8
Defpoints
 62
     0
100
AcDbPoint
 10
497.0753339019062
 20
345.5853240529604
 30
0.0
  0
ENDBLK
  5
711
330
706
100
AcDbEntity
  8
0
100
AcDbBlockEnd
  0
BLOCK
  5
713
330
712
100
AcDbEntity
  8
0
100
AcDbBlockBegin
  2
*D24
 70
     1
 10
0.0
 20
0.0
 30
0.0
  3
*D24
  1

  0
LINE
  5
714
330
712
100
AcDbEntity
  8
2寸法線
 62
     0
370
    -2
100
AcDbLine
 10
475.5499436225874
 20
371.6747901470276
 30
0.0
 11
475.5499436225874
 21
359.8811168657614
 31
0.0
  0
LINE
  5
715
330
712
100
AcDbEntity
  8
2寸法線
 62
     0
370
    -2
100
AcDbLine
 10
395.5499436225874
 20
371.6747901470276
 30
0.0
 11
395.5499436225874
 21
359.8811168657614
 31
0.0
  0
LINE
  5
716
330
712
100
AcDbEntity
  8
2寸法線
 62
     0
370
    -2
100
AcDbLine
 10
473.0499436225874
 20
361.1311168657615
 30
0.0
 11
398.0499436225874
 21
361.1311168657615
 31
0.0
  0
SOLID
  5
717
330
712
100
AcDbEntity
  8
2寸法線
 62
     0
100
AcDbTrace
 10
473.0499436225874
 20
361.5477835324281
 30
0.0
 11
473.0499436225874
 21
360.7144501990948
 31
0.0
 12
475.5499436225874
 22
361.1311168657615
 32
0.0
 13
475.5499436225874
 23
361.1311168657615
 33
0.0
  0
SOLID
  5
718
330
712
100
AcDbEntity
  8
2寸法線
 62
     0
100
AcDbTrace
 10
398.0499436225874
 20
361.5477835324281
 30
0.0
 11
398.0499436225874
 21
360.7144501990948
 31
0.0
 12
395.5499436225874
 22
361.1311168657615
 32
0.0
 13
395.5499436225874
 23
361.1311168657615
 33
0.0
  0
MTEXT
  5
719
330
712
100
AcDbEntity
  8
2寸法線
 62
     0
100
AcDbMText
 10
435.5499436225874
 20
363.0061168657614
 30
0.0
 40
2.5
 41
0.0
 71
     5
 72
     1
  1
\A1;80
 73
     1
 44
1.0
1001
ACAD
1000
MTEXTBEGIN
1070
    73
1070
     1
1070
    44
1040
1.0
1070
    74
1070
     0
1000
MTEXTEND
  0
POINT
  5
71A
330
712
100
AcDbEntity
  8
Defpoints
 62
     0
100
AcDbPoint
 10
475.5499436225874
 20
372.2997901470276
 30
0.0
  0
POINT
  5
71B
330
712
100
AcDbEntity
  8
Defpoints
 62
     0
100
AcDbPoint
 10
395.5499436225874
 20
372.2997901470276
 30
0.0
  0
POINT
  5
71C
330
712
100
AcDbEntity
  8
Defpoints
 62
     0
100
AcDbPoint
 10
395.5499436225874
 20
361.1311168657615
 30
0.0
  0
ENDBLK
  5
71D
330
712
100
AcDbEntity
  8
0
100
AcDbBlockEnd
  0
BLOCK
  5
71F
330
71E
100
AcDbEntity
  8
0
100
AcDbBlockBegin
  2
*D25
 70
     1
 10
0.0
 20
0.0
 30
0.0
  3
*D25
  1

  0
LINE
  5
720
330
71E
100
AcDbEntity
  8
2寸法線
 62
     0
370
    -2
100
AcDbLine
 10
397.9933604799622
 20
176.3750832794092
 30
0.0
 11
397.9933604799622
 21
163.6827508613182
 31
0.0
  0
LINE
  5
721
330
71E
100
AcDbEntity
  8
2寸法線
 62
     0
370
    -2
100
AcDbLine
 10
482.9933604799621
 20
176.3750832794091
 30
0.0
 11
482.9933604799621
 21
163.6827508613182
 31
0.0
  0
LINE
  5
722
330
71E
100
AcDbEntity
  8
2寸法線
 62
     0
370
    -2
100
AcDbLine
 10
400.4933604799622
 20
164.9327508613182
 30
0.0
 11
480.4933604799621
 21
164.9327508613182
 31
0.0
  0
SOLID
  5
723
330
71E
100
AcDbEntity
  8
2寸法線
 62
     0
100
AcDbTrace
 10
400.4933604799622
 20
165.3494175279849
 30
0.0
 11
400.4933604799622
 21
164.5160841946516
 31
0.0
 12
397.9933604799622
 22
164.9327508613182
 32
0.0
 13
397.9933604799622
 23
164.9327508613182
 33
0.0
  0
SOLID
  5
724
330
71E
100
AcDbEntity
  8
2寸法線
 62
     0
100
AcDbTrace
 10
480.4933604799621
 20
165.3494175279849
 30
0.0
 11
480.4933604799621
 21
164.5160841946516
 31
0.0
 12
482.9933604799621
 22
164.9327508613182
 32
0.0
 13
482.9933604799621
 23
164.9327508613182
 33
0.0
  0
MTEXT
  5
725
330
71E
100
AcDbEntity
  8
2寸法線
 62
     0
100
AcDbMText
 10
440.4933604799621
 20
166.8077508613182
 30
0.0
 40
2.5
 41
0.0
 71
     5
 72
     1
  1
\A1;85
 73
     1
 44
1.0
1001
ACAD
1000
MTEXTBEGIN
1070
    73
1070
     1
1070
    44
1040
1.0
1070
    74
1070
     0
1000
MTEXTEND
  0
POINT
  5
726
330
71E
100
AcDbEntity
  8
Defpoints
 62
     0
100
AcDbPoint
 10
397.9933604799622
 20
177.0000832794092
 30
0.0
  0
POINT
  5
727
330
71E
100
AcDbEntity
  8
Defpoints
 62
     0
100
AcDbPoint
 10
482.9933604799621
 20
177.0000832794091
 30
0.0
  0
POINT
  5
728
330
71E
100
AcDbEntity
  8
Defpoints
 62
     0
100
AcDbPoint
 10
482.9933604799621
 20
164.9327508613182
 30
0.0
  0
ENDBLK
  5
729
330
71E
100
AcDbEntity
  8
0
100
AcDbBlockEnd
  0
BLOCK
  5
72B
330
72A
100
AcDbEntity
  8
0
100
AcDbBlockBegin
  2
*D26
 70
     1
 10
0.0
 20
0.0
 30
0.0
  3
*D26
  1

  0
LINE
  5
72C
330
72A
100
AcDbEntity
  8
2寸法線
 62
     0
370
    -2
100
AcDbLine
 10
441.0683604779627
 20
221.4606160310289
 30
0.0
 11
441.6933604779631
 21
221.4606160310289
 31
0.0
  0
LINE
  5
72D
330
72A
100
AcDbEntity
  8
2寸法線
 62
     0
370
    -2
100
AcDbLine
 10
439.8683604799625
 20
153.4606160310288
 30
0.0
 11
439.1933604779632
 21
153.4606160310288
 31
0.0
  0
LINE
  5
72E
330
72A
100
AcDbEntity
  8
2寸法線
 62
     0
370
    -2
100
AcDbLine
 10
440.4433604779632
 20
218.9606160310289
 30
0.0
 11
440.4433604779632
 21
155.9606160310288
 31
0.0
  0
SOLID
  5
72F
330
72A
100
AcDbEntity
  8
2寸法線
 62
     0
100
AcDbTrace
 10
440.0266938112965
 20
218.9606160310289
 30
0.0
 11
440.8600271446299
 21
218.9606160310289
 31
0.0
 12
440.4433604779632
 22
221.4606160310289
 32
0.0
 13
440.4433604779632
 23
221.4606160310289
 33
0.0
  0
SOLID
  5
730
330
72A
100
AcDbEntity
  8
2寸法線
 62
     0
100
AcDbTrace
 10
440.0266938112965
 20
155.9606160310288
 30
0.0
 11
440.8600271446299
 21
155.9606160310288
 31
0.0
 12
440.4433604779632
 22
153.4606160310288
 32
0.0
 13
440.4433604779632
 23
153.4606160310288
 33
0.0
  0
MTEXT
  5
731
330
72A
100
AcDbEntity
  8
2寸法線
 62
     0
100
AcDbMText
 10
438.5683604779631
 20
187.4606160310287
 30
0.0
 40
2.5
 41
0.0
 71
     5
 72
     1
  1
\A1;68
 11
0.0000000000000001
 21
1.0
 31
0.0
 73
     1
 44
1.0
1001
ACAD
1000
MTEXTBEGIN
1070
    73
1070
     1
1070
    44
1040
1.0
1070
    74
1070
     0
1000
MTEXTEND
  0
POINT
  5
732
330
72A
100
AcDbEntity
  8
Defpoints
 62
     0
100
AcDbPoint
 10
440.4433604779627
 20
221.4606160310289
 30
0.0
  0
POINT
  5
733
330
72A
100
AcDbEntity
  8
Defpoints
 62
     0
100
AcDbPoint
 10
440.4933604799626
 20
153.4606160310288
 30
0.0
  0
POINT
  5
734
330
72A
100
AcDbEntity
  8
Defpoints
 62
     0
100
AcDbPoint
 10
440.4433604779632
 20
153.4606160310288
 30
0.0
  0
ENDBLK
  5
735
330
72A
100
AcDbEntity
  8
0
100
AcDbBlockEnd
  0
BLOCK
  5
737
330
736
100
AcDbEntity
  8
0
100
AcDbBlockBegin
  2
*D27
 70
     1
 10
0.0
 20
0.0
 30
0.0
  3
*D27
  1

  0
LINE
  5
738
330
736
100
AcDbEntity
  8
2寸法線
 62
     0
370
    -2
100
AcDbLine
 10
523.8964391871256
 20
223.9606160310289
 30
0.0
 11
507.5362060103505
 21
223.9606160310289
 31
0.0
  0
LINE
  5
739
330
736
100
AcDbEntity
  8
2寸法線
 62
     0
370
    -2
100
AcDbLine
 10
523.8964391871256
 20
150.9606160310288
 30
0.0
 11
507.5362060103505
 21
150.9606160310288
 31
0.0
  0
LINE
  5
73A
330
736
100
AcDbEntity
  8
2寸法線
 62
     0
370
    -2
100
AcDbLine
 10
508.7862060103505
 20
221.4606160310289
 30
0.0
 11
508.7862060103505
 21
153.4606160310288
 31
0.0
  0
SOLID
  5
73B
330
736
100
AcDbEntity
  8
2寸法線
 62
     0
100
AcDbTrace
 10
508.3695393436839
 20
221.4606160310289
 30
0.0
 11
509.2028726770172
 21
221.4606160310289
 31
0.0
 12
508.7862060103505
 22
223.9606160310289
 32
0.0
 13
508.7862060103505
 23
223.9606160310289
 33
0.0
  0
SOLID
  5
73C
330
736
100
AcDbEntity
  8
2寸法線
 62
     0
100
AcDbTrace
 10
508.3695393436839
 20
153.4606160310288
 30
0.0
 11
509.2028726770172
 21
153.4606160310288
 31
0.0
 12
508.7862060103505
 22
150.9606160310288
 32
0.0
 13
508.7862060103505
 23
150.9606160310288
 33
0.0
  0
MTEXT
  5
73D
330
736
100
AcDbEntity
  8
2寸法線
 62
     0
100
AcDbMText
 10
506.9112060103504
 20
187.4606160310286
 30
0.0
 40
2.5
 41
0.0
 71
     5
 72
     1
  1
\A1;73
 11
0.0000000000000001
 21
1.0
 31
0.0
 73
     1
 44
1.0
1001
ACAD
1000
MTEXTBEGIN
1070
    73
1070
     1
1070
    44
1040
1.0
1070
    74
1070
     0
1000
MTEXTEND
  0
POINT
  5
73E
330
736
100
AcDbEntity
  8
Defpoints
 62
     0
100
AcDbPoint
 10
524.5214391871257
 20
223.9606160310289
 30
0.0
  0
POINT
  5
73F
330
736
100
AcDbEntity
  8
Defpoints
 62
     0
100
AcDbPoint
 10
524.5214391871257
 20
150.9606160310288
 30
0.0
  0
POINT
  5
740
330
736
100
AcDbEntity
  8
Defpoints
 62
     0
100
AcDbPoint
 10
508.7862060103505
 20
150.9606160310288
 30
0.0
  0
ENDBLK
  5
741
330
736
100
AcDbEntity
  8
0
100
AcDbBlockEnd
  0
BLOCK
  5
7E3
330
7E2
100
AcDbEntity
  8
0
100
AcDbBlockBegin
  2
*D29
 70
     1
 10
0.0
 20
0.0
 30
0.0
  3
*D29
  1

  0
LINE
  5
82A
330
7E2
100
AcDbEntity
  8
2寸法線
 62
     0
370
    -2
100
AcDbLine
 10
479.8978431672715
 20
419.4268393517002
 30
0.0
 11
467.0664938986891
 21
419.4268393517002
 31
0.0
  0
LINE
  5
82B
330
7E2
100
AcDbEntity
  8
2寸法線
 62
     0
370
    -2
100
AcDbLine
 10
479.8978431672716
 20
484.9268393517002
 30
0.0
 11
467.0664938986891
 21
484.9268393517002
 31
0.0
  0
LINE
  5
82C
330
7E2
100
AcDbEntity
  8
2寸法線
 62
     0
370
    -2
100
AcDbLine
 10
468.3164938986891
 20
421.9268393517002
 30
0.0
 11
468.3164938986891
 21
482.4268393517002
 31
0.0
  0
SOLID
  5
82D
330
7E2
100
AcDbEntity
  8
2寸法線
 62
     0
100
AcDbTrace
 10
467.8998272320225
 20
421.9268393517002
 30
0.0
 11
468.7331605653558
 21
421.9268393517002
 31
0.0
 12
468.3164938986891
 22
419.4268393517002
 32
0.0
 13
468.3164938986891
 23
419.4268393517002
 33
0.0
  0
SOLID
  5
82E
330
7E2
100
AcDbEntity
  8
2寸法線
 62
     0
100
AcDbTrace
 10
467.8998272320225
 20
482.4268393517002
 30
0.0
 11
468.7331605653558
 21
482.4268393517002
 31
0.0
 12
468.3164938986891
 22
484.9268393517002
 32
0.0
 13
468.3164938986891
 23
484.9268393517002
 33
0.0
  0
MTEXT
  5
82F
330
7E2
100
AcDbEntity
  8
2寸法線
 62
     0
100
AcDbMText
 10
466.4414938986891
 20
452.1768393516999
 30
0.0
 40
2.5
 41
0.0
 71
     5
 72
     1
  1
\A1;65.5
 11
0.0000000000000001
 21
1.0
 31
0.0
 73
     1
 44
1.0
1001
ACAD
1000
MTEXTBEGIN
1070
    73
1070
     1
1070
    44
1040
1.0
1070
    74
1070
     0
1000
MTEXTEND
  0
POINT
  5
830
330
7E2
100
AcDbEntity
  8
Defpoints
 62
     0
100
AcDbPoint
 10
480.5228431672714
 20
419.4268393517002
 30
0.0
  0
POINT
  5
831
330
7E2
100
AcDbEntity
  8
Defpoints
 62
     0
100
AcDbPoint
 10
480.5228431672715
 20
484.9268393517002
 30
0.0
  0
POINT
  5
832
330
7E2
100
AcDbEntity
  8
Defpoints
 62
     0
100
AcDbPoint
 10
468.3164938986891
 20
484.9268393517002
 30
0.0
  0
ENDBLK
  5
7E4
330
7E2
100
AcDbEntity
  8
0
100
AcDbBlockEnd
  0
BLOCK
  5
7EF
330
7EE
100
AcDbEntity
  8
0
100
AcDbBlockBegin
  2
*D30
 70
     1
 10
0.0
 20
0.0
 30
0.0
  3
*D30
  1

  0
LINE
  5
833
330
7EE
100
AcDbEntity
  8
2寸法線
 62
     0
370
    -2
100
AcDbLine
 10
556.814691954813
 20
487.4268393517001
 30
0.0
 11
540.7982334465905
 21
487.4268393517001
 31
0.0
  0
LINE
  5
834
330
7EE
100
AcDbEntity
  8
2寸法線
 62
     0
370
    -2
100
AcDbLine
 10
556.814691954813
 20
419.4268393517002
 30
0.0
 11
540.7982334465905
 21
419.4268393517002
 31
0.0
  0
LINE
  5
835
330
7EE
100
AcDbEntity
  8
2寸法線
 62
     0
370
    -2
100
AcDbLine
 10
542.0482334465905
 20
484.9268393517002
 30
0.0
 11
542.0482334465905
 21
421.9268393517002
 31
0.0
  0
SOLID
  5
836
330
7EE
100
AcDbEntity
  8
2寸法線
 62
     0
100
AcDbTrace
 10
541.6315667799239
 20
484.9268393517002
 30
0.0
 11
542.4649001132571
 21
484.9268393517002
 31
0.0
 12
542.0482334465905
 22
487.4268393517001
 32
0.0
 13
542.0482334465905
 23
487.4268393517001
 33
0.0
  0
SOLID
  5
837
330
7EE
100
AcDbEntity
  8
2寸法線
 62
     0
100
AcDbTrace
 10
541.6315667799239
 20
421.9268393517002
 30
0.0
 11
542.4649001132571
 21
421.9268393517002
 31
0.0
 12
542.0482334465905
 22
419.4268393517002
 32
0.0
 13
542.0482334465905
 23
419.4268393517002
 33
0.0
  0
MTEXT
  5
838
330
7EE
100
AcDbEntity
  8
2寸法線
 62
     0
100
AcDbMText
 10
540.1732334465905
 20
453.4268393516999
 30
0.0
 40
2.5
 41
0.0
 71
     5
 72
     1
  1
\A1;68
 11
0.0000000000000001
 21
1.0
 31
0.0
 73
     1
 44
1.0
1001
ACAD
1000
MTEXTBEGIN
1070
    73
1070
     1
1070
    44
1040
1.0
1070
    74
1070
     0
1000
MTEXTEND
  0
POINT
  5
839
330
7EE
100
AcDbEntity
  8
Defpoints
 62
     0
100
AcDbPoint
 10
557.439691954813
 20
487.4268393517001
 30
0.0
  0
POINT
  5
83A
330
7EE
100
AcDbEntity
  8
Defpoints
 62
     0
100
AcDbPoint
 10
557.439691954813
 20
419.4268393517002
 30
0.0
  0
POINT
  5
83B
330
7EE
100
AcDbEntity
  8
Defpoints
 62
     0
100
AcDbPoint
 10
542.0482334465905
 20
419.4268393517002
 30
0.0
  0
ENDBLK
  5
7F0
330
7EE
100
AcDbEntity
  8
0
100
AcDbBlockEnd
  0
BLOCK
  5
7FB
330
7FA
100
AcDbEntity
  8
0
100
AcDbBlockBegin
  2
*D31
 70
     1
 10
0.0
 20
0.0
 30
0.0
  3
*D31
  1

  0
LINE
  5
83C
330
7FA
100
AcDbEntity
  8
2寸法線
 62
     0
370
    -2
100
AcDbLine
 10
520.5228431672714
 20
445.5163054457673
 30
0.0
 11
520.5228431672714
 21
433.7226321645012
 31
0.0
  0
LINE
  5
83D
330
7FA
100
AcDbEntity
  8
2寸法線
 62
     0
370
    -2
100
AcDbLine
 10
440.5228431672713
 20
445.5163054457673
 30
0.0
 11
440.5228431672713
 21
433.7226321645012
 31
0.0
  0
LINE
  5
83E
330
7FA
100
AcDbEntity
  8
2寸法線
 62
     0
370
    -2
100
AcDbLine
 10
518.0228431672714
 20
434.9726321645012
 30
0.0
 11
443.0228431672714
 21
434.9726321645012
 31
0.0
  0
SOLID
  5
83F
330
7FA
100
AcDbEntity
  8
2寸法線
 62
     0
100
AcDbTrace
 10
518.0228431672714
 20
435.3892988311678
 30
0.0
 11
518.0228431672714
 21
434.5559654978345
 31
0.0
 12
520.5228431672714
 22
434.9726321645012
 32
0.0
 13
520.5228431672714
 23
434.9726321645012
 33
0.0
  0
SOLID
  5
840
330
7FA
100
AcDbEntity
  8
2寸法線
 62
     0
100
AcDbTrace
 10
443.0228431672714
 20
435.3892988311678
 30
0.0
 11
443.0228431672714
 21
434.5559654978345
 31
0.0
 12
440.5228431672713
 22
434.9726321645012
 32
0.0
 13
440.5228431672713
 23
434.9726321645012
 33
0.0
  0
MTEXT
  5
841
330
7FA
100
AcDbEntity
  8
2寸法線
 62
     0
100
AcDbMText
 10
480.5228431672714
 20
436.8476321645012
 30
0.0
 40
2.5
 41
0.0
 71
     5
 72
     1
  1
\A1;80
 73
     1
 44
1.0
1001
ACAD
1000
MTEXTBEGIN
1070
    73
1070
     1
1070
    44
1040
1.0
1070
    74
1070
     0
1000
MTEXTEND
  0
POINT
  5
842
330
7FA
100
AcDbEntity
  8
Defpoints
 62
     0
100
AcDbPoint
 10
520.5228431672714
 20
446.1413054457673
 30
0.0
  0
POINT
  5
843
330
7FA
100
AcDbEntity
  8
Defpoints
 62
     0
100
AcDbPoint
 10
440.5228431672713
 20
446.1413054457673
 30
0.0
  0
POINT
  5
844
330
7FA
100
AcDbEntity
  8
Defpoints
 62
     0
100
AcDbPoint
 10
440.5228431672713
 20
434.9726321645012
 30
0.0
  0
ENDBLK
  5
7FC
330
7FA
100
AcDbEntity
  8
0
100
AcDbBlockEnd
  0
BLOCK
  5
807
330
806
100
AcDbEntity
  8
0
100
AcDbBlockBegin
  2
*D32
 70
     1
 10
0.0
 20
0.0
 30
0.0
  3
*D32
  1

  0
LINE
  5
845
330
806
100
AcDbEntity
  8
2寸法線
 62
     0
370
    -2
100
AcDbLine
 10
442.9662600246461
 20
250.2165985781489
 30
0.0
 11
442.9662600246461
 21
237.524266160058
 31
0.0
  0
LINE
  5
846
330
806
100
AcDbEntity
  8
2寸法線
 62
     0
370
    -2
100
AcDbLine
 10
527.966260024646
 20
250.2165985781489
 30
0.0
 11
527.966260024646
 21
237.524266160058
 31
0.0
  0
LINE
  5
847
330
806
100
AcDbEntity
  8
2寸法線
 62
     0
370
    -2
100
AcDbLine
 10
445.4662600246462
 20
238.774266160058
 30
0.0
 11
525.4662600246461
 21
238.774266160058
 31
0.0
  0
SOLID
  5
848
330
806
100
AcDbEntity
  8
2寸法線
 62
     0
100
AcDbTrace
 10
445.4662600246462
 20
239.1909328267247
 30
0.0
 11
445.4662600246462
 21
238.3575994933913
 31
0.0
 12
442.9662600246461
 22
238.774266160058
 32
0.0
 13
442.9662600246461
 23
238.774266160058
 33
0.0
  0
SOLID
  5
849
330
806
100
AcDbEntity
  8
2寸法線
 62
     0
100
AcDbTrace
 10
525.4662600246461
 20
239.1909328267247
 30
0.0
 11
525.4662600246461
 21
238.3575994933913
 31
0.0
 12
527.966260024646
 22
238.774266160058
 32
0.0
 13
527.966260024646
 23
238.774266160058
 33
0.0
  0
MTEXT
  5
84A
330
806
100
AcDbEntity
  8
2寸法線
 62
     0
100
AcDbMText
 10
485.4662600246461
 20
240.649266160058
 30
0.0
 40
2.5
 41
0.0
 71
     5
 72
     1
  1
\A1;85
 73
     1
 44
1.0
1001
ACAD
1000
MTEXTBEGIN
1070
    73
1070
     1
1070
    44
1040
1.0
1070
    74
1070
     0
1000
MTEXTEND
  0
POINT
  5
84B
330
806
100
AcDbEntity
  8
Defpoints
 62
     0
100
AcDbPoint
 10
442.9662600246461
 20
250.8415985781489
 30
0.0
  0
POINT
  5
84C
330
806
100
AcDbEntity
  8
Defpoints
 62
     0
100
AcDbPoint
 10
527.966260024646
 20
250.8415985781489
 30
0.0
  0
POINT
  5
84D
330
806
100
AcDbEntity
  8
Defpoints
 62
     0
100
AcDbPoint
 10
527.966260024646
 20
238.774266160058
 30
0.0
  0
ENDBLK
  5
808
330
806
100
AcDbEntity
  8
0
100
AcDbBlockEnd
  0
BLOCK
  5
813
330
812
100
AcDbEntity
  8
0
100
AcDbBlockBegin
  2
*D33
 70
     1
 10
0.0
 20
0.0
 30
0.0
  3
*D33
  1

  0
LINE
  5
84E
330
812
100
AcDbEntity
  8
2寸法線
 62
     0
370
    -2
100
AcDbLine
 10
486.0412600226466
 20
295.3021313297687
 30
0.0
 11
486.6662600226474
 21
295.3021313297687
 31
0.0
  0
LINE
  5
84F
330
812
100
AcDbEntity
  8
2寸法線
 62
     0
370
    -2
100
AcDbLine
 10
484.8412600246465
 20
227.3021313297686
 30
0.0
 11
484.1662600226474
 21
227.3021313297686
 31
0.0
  0
LINE
  5
850
330
812
100
AcDbEntity
  8
2寸法線
 62
     0
370
    -2
100
AcDbLine
 10
485.4162600226474
 20
292.8021313297687
 30
0.0
 11
485.4162600226474
 21
229.8021313297686
 31
0.0
  0
SOLID
  5
851
330
812
100
AcDbEntity
  8
2寸法線
 62
     0
100
AcDbTrace
 10
484.9995933559807
 20
292.8021313297687
 30
0.0
 11
485.832926689314
 21
292.8021313297687
 31
0.0
 12
485.4162600226474
 22
295.3021313297687
 32
0.0
 13
485.4162600226474
 23
295.3021313297687
 33
0.0
  0
SOLID
  5
852
330
812
100
AcDbEntity
  8
2寸法線
 62
     0
100
AcDbTrace
 10
484.9995933559807
 20
229.8021313297686
 30
0.0
 11
485.832926689314
 21
229.8021313297686
 31
0.0
 12
485.4162600226474
 22
227.3021313297686
 32
0.0
 13
485.4162600226474
 23
227.3021313297686
 33
0.0
  0
MTEXT
  5
853
330
812
100
AcDbEntity
  8
2寸法線
 62
     0
100
AcDbMText
 10
483.5412600226473
 20
261.3021313297684
 30
0.0
 40
2.5
 41
0.0
 71
     5
 72
     1
  1
\A1;68
 11
0.0000000000000001
 21
1.0
 31
0.0
 73
     1
 44
1.0
1001
ACAD
1000
MTEXTBEGIN
1070
    73
1070
     1
1070
    44
1040
1.0
1070
    74
1070
     0
1000
MTEXTEND
  0
POINT
  5
854
330
812
100
AcDbEntity
  8
Defpoints
 62
     0
100
AcDbPoint
 10
485.4162600226467
 20
295.3021313297687
 30
0.0
  0
POINT
  5
855
330
812
100
AcDbEntity
  8
Defpoints
 62
     0
100
AcDbPoint
 10
485.4662600246465
 20
227.3021313297686
 30
0.0
  0
POINT
  5
856
330
812
100
AcDbEntity
  8
Defpoints
 62
     0
100
AcDbPoint
 10
485.4162600226474
 20
227.3021313297686
 30
0.0
  0
ENDBLK
  5
814
330
812
100
AcDbEntity
  8
0
100
AcDbBlockEnd
  0
BLOCK
  5
81F
330
81E
100
AcDbEntity
  8
0
100
AcDbBlockBegin
  2
*D34
 70
     1
 10
0.0
 20
0.0
 30
0.0
  3
*D34
  1

  0
LINE
  5
857
330
81E
100
AcDbEntity
  8
2寸法線
 62
     0
370
    -2
100
AcDbLine
 10
568.8693387318096
 20
297.8021313297687
 30
0.0
 11
552.5091055550347
 21
297.8021313297687
 31
0.0
  0
LINE
  5
858
330
81E
100
AcDbEntity
  8
2寸法線
 62
     0
370
    -2
100
AcDbLine
 10
568.8693387318096
 20
224.8021313297686
 30
0.0
 11
552.5091055550348
 21
224.8021313297686
 31
0.0
  0
LINE
  5
859
330
81E
100
AcDbEntity
  8
2寸法線
 62
     0
370
    -2
100
AcDbLine
 10
553.7591055550347
 20
295.3021313297687
 30
0.0
 11
553.7591055550348
 21
227.3021313297686
 31
0.0
  0
SOLID
  5
85A
330
81E
100
AcDbEntity
  8
2寸法線
 62
     0
100
AcDbTrace
 10
553.342438888368
 20
295.3021313297687
 30
0.0
 11
554.1757722217012
 21
295.3021313297687
 31
0.0
 12
553.7591055550347
 22
297.8021313297687
 32
0.0
 13
553.7591055550347
 23
297.8021313297687
 33
0.0
  0
SOLID
  5
85B
330
81E
100
AcDbEntity
  8
2寸法線
 62
     0
100
AcDbTrace
 10
553.3424388883681
 20
227.3021313297686
 30
0.0
 11
554.1757722217014
 21
227.3021313297686
 31
0.0
 12
553.7591055550348
 22
224.8021313297686
 32
0.0
 13
553.7591055550348
 23
224.8021313297686
 33
0.0
  0
MTEXT
  5
85C
330
81E
100
AcDbEntity
  8
2寸法線
 62
     0
100
AcDbMText
 10
551.8841055550346
 20
261.3021313297684
 30
0.0
 40
2.5
 41
0.0
 71
     5
 72
     1
  1
\A1;73
 11
0.0000000000000001
 21
1.0
 31
0.0
 73
     1
 44
1.0
1001
ACAD
1000
MTEXTBEGIN
1070
    73
1070
     1
1070
    44
1040
1.0
1070
    74
1070
     0
1000
MTEXTEND
  0
POINT
  5
85D
330
81E
100
AcDbEntity
  8
Defpoints
 62
     0
100
AcDbPoint
 10
569.4943387318097
 20
297.8021313297687
 30
0.0
  0
POINT
  5
85E
330
81E
100
AcDbEntity
  8
Defpoints
 62
     0
100
AcDbPoint
 10
569.4943387318097
 20
224.8021313297686
 30
0.0
  0
POINT
  5
85F
330
81E
100
AcDbEntity
  8
Defpoints
 62
     0
100
AcDbPoint
 10
553.7591055550348
 20
224.8021313297686
 30
0.0
  0
ENDBLK
  5
820
330
81E
100
AcDbEntity
  8
0
100
AcDbBlockEnd
  0
BLOCK
  5
862
330
861
100
AcDbEntity
  8
0
100
AcDbBlockBegin
  2
*D35
 70
     1
 10
0.0
 20
0.0
 30
0.0
  3
*D35
  1

  0
LINE
  5
8B0
330
861
100
AcDbEntity
  8
0
 62
     0
370
    -2
100
AcDbLine
 10
80.08240741378683
 20
484.5930194806318
 30
0.0
 11
80.08240741378683
 21
474.2459528374275
 31
0.0
  0
LINE
  5
8B1
330
861
100
AcDbEntity
  8
0
 62
     0
370
    -2
100
AcDbLine
 10
160.0824074137868
 20
484.5930194806317
 30
0.0
 11
160.0824074137868
 21
474.2459528374275
 31
0.0
  0
LINE
  5
8B2
330
861
100
AcDbEntity
  8
0
 62
     0
370
    -2
100
AcDbLine
 10
82.58240741378683
 20
475.4959528374274
 30
0.0
 11
157.5824074137868
 21
475.4959528374274
 31
0.0
  0
SOLID
  5
8B3
330
861
100
AcDbEntity
  8
0
 62
     0
100
AcDbTrace
 10
82.58240741378683
 20
475.9126195040941
 30
0.0
 11
82.58240741378683
 21
475.0792861707608
 31
0.0
 12
80.08240741378683
 22
475.4959528374274
 32
0.0
 13
80.08240741378683
 23
475.4959528374274
 33
0.0
  0
SOLID
  5
8B4
330
861
100
AcDbEntity
  8
0
 62
     0
100
AcDbTrace
 10
157.5824074137868
 20
475.9126195040941
 30
0.0
 11
157.5824074137868
 21
475.0792861707608
 31
0.0
 12
160.0824074137868
 22
475.4959528374274
 32
0.0
 13
160.0824074137868
 23
475.4959528374274
 33
0.0
  0
MTEXT
  5
8B5
330
861
100
AcDbEntity
  8
0
 62
     0
100
AcDbMText
 10
120.0824074137868
 20
477.3709528374275
 30
0.0
 40
2.5
 41
0.0
 71
     5
 72
     1
  1
\A1;80
 73
     1
 44
1.0
1001
ACAD
1000
MTEXTBEGIN
1070
    73
1070
     1
1070
    44
1040
1.0
1070
    74
1070
     0
1000
MTEXTEND
  0
POINT
  5
8B6
330
861
100
AcDbEntity
  8
Defpoints
 62
     0
100
AcDbPoint
 10
80.08240741378683
 20
485.2180194806318
 30
0.0
  0
POINT
  5
8B7
330
861
100
AcDbEntity
  8
Defpoints
 62
     0
100
AcDbPoint
 10
160.0824074137868
 20
485.2180194806317
 30
0.0
  0
POINT
  5
8B8
330
861
100
AcDbEntity
  8
Defpoints
 62
     0
100
AcDbPoint
 10
160.0824074137868
 20
475.4959528374274
 30
0.0
  0
ENDBLK
  5
863
330
861
100
AcDbEntity
  8
0
100
AcDbBlockEnd
  0
BLOCK
  5
86F
330
86E
100
AcDbEntity
  8
0
100
AcDbBlockBegin
  2
*D36
 70
     1
 10
0.0
 20
0.0
 30
0.0
  3
*D36
  1

  0
LINE
  5
8A7
330
86E
100
AcDbEntity
  8
0
 62
     0
370
    -2
100
AcDbLine
 10
120.7074074137867
 20
509.2535533865649
 30
0.0
 11
140.1512855511529
 21
509.2535533865649
 31
0.0
  0
LINE
  5
8A8
330
86E
100
AcDbEntity
  8
0
 62
     0
370
    -2
100
AcDbLine
 10
120.7074074137864
 20
441.2535533865646
 30
0.0
 11
140.1512855511529
 21
441.2535533865646
 31
0.0
  0
LINE
  5
8A9
330
86E
100
AcDbEntity
  8
0
 62
     0
370
    -2
100
AcDbLine
 10
138.9012855511529
 20
506.7535533865649
 30
0.0
 11
138.9012855511529
 21
443.7535533865647
 31
0.0
  0
SOLID
  5
8AA
330
86E
100
AcDbEntity
  8
0
 62
     0
100
AcDbTrace
 10
138.4846188844862
 20
506.7535533865649
 30
0.0
 11
139.3179522178195
 21
506.7535533865649
 31
0.0
 12
138.9012855511529
 22
509.2535533865649
 32
0.0
 13
138.9012855511529
 23
509.2535533865649
 33
0.0
  0
SOLID
  5
8AB
330
86E
100
AcDbEntity
  8
0
 62
     0
100
AcDbTrace
 10
138.4846188844863
 20
443.7535533865647
 30
0.0
 11
139.3179522178196
 21
443.7535533865647
 31
0.0
 12
138.9012855511529
 22
441.2535533865646
 32
0.0
 13
138.9012855511529
 23
441.2535533865646
 33
0.0
  0
MTEXT
  5
8AC
330
86E
100
AcDbEntity
  8
0
 62
     0
100
AcDbMText
 10
137.026285551153
 20
475.2535533865646
 30
0.0
 40
2.5
 41
0.0
 71
     5
 72
     1
  1
\A1;68
 11
0.0000000000000001
 21
1.0
 31
0.0
 73
     1
 44
1.0
1001
ACAD
1000
MTEXTBEGIN
1070
    73
1070
     1
1070
    44
1040
1.0
1070
    74
1070
     0
1000
MTEXTEND
  0
POINT
  5
8AD
330
86E
100
AcDbEntity
  8
Defpoints
 62
     0
100
AcDbPoint
 10
120.0824074137867
 20
509.2535533865649
 30
0.0
  0
POINT
  5
8AE
330
86E
100
AcDbEntity
  8
Defpoints
 62
     0
100
AcDbPoint
 10
120.0824074137864
 20
441.2535533865646
 30
0.0
  0
POINT
  5
8AF
330
86E
100
AcDbEntity
  8
Defpoints
 62
     0
100
AcDbPoint
 10
138.9012855511529
 20
441.2535533865646
 30
0.0
  0
ENDBLK
  5
870
330
86E
100
AcDbEntity
  8
0
100
AcDbBlockEnd
  0
BLOCK
  5
87C
330
87B
100
AcDbEntity
  8
0
100
AcDbBlockBegin
  2
*D37
 70
     1
 10
0.0
 20
0.0
 30
0.0
  3
*D37
  1

  0
LINE
  5
87E
330
87B
100
AcDbEntity
  8
0
 62
     0
370
    -2
100
AcDbLine
 10
76.09596419851425
 20
141.8483303918604
 30
0.0
 11
76.09596419851425
 21
129.4178943280212
 31
0.0
  0
LINE
  5
87F
330
87B
100
AcDbEntity
  8
0
 62
     0
370
    -2
100
AcDbLine
 10
166.0959641985144
 20
141.8483303918604
 30
0.0
 11
166.0959641985144
 21
129.4178943280212
 31
0.0
  0
LINE
  5
880
330
87B
100
AcDbEntity
  8
0
 62
     0
370
    -2
100
AcDbLine
 10
78.59596419851425
 20
130.6678943280212
 30
0.0
 11
163.5959641985143
 21
130.6678943280212
 31
0.0
  0
SOLID
  5
881
330
87B
100
AcDbEntity
  8
0
 62
     0
100
AcDbTrace
 10
78.59596419851425
 20
131.0845609946879
 30
0.0
 11
78.59596419851425
 21
130.2512276613546
 31
0.0
 12
76.09596419851425
 22
130.6678943280212
 32
0.0
 13
76.09596419851425
 23
130.6678943280212
 33
0.0
  0
SOLID
  5
882
330
87B
100
AcDbEntity
  8
0
 62
     0
100
AcDbTrace
 10
163.5959641985143
 20
131.0845609946879
 30
0.0
 11
163.5959641985143
 21
130.2512276613546
 31
0.0
 12
166.0959641985144
 22
130.6678943280212
 32
0.0
 13
166.0959641985144
 23
130.6678943280212
 33
0.0
  0
MTEXT
  5
883
330
87B
100
AcDbEntity
  8
0
 62
     0
100
AcDbMText
 10
121.0959641985143
 20
132.5428943280212
 30
0.0
 40
2.5
 41
0.0
 71
     5
 72
     1
  1
\A1;90
 73
     1
 44
1.0
1001
ACAD
1000
MTEXTBEGIN
1070
    73
1070
     1
1070
    44
1040
1.0
1070
    74
1070
     0
1000
MTEXTEND
  0
POINT
  5
884
330
87B
100
AcDbEntity
  8
Defpoints
 62
     0
100
AcDbPoint
 10
76.09596419851425
 20
142.4733303918604
 30
0.0
  0
POINT
  5
885
330
87B
100
AcDbEntity
  8
Defpoints
 62
     0
100
AcDbPoint
 10
166.0959641985144
 20
142.4733303918604
 30
0.0
  0
POINT
  5
886
330
87B
100
AcDbEntity
  8
Defpoints
 62
     0
100
AcDbPoint
 10
166.0959641985144
 20
130.6678943280212
 30
0.0
  0
ENDBLK
  5
87D
330
87B
100
AcDbEntity
  8
0
100
AcDbBlockEnd
  0
BLOCK
  5
889
330
888
100
AcDbEntity
  8
0
100
AcDbBlockBegin
  2
*D38
 70
     1
 10
0.0
 20
0.0
 30
0.0
  3
*D38
  1

  0
LINE
  5
88B
330
888
100
AcDbEntity
  8
0
 62
     0
370
    -2
100
AcDbLine
 10
121.7209641985144
 20
97.25886429779325
 30
0.0
 11
133.5691376268551
 21
97.25886429779325
 31
0.0
  0
LINE
  5
88C
330
888
100
AcDbEntity
  8
0
 62
     0
370
    -2
100
AcDbLine
 10
121.7209641985144
 20
170.2588642977932
 30
0.0
 11
133.5691376268551
 21
170.2588642977932
 31
0.0
  0
LINE
  5
88D
330
888
100
AcDbEntity
  8
0
 62
     0
370
    -2
100
AcDbLine
 10
132.3191376268551
 20
99.75886429779325
 30
0.0
 11
132.3191376268551
 21
167.7588642977932
 31
0.0
  0
SOLID
  5
88E
330
888
100
AcDbEntity
  8
0
 62
     0
100
AcDbTrace
 10
131.9024709601885
 20
99.75886429779325
 30
0.0
 11
132.7358042935218
 21
99.75886429779325
 31
0.0
 12
132.3191376268551
 22
97.25886429779325
 32
0.0
 13
132.3191376268551
 23
97.25886429779325
 33
0.0
  0
SOLID
  5
88F
330
888
100
AcDbEntity
  8
0
 62
     0
100
AcDbTrace
 10
131.9024709601885
 20
167.7588642977932
 30
0.0
 11
132.7358042935218
 21
167.7588642977932
 31
0.0
 12
132.3191376268551
 22
170.2588642977932
 32
0.0
 13
132.3191376268551
 23
170.2588642977932
 33
0.0
  0
MTEXT
  5
890
330
888
100
AcDbEntity
  8
0
 62
     0
100
AcDbMText
 10
130.4441376268551
 20
133.7588642977932
 30
0.0
 40
2.5
 41
0.0
 71
     5
 72
     1
  1
\A1;73
 11
0.0000000000000001
 21
1.0
 31
0.0
 73
     1
 44
1.0
1001
ACAD
1000
MTEXTBEGIN
1070
    73
1070
     1
1070
    44
1040
1.0
1070
    74
1070
     0
1000
MTEXTEND
  0
POINT
  5
891
330
888
100
AcDbEntity
  8
Defpoints
 62
     0
100
AcDbPoint
 10
121.0959641985144
 20
97.25886429779325
 30
0.0
  0
POINT
  5
892
330
888
100
AcDbEntity
  8
Defpoints
 62
     0
100
AcDbPoint
 10
121.0959641985144
 20
170.2588642977932
 30
0.0
  0
POINT
  5
893
330
888
100
AcDbEntity
  8
Defpoints
 62
     0
100
AcDbPoint
 10
132.3191376268551
 20
170.2588642977932
 30
0.0
  0
ENDBLK
  5
88A
330
888
100
AcDbEntity
  8
0
100
AcDbBlockEnd
  0
ENDSEC
  0
SECTION
  2
ENTITIES
  0
LINE
  5
B6
330
159
100
AcDbEntity
  8
1外形線
100
AcDbLine
 10
324.4400774005463
 20
735.9198466305959
 30
0.0
 11
324.4400774005463
 21
66.95161594203523
 31
0.0
  0
LINE
  5
B7
330
159
100
AcDbEntity
  8
1外形線
100
AcDbLine
 10
14.44007740054621
 20
735.9198466305959
 30
0.0
 11
14.44007740054621
 21
66.95161594203523
 31
0.0
  0
LINE
  5
B8
330
159
100
AcDbEntity
  8
1外形線
100
AcDbLine
 10
324.4400774005463
 20
413.9198466305956
 30
0.0
 11
14.44007740054621
 21
413.9198466305956
 31
0.0
  0
TEXT
  5
10B
330
159
100
AcDbEntity
  8
1外形線
100
AcDbText
 10
64.44007660573447
 20
700.8819606451428
 30
0.0
 40
10.0
  1
MP-75
  7
KANJI
100
AcDbText
  0
LINE
  5
12E
330
159
100
AcDbEntity
  8
1外形線
100
AcDbLine
 10
14.44007740054621
 20
735.9198466305959
 30
0.0
 11
324.4400774005463
 21
735.9198466305959
 31
0.0
  0
LINE
  5
19E
330
159
100
AcDbEntity
  8
C4
100
AcDbLine
 10
175.0824074137868
 20
441.2535533865644
 30
0.0
 11
120.0824074137867
 21
441.2535533865644
 31
0.0
  0
LINE
  5
1A0
330
159
100
AcDbEntity
  8
C4
100
AcDbLine
 10
65.08240741378694
 20
441.2535533865646
 30
0.0
 11
120.0824074137867
 21
441.2535533865644
 31
0.0
  0
LINE
  5
1A5
330
159
100
AcDbEntity
  8
C4
100
AcDbLine
 10
160.0824074137868
 20
608.8599755023643
 30
0.0
 11
80.08240741378697
 21
608.8599755023643
 31
0.0
  0
LINE
  5
1A6
330
159
100
AcDbEntity
  8
C4
100
AcDbLine
 10
159.0824074137868
 20
605.8599755023642
 30
0.0
 11
81.08240741378699
 21
605.8599755023642
 31
0.0
  0
LINE
  5
1A7
330
159
100
AcDbEntity
  8
C4
100
AcDbLine
 10
80.08240741378697
 20
608.8599755023643
 30
0.0
 11
80.08240741378697
 21
635.8599755023645
 31
0.0
  0
LINE
  5
1A8
330
159
100
AcDbEntity
  8
C4
100
AcDbLine
 10
91.54687350785437
 20
605.8599755023642
 30
0.0
 11
91.54687350785437
 21
635.8599755023647
 31
0.0
  0
LINE
  5
1A9
330
159
100
AcDbEntity
  8
C4
100
AcDbLine
 10
148.6179413197192
 20
605.8599755023642
 30
0.0
 11
148.6179413197191
 21
635.8599755023645
 31
0.0
  0
LINE
  5
1AE
330
159
100
AcDbEntity
  8
C4
100
AcDbLine
 10
80.08240741378697
 20
608.8599755023643
 30
0.0
 11
81.08240741378699
 21
605.8599755023642
 31
0.0
  0
LINE
  5
1B7
330
159
100
AcDbEntity
  8
C4
100
AcDbLine
 10
80.08240741378697
 20
668.8599755023645
 30
0.0
 11
80.08240741378697
 21
635.8599755023647
 31
0.0
  0
LINE
  5
1B9
330
159
100
AcDbEntity
  8
C4
100
AcDbLine
 10
91.54687350785437
 20
668.8599755023645
 30
0.0
 11
91.54687350785437
 21
635.8599755023647
 31
0.0
  0
LINE
  5
1BA
330
159
100
AcDbEntity
  8
C4
100
AcDbLine
 10
148.6179413197192
 20
668.8599755023642
 30
0.0
 11
148.6179413197191
 21
635.8599755023645
 31
0.0
  0
LINE
  5
1BB
330
159
100
AcDbEntity
  8
C4
100
AcDbLine
 10
160.0824074137868
 20
608.8599755023643
 30
0.0
 11
160.0824074137868
 21
635.8599755023645
 31
0.0
  0
LINE
  5
1BE
330
159
100
AcDbEntity
  8
C4
100
AcDbLine
 10
160.0824074137868
 20
608.8599755023643
 30
0.0
 11
159.0824074137868
 21
605.8599755023642
 31
0.0
  0
LINE
  5
1BF
330
159
100
AcDbEntity
  8
C4
100
AcDbLine
 10
160.0824074137868
 20
668.8599755023642
 30
0.0
 11
160.0824074137868
 21
635.8599755023645
 31
0.0
  0
LINE
  5
1D2
330
159
100
AcDbEntity
  8
C4
100
AcDbLine
 10
65.08240741378694
 20
441.2535533865646
 30
0.0
 11
65.08240741378694
 21
543.2535533865643
 31
0.0
  0
LINE
  5
1D3
330
159
100
AcDbEntity
  8
C4
100
AcDbLine
 10
175.0824074137868
 20
441.2535533865644
 30
0.0
 11
175.0824074137868
 21
543.2535533865643
 31
0.0
  0
LINE
  5
1D4
330
159
100
AcDbEntity
  8
C4
100
AcDbLine
 10
95.08240741378699
 20
573.2535533865642
 30
0.0
 11
145.0824074137869
 21
573.2535533865642
 31
0.0
  0
ARC
  5
1D5
330
159
100
AcDbEntity
  8
C4
100
AcDbCircle
 10
95.08240741378694
 20
543.2535533865643
 30
0.0
 40
30.0
100
AcDbArc
 50
89.99999999999982
 51
180.0
  0
ARC
  5
1D6
330
159
100
AcDbEntity
  8
C4
100
AcDbCircle
 10
145.0824074137868
 20
543.2535533865643
 30
0.0
 40
30.0
100
AcDbArc
 50
0.0
 51
89.99999999999984
  0
LINE
  5
1D7
330
159
100
AcDbEntity
  8
C4
100
AcDbLine
 10
213.1297625628445
 20
508.2535533865644
 30
0.0
 11
213.1297625628445
 21
441.2535533865644
 31
0.0
  0
LINE
  5
1D8
330
159
100
AcDbEntity
  8
C4
100
AcDbLine
 10
213.1297625628445
 20
441.2535533865644
 30
0.0
 11
283.1297625628447
 21
441.2535533865644
 31
0.0
  0
LINE
  5
1D9
330
159
100
AcDbEntity
  8
C4
100
AcDbLine
 10
283.1297625628447
 20
573.2535533865642
 30
0.0
 11
283.1297625628447
 21
441.2535533865644
 31
0.0
  0
LINE
  5
1DA
330
159
100
AcDbEntity
  8
C4
100
AcDbLine
 10
278.1297625628445
 20
573.2535533865642
 30
0.0
 11
283.1297625628447
 21
573.2535533865642
 31
0.0
  0
LINE
  5
1DB
330
159
100
AcDbEntity
  8
C4
100
AcDbLine
 10
276.1297625628447
 20
571.2535533865644
 30
0.0
 11
276.1297625628447
 21
441.2535533865645
 31
0.0
  0
ARC
  5
1DC
330
159
100
AcDbEntity
  8
C4
100
AcDbCircle
 10
278.1297625628445
 20
571.2535533865644
 30
0.0
 40
2.0
100
AcDbArc
 50
90.0
 51
180.0
  0
LINE
  5
1DD
330
159
100
AcDbEntity
  8
C4
100
AcDbLine
 10
216.1297625628447
 20
509.2535533865643
 30
0.0
 11
223.1297625628446
 21
509.2535533865643
 31
0.0
  0
LINE
  5
1E1
330
159
100
AcDbEntity
  8
C4
100
AcDbLine
 10
223.1297625628446
 20
509.2535533865643
 30
0.0
 11
276.1297625628447
 21
543.2535533865643
 31
0.0
  0
LINE
  5
1E3
330
159
100
AcDbEntity
  8
C4
100
AcDbLine
 10
216.1297625628447
 20
509.2535533865643
 30
0.0
 11
216.1297625628447
 21
441.2535533865644
 31
0.0
  0
LINE
  5
1E5
330
159
100
AcDbEntity
  8
C4
100
AcDbLine
 10
213.1297625628445
 20
508.2535533865644
 30
0.0
 11
216.1297625628447
 21
509.2535533865643
 31
0.0
  0
LINE
  5
1E6
330
159
100
AcDbEntity
  8
C4
100
AcDbLine
 10
213.1297625628445
 20
497.7890872924974
 30
0.0
 11
223.1297625628446
 21
497.7890872924974
 31
0.0
  0
LINE
  5
1EE
330
159
100
AcDbEntity
  8
C4
100
AcDbLine
 10
94.1534752256522
 20
543.2535533865643
 30
0.0
 11
120.0824074137867
 21
543.2535533865643
 31
0.0
  0
LINE
  5
1F6
330
159
100
AcDbEntity
  8
C4
100
AcDbLine
 10
146.0113396019216
 20
543.2535533865643
 30
0.0
 11
120.0824074137867
 21
543.2535533865643
 31
0.0
  0
LINE
  5
21A
330
159
100
AcDbEntity
  8
C4
100
AcDbLine
 10
223.1297625628446
 20
497.7890872924974
 30
0.0
 11
276.1297625628447
 21
531.7890872924975
 31
0.0
  0
LINE
  5
255
330
159
100
AcDbEntity
  8
C4
100
AcDbLine
 10
94.44636844446621
 20
509.2535533865646
 30
0.0
 11
120.0824074137867
 21
509.2535533865646
 31
0.0
  0
LINE
  5
29B
330
159
100
AcDbEntity
  8
C4
100
AcDbLine
 10
145.7184463831076
 20
509.2535533865646
 30
0.0
 11
120.0824074137867
 21
509.2535533865646
 31
0.0
  0
LINE
  5
2A3
330
159
100
AcDbEntity
  8
C4
100
AcDbLine
 10
82.13265994548091
 20
534.132233043005
 30
0.0
 11
89.20372775734673
 21
541.2033008548703
 31
0.0
  0
ARC
  5
2A5
330
159
100
AcDbEntity
  8
C4
100
AcDbCircle
 10
87.08240741378686
 20
529.182485574699
 30
0.0
 40
7.000000000000013
100
AcDbArc
 50
134.9999999999996
 51
180.0
  0
ARC
  5
2A7
330
159
100
AcDbEntity
  8
C4
100
AcDbCircle
 10
94.1534752256522
 20
536.2535533865646
 30
0.0
 40
7.000000000000013
100
AcDbArc
 50
90.0
 51
134.9999999999996
  0
LINE
  5
2A9
330
159
100
AcDbEntity
  8
C4
100
AcDbLine
 10
94.1534752256522
 20
543.2535533865643
 30
0.0
 11
120.0824074137867
 21
543.2535533865643
 31
0.0
  0
LINE
  5
2AA
330
159
100
AcDbEntity
  8
C4
100
AcDbLine
 10
146.0113396019214
 20
543.2535533865643
 30
0.0
 11
120.0824074137867
 21
543.2535533865643
 31
0.0
  0
ARC
  5
2AB
330
159
100
AcDbEntity
  8
C4
100
AcDbCircle
 10
146.0113396019214
 20
536.2535533865646
 30
0.0
 40
7.000000000000013
100
AcDbArc
 50
45.00000000000027
 51
90.0
  0
LINE
  5
2AC
330
159
100
AcDbEntity
  8
C4
100
AcDbLine
 10
158.0321548820927
 20
534.132233043005
 30
0.0
 11
150.961087070227
 21
541.2033008548703
 31
0.0
  0
ARC
  5
2AD
330
159
100
AcDbEntity
  8
C4
100
AcDbCircle
 10
153.0824074137868
 20
529.182485574699
 30
0.0
 40
7.000000000000013
100
AcDbArc
 50
0.000000000000007
 51
45.00000000000027
  0
LINE
  5
2AE
330
159
100
AcDbEntity
  8
C4
100
AcDbLine
 10
80.08240741378685
 20
529.182485574699
 30
0.0
 11
80.08240741378688
 21
441.2535533865646
 31
0.0
  0
LINE
  5
2AF
330
159
100
AcDbEntity
  8
C4
100
AcDbLine
 10
160.0824074137868
 20
529.182485574699
 30
0.0
 11
160.0824074137868
 21
441.2535533865645
 31
0.0
  0
LINE
  5
2B0
330
159
100
AcDbEntity
  8
C4
100
AcDbLine
 10
91.25398028904101
 20
542.6248114344359
 30
0.0
 11
91.25398028904101
 21
508.4832129169965
 31
0.0
  0
LINE
  5
2B2
330
159
100
AcDbEntity
  8
C4
100
AcDbLine
 10
148.9108345385326
 20
542.6248114344359
 30
0.0
 11
148.9108345385325
 21
508.4832129169966
 31
0.0
  0
LINE
  5
2C1
330
159
100
AcDbEntity
  8
C4
100
AcDbLine
 10
175.0824074137868
 20
675.8599755023642
 30
0.0
 11
65.08240741378688
 21
675.8599755023642
 31
0.0
  0
LINE
  5
2C2
330
159
100
AcDbEntity
  8
C4
100
AcDbLine
 10
65.08240741378694
 20
675.8599755023642
 30
0.0
 11
65.08240741378694
 21
670.8599755023644
 31
0.0
  0
LINE
  5
2C3
330
159
100
AcDbEntity
  8
C4
100
AcDbLine
 10
173.0824074137868
 20
668.8599755023642
 30
0.0
 11
67.08240741378688
 21
668.8599755023647
 31
0.0
  0
ARC
  5
2C4
330
159
100
AcDbEntity
  8
C4
100
AcDbCircle
 10
67.08240741378694
 20
670.8599755023644
 30
0.0
 40
2.0
100
AcDbArc
 50
180.0
 51
269.9999999999996
  0
LINE
  5
2C5
330
159
100
AcDbEntity
  8
C4
100
AcDbLine
 10
175.0824074137868
 20
675.8599755023642
 30
0.0
 11
175.0824074137868
 21
670.8599755023644
 31
0.0
  0
ARC
  5
2C6
330
159
100
AcDbEntity
  8
C4
100
AcDbCircle
 10
173.0824074137868
 20
670.8599755023644
 30
0.0
 40
2.0
100
AcDbArc
 50
270.0000000000004
 51
0.000000000000007
  0
LINE
  5
301
330
159
100
AcDbEntity
  8
1外形線
100
AcDbLine
 10
166.0959641985142
 20
264.2837355907635
 30
0.0
 11
76.09596419851435
 21
264.2837355907635
 31
0.0
  0
LINE
  5
302
330
159
100
AcDbEntity
  8
1外形線
100
AcDbLine
 10
165.0959641985141
 20
261.2837355907635
 30
0.0
 11
77.09596419851435
 21
261.2837355907635
 31
0.0
  0
LINE
  5
304
330
159
100
AcDbEntity
  8
1外形線
100
AcDbLine
 10
61.09596419851433
 20
97.25886429779315
 30
0.0
 11
181.0959641985143
 21
97.25886429779324
 31
0.0
  0
LINE
  5
30B
330
159
100
AcDbEntity
  8
1外形線
100
AcDbLine
 10
76.09596419851435
 20
264.2837355907635
 30
0.0
 11
76.09596419851435
 21
291.2837355907635
 31
0.0
  0
LINE
  5
30C
330
159
100
AcDbEntity
  8
1外形線
100
AcDbLine
 10
76.09596419851435
 20
264.2837355907635
 30
0.0
 11
77.09596419851435
 21
261.2837355907635
 31
0.0
  0
LINE
  5
30D
330
159
100
AcDbEntity
  8
1外形線
100
AcDbLine
 10
76.09596419851435
 20
324.2837355907635
 30
0.0
 11
76.09596419851435
 21
291.2837355907632
 31
0.0
  0
LINE
  5
30F
330
159
100
AcDbEntity
  8
1外形線
100
AcDbLine
 10
92.56043029258163
 20
261.2837355907635
 30
0.0
 11
92.5604302925816
 21
291.2837355907635
 31
0.0
  0
LINE
  5
310
330
159
100
AcDbEntity
  8
1外形線
100
AcDbLine
 10
149.6314981044469
 20
261.2837355907635
 30
0.0
 11
149.6314981044469
 21
291.2837355907635
 31
0.0
  0
LINE
  5
312
330
159
100
AcDbEntity
  8
1外形線
100
AcDbLine
 10
144.2150969013827
 20
170.2588642977931
 30
0.0
 11
121.0959641985142
 21
170.2588642977931
 31
0.0
  0
LINE
  5
314
330
159
100
AcDbEntity
  8
1外形線
100
AcDbLine
 10
97.97683149564599
 20
170.2588642977931
 30
0.0
 11
121.0959641985142
 21
170.2588642977931
 31
0.0
  0
LINE
  5
319
330
159
100
AcDbEntity
  8
1外形線
100
AcDbLine
 10
92.56043029258163
 20
324.2837355907635
 30
0.0
 11
92.5604302925816
 21
291.2837355907632
 31
0.0
  0
LINE
  5
31A
330
159
100
AcDbEntity
  8
1外形線
100
AcDbLine
 10
149.6314981044469
 20
324.2837355907636
 30
0.0
 11
149.6314981044469
 21
291.2837355907633
 31
0.0
  0
LINE
  5
31F
330
159
100
AcDbEntity
  8
1外形線
100
AcDbLine
 10
166.0959641985142
 20
264.2837355907635
 30
0.0
 11
166.0959641985142
 21
291.2837355907633
 31
0.0
  0
LINE
  5
320
330
159
100
AcDbEntity
  8
1外形線
100
AcDbLine
 10
166.0959641985142
 20
264.2837355907635
 30
0.0
 11
165.0959641985141
 21
261.2837355907635
 31
0.0
  0
LINE
  5
321
330
159
100
AcDbEntity
  8
1外形線
100
AcDbLine
 10
166.0959641985142
 20
324.2837355907636
 30
0.0
 11
166.0959641985142
 21
291.2837355907633
 31
0.0
  0
LINE
  5
325
330
159
100
AcDbEntity
  8
1外形線
100
AcDbLine
 10
206.0935951810515
 20
170.2588642977931
 30
0.0
 11
206.0935951810515
 21
97.25886429779324
 31
0.0
  0
LINE
  5
326
330
159
100
AcDbEntity
  8
1外形線
100
AcDbLine
 10
203.0935951810514
 20
169.2588642977931
 30
0.0
 11
203.0935951810514
 21
97.25886429779324
 31
0.0
  0
LINE
  5
327
330
159
100
AcDbEntity
  8
1外形線
100
AcDbLine
 10
203.0935951810514
 20
153.7943982037262
 30
0.0
 11
213.0935951810514
 21
153.7943982037263
 31
0.0
  0
LINE
  5
328
330
159
100
AcDbEntity
  8
1外形線
100
AcDbLine
 10
203.0935951810514
 20
97.25886429779324
 30
0.0
 11
273.0935951810514
 21
97.25886429779324
 31
0.0
  0
LINE
  5
32B
330
159
100
AcDbEntity
  8
1外形線
100
AcDbLine
 10
206.0935951810515
 20
170.2588642977931
 30
0.0
 11
213.0935951810514
 21
170.2588642977931
 31
0.0
  0
LINE
  5
32C
330
159
100
AcDbEntity
  8
1外形線
100
AcDbLine
 10
203.0935951810514
 20
169.2588642977931
 30
0.0
 11
206.0935951810515
 21
170.2588642977931
 31
0.0
  0
LINE
  5
359
330
159
100
AcDbEntity
  8
1外形線
100
AcDbLine
 10
61.09596419851435
 20
202.258864297793
 30
0.0
 11
61.09596419851433
 21
97.25886429779315
 31
0.0
  0
LINE
  5
35A
330
159
100
AcDbEntity
  8
1外形線
100
AcDbLine
 10
181.0959641985141
 20
202.2588642977932
 30
0.0
 11
181.0959641985143
 21
97.25886429779324
 31
0.0
  0
LINE
  5
35B
330
159
100
AcDbEntity
  8
1外形線
100
AcDbLine
 10
91.09596419851431
 20
232.258864297793
 30
0.0
 11
151.0959641985142
 21
232.258864297793
 31
0.0
  0
ARC
  5
35C
330
159
100
AcDbEntity
  8
1外形線
100
AcDbCircle
 10
91.09596419851431
 20
202.258864297793
 30
0.0
 40
30.0
100
AcDbArc
 50
90.00000000000005
 51
180.0
  0
ARC
  5
35D
330
159
100
AcDbEntity
  8
1外形線
100
AcDbCircle
 10
151.0959641985143
 20
202.2588642977932
 30
0.0
 40
30.0
100
AcDbArc
 50
0.0000000000000127
 51
90.00000000000005
  0
LINE
  5
35E
330
159
100
AcDbEntity
  8
1外形線
100
AcDbLine
 10
273.0935951810514
 20
232.258864297793
 30
0.0
 11
273.0935951810514
 21
97.25886429779324
 31
0.0
  0
LINE
  5
35F
330
159
100
AcDbEntity
  8
1外形線
100
AcDbLine
 10
266.0935951810514
 20
230.258864297793
 30
0.0
 11
266.0935951810514
 21
97.25886429779324
 31
0.0
  0
LINE
  5
361
330
159
100
AcDbEntity
  8
1外形線
100
AcDbLine
 10
268.0935951810514
 20
232.258864297793
 30
0.0
 11
273.0935951810514
 21
232.258864297793
 31
0.0
  0
ARC
  5
362
330
159
100
AcDbEntity
  8
1外形線
100
AcDbCircle
 10
268.0935951810514
 20
230.258864297793
 30
0.0
 40
2.0
100
AcDbArc
 50
90.0
 51
180.0
  0
LINE
  5
365
330
159
100
AcDbEntity
  8
1外形線
100
AcDbLine
 10
213.0935951810514
 20
170.2588642977931
 30
0.0
 11
266.0935951810514
 21
207.2588642977931
 31
0.0
  0
LINE
  5
366
330
159
100
AcDbEntity
  8
1外形線
100
AcDbLine
 10
213.0935951810514
 20
153.7943982037263
 30
0.0
 11
266.0935951810514
 21
190.794398203726
 31
0.0
  0
ARC
  5
367
330
159
100
AcDbEntity
  8
1外形線
100
AcDbCircle
 10
83.59596419851438
 20
187.6877964859277
 30
0.0
 40
7.500000000000111
100
AcDbArc
 50
135.0000000000006
 51
180.0
  0
LINE
  5
368
330
159
100
AcDbEntity
  8
1外形線
100
AcDbLine
 10
78.29266333961505
 20
192.9910973448269
 30
0.0
 11
90.36373115148078
 21
205.0621651566923
 31
0.0
  0
LINE
  5
369
330
159
100
AcDbEntity
  8
1外形線
100
AcDbLine
 10
95.6670320103797
 20
207.2588642977931
 30
0.0
 11
121.0959641985142
 21
207.2588642977931
 31
0.0
  0
ARC
  5
36A
330
159
100
AcDbEntity
  8
1外形線
100
AcDbCircle
 10
95.6670320103797
 20
199.758864297793
 30
0.0
 40
7.500000000000111
100
AcDbArc
 50
90.0
 51
135.0000000000006
  0
LINE
  5
36B
330
159
100
AcDbEntity
  8
1外形線
100
AcDbLine
 10
146.524896386649
 20
207.2588642977931
 30
0.0
 11
121.0959641985142
 21
207.2588642977931
 31
0.0
  0
ARC
  5
36C
330
159
100
AcDbEntity
  8
1外形線
100
AcDbCircle
 10
146.524896386649
 20
199.758864297793
 30
0.0
 40
7.500000000000111
100
AcDbArc
 50
44.99999999999942
 51
90.0
  0
LINE
  5
36D
330
159
100
AcDbEntity
  8
1外形線
100
AcDbLine
 10
163.8992650574135
 20
192.9910973448268
 30
0.0
 11
151.8281972455478
 21
205.0621651566923
 31
0.0
  0
ARC
  5
36E
330
159
100
AcDbEntity
  8
1外形線
100
AcDbCircle
 10
158.5959641985142
 20
187.6877964859277
 30
0.0
 40
7.500000000000111
100
AcDbArc
 50
0.0
 51
44.99999999999942
  0
LINE
  5
36F
330
159
100
AcDbEntity
  8
1外形線
100
AcDbLine
 10
76.09596419851427
 20
187.6877964859277
 30
0.0
 11
76.09596419851425
 21
97.25886429779315
 31
0.0
  0
LINE
  5
370
330
159
100
AcDbEntity
  8
1外形線
100
AcDbLine
 10
92.56043029258178
 20
206.5852122062267
 30
0.0
 11
92.56043029258178
 21
168.6649691036735
 31
0.0
  0
LINE
  5
372
330
159
100
AcDbEntity
  8
1外形線
100
AcDbLine
 10
149.6314981044469
 20
206.5852122062267
 30
0.0
 11
149.6314981044469
 21
168.6649691036735
 31
0.0
  0
LINE
  5
373
330
159
100
AcDbEntity
  8
1外形線
100
AcDbLine
 10
166.0959641985143
 20
187.6877964859277
 30
0.0
 11
166.0959641985144
 21
97.25886429779324
 31
0.0
  0
LINE
  5
374
330
159
100
AcDbEntity
  8
1外形線
100
AcDbLine
 10
181.0959641985143
 20
331.2837355907636
 30
0.0
 11
61.09596419851436
 21
331.2837355907635
 31
0.0
  0
LINE
  5
375
330
159
100
AcDbEntity
  8
1外形線
100
AcDbLine
 10
179.0959641985143
 20
324.2837355907636
 30
0.0
 11
63.09596419851437
 21
324.2837355907635
 31
0.0
  0
LINE
  5
376
330
159
100
AcDbEntity
  8
1外形線
100
AcDbLine
 10
61.09596419851435
 20
331.2837355907635
 30
0.0
 11
61.09596419851435
 21
326.2837355907635
 31
0.0
  0
ARC
  5
377
330
159
100
AcDbEntity
  8
1外形線
100
AcDbCircle
 10
63.09596419851434
 20
326.2837355907635
 30
0.0
 40
2.0
100
AcDbArc
 50
180.0000000000015
 51
270.0
  0
LINE
  5
378
330
159
100
AcDbEntity
  8
1外形線
100
AcDbLine
 10
181.0959641985143
 20
331.2837355907635
 30
0.0
 11
181.0959641985143
 21
326.2837355907635
 31
0.0
  0
ARC
  5
379
330
159
100
AcDbEntity
  8
1外形線
100
AcDbCircle
 10
179.0959641985143
 20
326.2837355907635
 30
0.0
 40
2.0
100
AcDbArc
 50
270.0
 51
359.9999999999983
  0
TEXT
  5
37A
330
159
100
AcDbEntity
  8
1外形線
100
AcDbText
 10
64.44007660573447
 20
356.2516522405768
 30
0.0
 40
10.0
  1
MP-85
  7
KANJI
100
AcDbText
  0
LINE
  5
37B
330
159
100
AcDbEntity
  8
1外形線
100
AcDbLine
 10
324.4400774005463
 20
66.95161594203523
 30
0.0
 11
14.44007740054621
 21
66.95161594203523
 31
0.0
  0
LINE
  5
8B9
330
159
100
AcDbEntity
  8
1外形線
100
AcDbLine
 10
82.56978086893623
 20
443.7535533865644
 30
0.0
 11
157.5824074137866
 21
443.7535533865644
 31
0.0
  0
LINE
  5
8BA
330
159
100
AcDbEntity
  8
1外形線
100
AcDbLine
 10
82.58240741378683
 20
494.6824855746991
 30
0.0
 11
82.58240741378683
 21
441.2535533865644
 31
0.0
  0
ARC
  5
8BB
330
159
100
AcDbEntity
  8
1外形線
100
AcDbCircle
 10
87.58240741378683
 20
494.6824855746991
 30
0.0
 40
5.0
100
AcDbArc
 50
135.0000000000003
 51
180.0
  0
LINE
  5
8BC
330
159
100
AcDbEntity
  8
1外形線
100
AcDbLine
 10
84.04687350785428
 20
498.218019480632
 30
0.0
 11
91.11794131971981
 21
505.2890872924971
 31
0.0
  0
LINE
  5
8BD
330
159
100
AcDbEntity
  8
1外形線
100
AcDbLine
 10
157.5824074137868
 20
494.682485574699
 30
0.0
 11
157.5824074137868
 21
441.2535533865644
 31
0.0
  0
ARC
  5
8BE
330
159
100
AcDbEntity
  8
1外形線
100
AcDbCircle
 10
152.5824074137868
 20
494.682485574699
 30
0.0
 40
5.0
100
AcDbArc
 50
0.0
 51
44.99999999999971
  0
LINE
  5
8BF
330
159
100
AcDbEntity
  8
1外形線
100
AcDbLine
 10
145.5113396019214
 20
506.7535533865644
 30
0.0
 11
94.65347522565247
 21
506.7535533865644
 31
0.0
  0
ARC
  5
8C0
330
159
100
AcDbEntity
  8
1外形線
100
AcDbCircle
 10
94.65347522565247
 20
501.7535533865644
 30
0.0
 40
5.0
100
AcDbArc
 50
90.0
 51
135.0000000000003
  0
LINE
  5
8C1
330
159
100
AcDbEntity
  8
1外形線
100
AcDbLine
 10
156.1179413197196
 20
498.2180194806319
 30
0.0
 11
149.046873507854
 21
505.2890872924971
 31
0.0
  0
ARC
  5
8C2
330
159
100
AcDbEntity
  8
1外形線
100
AcDbCircle
 10
145.5113396019214
 20
501.7535533865644
 30
0.0
 40
5.0
100
AcDbArc
 50
44.99999999999971
 51
90.0
  0
LINE
  5
8C3
330
159
100
AcDbEntity
  8
1外形線
100
AcDbLine
 10
78.59596419851436
 20
99.75886429779325
 30
0.0
 11
163.5959641985142
 21
99.75886429779331
 31
0.0
  0
LINE
  5
8C4
330
159
100
AcDbEntity
  8
1外形線
100
AcDbLine
 10
78.59596419851436
 20
148.1708944262206
 30
0.0
 11
78.59596419851436
 21
97.25886429779317
 31
0.0
  0
ARC
  5
8C5
330
159
100
AcDbEntity
  8
1外形線
100
AcDbCircle
 10
86.59596419851437
 20
148.1708944262206
 30
0.0
 40
8.0
100
AcDbArc
 50
134.9999897298389
 51
180.0
  0
LINE
  5
8C6
330
159
100
AcDbEntity
  8
1外形線
100
AcDbLine
 10
163.5959641985142
 20
148.1708944262209
 30
0.0
 11
163.5959641985142
 21
97.25886429779325
 31
0.0
  0
ARC
  5
8C7
330
159
100
AcDbEntity
  8
1外形線
100
AcDbCircle
 10
155.5959641985142
 20
148.1708944262209
 30
0.0
 40
8.0
100
AcDbArc
 50
0.0
 51
45.0000102701611
  0
LINE
  5
8C8
330
159
100
AcDbEntity
  8
1外形線
  6
Continuous
370
    15
100
AcDbLine
 10
80.93911096300269
 20
153.8277496896936
 30
0.0
 11
92.52708498882055
 21
165.4157195612663
 31
0.0
  0
ARC
  5
8C9
330
159
100
AcDbEntity
  8
1外形線
  6
Continuous
370
    15
100
AcDbCircle
 10
98.18393822433222
 20
159.7588642977934
 30
0.0
 40
8.0
100
AcDbArc
 50
90.0
 51
134.9999897298389
  0
LINE
  5
8CA
330
159
100
AcDbEntity
  8
1外形線
  6
Continuous
370
    15
100
AcDbLine
 10
98.18393822433222
 20
167.7588642977933
 30
0.0
 11
144.0079901726966
 21
167.7588642977933
 31
0.0
  0
LINE
  5
8CB
330
159
100
AcDbEntity
  8
1外形線
  6
Continuous
370
    15
100
AcDbLine
 10
149.6648434082083
 20
165.4157195612663
 30
0.0
 11
161.2528174340258
 21
153.8277496896938
 31
0.0
  0
ARC
  5
8CC
330
159
100
AcDbEntity
  8
1外形線
  6
Continuous
370
    15
100
AcDbCircle
 10
144.0079901726966
 20
159.7588642977934
 30
0.0
 40
8.0
100
AcDbArc
 50
45.0000102701611
 51
90.0
  0
LINE
  5
8D1
330
159
100
AcDbEntity
  8
1外形線
100
AcDbLine
 10
82.13265994548113
 20
499.8393398241915
 30
0.0
 11
89.49662097616052
 21
507.2033008548705
 31
0.0
  0
LINE
  5
8D2
330
159
100
AcDbEntity
  8
1外形線
100
AcDbLine
 10
158.0321548820925
 20
499.8393398241916
 30
0.0
 11
150.6681938514134
 21
507.2033008548705
 31
0.0
  0
ARC
  5
8D3
330
159
100
AcDbEntity
  8
1外形線
100
AcDbCircle
 10
145.7184463831076
 20
502.2535533865646
 30
0.0
 40
7.0
100
AcDbArc
 50
45.00000000000117
 51
90.0
  0
ARC
  5
8D4
330
159
100
AcDbEntity
  8
1外形線
100
AcDbCircle
 10
153.0824074137868
 20
494.8895923558858
 30
0.0
 40
7.0
100
AcDbArc
 50
0.0
 51
45.00000000000115
  0
ARC
  5
8DB
330
159
100
AcDbEntity
  8
1外形線
100
AcDbCircle
 10
94.44636844446621
 20
502.2535533865646
 30
0.0
 40
7.0
100
AcDbArc
 50
90.0
 51
134.9999999999986
  0
ARC
  5
8DC
330
159
100
AcDbEntity
  8
1外形線
100
AcDbCircle
 10
87.08240741378682
 20
494.8895923558856
 30
0.0
 40
7.0
100
AcDbArc
 50
134.9999999999986
 51
180.0
  0
LINE
  5
8DD
330
159
100
AcDbEntity
  8
1外形線
  6
Continuous
370
    15
100
AcDbLine
 10
151.2861634457722
 20
167.3299333771343
 30
0.0
 11
163.1670307429039
 21
155.4490703392489
 31
0.0
  0
ARC
  5
8DE
330
159
100
AcDbEntity
  8
1外形線
370
    15
100
AcDbCircle
 10
144.2150969013827
 20
160.2588642977931
 30
0.0
 40
10.0
100
AcDbArc
 50
45.00001027016251
 51
90.0
  0
ARC
  5
8DF
330
159
100
AcDbEntity
  8
1外形線
100
AcDbCircle
 10
156.0959641985143
 20
148.3780012599077
 30
0.0
 40
10.0
100
AcDbArc
 50
0.0000000000000509
 51
45.00001027016254
  0
LINE
  5
8E0
330
159
100
AcDbEntity
  8
1外形線
  6
Continuous
370
    15
100
AcDbLine
 10
79.02489765412475
 20
155.4490703392489
 30
0.0
 11
90.90576495125649
 21
167.3299333771343
 31
0.0
  0
ARC
  5
8E1
330
159
100
AcDbEntity
  8
1外形線
100
AcDbCircle
 10
97.97683149564599
 20
160.2588642977931
 30
0.0
 40
10.0
100
AcDbArc
 50
90.0
 51
134.9999897298372
  0
ARC
  5
8E2
330
159
100
AcDbEntity
  8
1外形線
100
AcDbCircle
 10
86.09596419851426
 20
148.3780012599077
 30
0.0
 40
10.0
100
AcDbArc
 50
134.9999897298372
 51
180.0
  0
ENDSEC
  0
SECTION
  2
OBJECTS
  0
DICTIONARY
  5
147
330
0
100
AcDbDictionary
281
     1
  3
ACAD_CIP_PREVIOUS_PRODUCT_INFO
350
3D5
  3
ACAD_COLOR
350
3B9
  3
ACAD_DETAILVIEWSTYLE
350
3D2
  3
ACAD_GROUP
350
148
  3
ACAD_LAYOUT
350
154
  3
ACAD_MATERIAL
350
387
  3
ACAD_MLEADERSTYLE
350
3CE
  3
ACAD_MLINESTYLE
350
151
  3
ACAD_PLOTSETTINGS
350
153
  3
ACAD_PLOTSTYLENAME
350
149
  3
ACAD_SCALELIST
350
3BC
  3
ACAD_SECTIONVIEWSTYLE
350
3D0
  3
ACAD_TABLESTYLE
350
3BA
  3
ACAD_VISUALSTYLE
350
3A0
  3
ACDB_RECOMPOSE_DATA
350
8E9
  3
AcDbVariableDictionary
350
1DF
  3
DWGPROPS
350
8EA
  0
DICTIONARY
  5
4B6
330
13D
100
AcDbDictionary
280
     1
281
     1
  3
ACAD_LAYERSTATES
360
4B7
  0
DICTIONARY
  5
3D6
330
14B
100
AcDbDictionary
280
     1
281
     1
  3
ADSK_XREC_LAYER_RECONCILED
360
3D7
  0
DICTIONARY
  5
3D8
330
15F
100
AcDbDictionary
280
     1
281
     1
  3
ADSK_XREC_LAYER_RECONCILED
360
3D9
  0
DICTIONARY
  5
3DA
330
160
100
AcDbDictionary
280
     1
281
     1
  3
ADSK_XREC_LAYER_RECONCILED
360
3DB
  0
DICTIONARY
  5
4B4
330
4B3
100
AcDbDictionary
280
     1
281
     1
  0
DICTIONARY
  5
6A0
330
159
100
AcDbDictionary
280
     1
281
     1
  3
ACAD_SORTENTS
360
6A1
  0
XRECORD
  5
3D5
102
{ACAD_REACTORS
330
147
102
}
330
147
100
AcDbXrecord
280
     1
300
ACDLT
300
2020
300
ACDLT_F_S
  0
DICTIONARY
  5
3B9
102
{ACAD_REACTORS
330
147
102
}
330
147
100
AcDbDictionary
281
     1
  0
DICTIONARY
  5
3D2
102
{ACAD_REACTORS
330
147
102
}
330
147
100
AcDbDictionary
281
     1
  3
Imperial24
350
3D3
  0
DICTIONARY
  5
148
102
{ACAD_REACTORS
330
147
102
}
330
147
100
AcDbDictionary
281
     1
  0
DICTIONARY
  5
154
102
{ACAD_REACTORS
330
147
102
}
330
147
100
AcDbDictionary
281
     1
  3
Model
350
15C
  3
\U+FF9A\U+FF72\U+FF71\U+FF73\U+FF841
350
158
  0
DICTIONARY
  5
387
102
{ACAD_REACTORS
330
147
102
}
330
147
100
AcDbDictionary
281
     1
  3
ByBlock
350
390
  3
ByLayer
350
388
  3
Global
350
398
  0
DICTIONARY
  5
3CE
102
{ACAD_REACTORS
330
147
102
}
330
147
100
AcDbDictionary
281
     1
  3
Standard
350
3CF
  0
DICTIONARY
  5
151
102
{ACAD_REACTORS
330
147
102
}
330
147
100
AcDbDictionary
281
     1
  3
Standard
350
152
  0
DICTIONARY
  5
153
102
{ACAD_REACTORS
330
147
102
}
330
147
100
AcDbDictionary
281
     1
  0
ACDBDICTIONARYWDFLT
  5
149
102
{ACAD_REACTORS
330
147
102
}
330
147
100
AcDbDictionary
281
     1
  3
Normal
350
14A
100
AcDbDictionaryWithDefault
340
14A
  0
DICTIONARY
  5
3BC
102
{ACAD_REACTORS
330
147
102
}
330
147
100
AcDbDictionary
281
     1
  3
A0
350
3BD
  3
A1
350
3BE
  3
A2
350
3BF
  3
A3
350
3C0
  3
A4
350
3C1
  3
A5
350
3C2
  3
A6
350
3C3
  3
A7
350
3C4
  3
A8
350
3C5
  3
A9
350
3C6
  3
B0
350
3C7
  3
B1
350
3C8
  3
B2
350
3C9
  3
B3
350
3CA
  3
B4
350
3CB
  3
B5
350
3CC
  3
B6
350
3CD
  0
DICTIONARY
  5
3D0
102
{ACAD_REACTORS
330
147
102
}
330
147
100
AcDbDictionary
281
     1
  3
Imperial24
350
3D1
  0
DICTIONARY
  5
3BA
102
{ACAD_REACTORS
330
147
102
}
330
147
100
AcDbDictionary
281
     1
  3
Standard
350
3BB
  0
DICTIONARY
  5
3A0
102
{ACAD_REACTORS
330
147
102
}
330
147
100
AcDbDictionary
281
     1
  3
2dWireframe
350
3A6
  3
Basic
350
3A5
  3
Brighten
350
3AC
  3
ColorChange
350
3B0
  3
Conceptual
350
3A9
  3
Dim
350
3AB
  3
EdgeColorOff
350
3B8
  3
Facepattern
350
3AF
  3
Flat
350
3A1
  3
FlatWithEdges
350
3A2
  3
Gouraud
350
3A3
  3
GouraudWithEdges
350
3A4
  3
Hidden
350
3A8
  3
JitterOff
350
3B6
  3
Linepattern
350
3AE
  3
OverhangOff
350
3B7
  3
Realistic
350
3AA
  3
Shaded
350
3B5
  3
Shaded with edges
350
3B4
  3
Shades of Gray
350
3B1
  3
Sketchy
350
3B2
  3
Thicken
350
3AD
  3
Wireframe
350
3A7
  3
X-Ray
350
3B3
  0
XRECORD
  5
8E9
102
{ACAD_REACTORS
330
147
102
}
330
147
100
AcDbXrecord
280
     1
 90
        1
330
3BB
  0
DICTIONARY
  5
1DF
102
{ACAD_REACTORS
330
147
102
}
330
147
100
AcDbDictionary
281
     1
  3
CANNOSCALE
350
3E0
  3
CMLEADERSTYLE
350
3DD
  3
CTABLESTYLE
350
3DC
  3
CVIEWDETAILSTYLE
350
3DE
  3
CVIEWSECTIONSTYLE
350
3DF
  3
DIMASSOC
350
1E0
  3
INDEXCTL
350
3E2
  3
LAYEREVAL
350
8E5
  3
LAYERNOTIFY
350
8E6
  3
LIGHTINGUNITS
350
8E4
  3
MSLTSCALE
350
8E3
  3
SORTENTS
350
3E1
  3
XCLIPFRAME
350
8E7
  0
XRECORD
  5
8EA
102
{ACAD_REACTORS
330
147
102
}
330
147
100
AcDbXrecord
280
     1
  1
DWGPROPS COOKIE
  2

  3

  4

  6

  7

  8
takaaki.hirami
  9

300
=
301
=
302
=
303
=
304
=
305
=
306
=
307
=
308
=
309
=
 40
0.2895999652777777
 41
2452263.784814815
 42
2459990.433761574
  1

 90
        0
  0
DICTIONARY
  5
4B7
102
{ACAD_REACTORS
330
4B6
102
}
330
4B6
100
AcDbDictionary
281
     1
  0
XRECORD
  5
3D7
102
{ACAD_REACTORS
330
3D6
102
}
330
3D6
100
AcDbXrecord
280
     1
290
     1
  0
XRECORD
  5
3D9
102
{ACAD_REACTORS
330
3D8
102
}
330
3D8
100
AcDbXrecord
280
     1
290
     1
  0
XRECORD
  5
3DB
102
{ACAD_REACTORS
330
3DA
102
}
330
3DA
100
AcDbXrecord
280
     1
290
     1
  0
SORTENTSTABLE
  5
6A1
102
{ACAD_REACTORS
330
6A0
102
}
330
6A0
100
AcDbSortentsTable
330
159
331
1A0
  5
1A5
331
1A5
  5
1A6
331
1A6
  5
1A7
331
1A7
  5
1A8
331
1A8
  5
1A9
331
1A9
  5
1AA
331
1AE
  5
1B1
331
1B7
  5
1B9
331
1B9
  5
1BA
331
1BA
  5
1BB
331
1BB
  5
1BE
331
1BE
  5
1BF
331
1BF
  5
1D2
331
1D2
  5
1D3
331
1D3
  5
1D4
331
1D4
  5
1D5
331
1D5
  5
1D6
331
1D6
  5
1D7
331
1D7
  5
1D8
331
1D8
  5
1D9
331
1D9
  5
1DA
331
1DA
  5
1DB
331
1DB
  5
1DC
331
1DC
  5
1DD
331
1DD
  5
1E1
331
1E1
  5
1E3
331
1E3
  5
1E5
331
1E5
  5
1E6
331
1E6
  5
1EE
331
1EE
  5
1F6
331
1F6
  5
21A
331
21A
  5
255
331
255
  5
256
331
29B
  5
2A5
331
2A3
  5
2A7
331
2A5
  5
2A9
331
2A7
  5
2AA
331
2A9
  5
2AB
331
2AA
  5
2AC
331
2AB
  5
2AD
331
2AC
  5
2AE
331
2AD
  5
2AF
331
2AE
  5
2B0
331
2AF
  5
2C1
331
2B0
  5
2C3
331
2B2
  5
2C4
331
2C1
  5
2C5
331
2C2
  5
2C6
331
2C3
  5
2FF
331
2C4
  5
300
331
2C5
  5
302
331
2C6
  5
306
331
301
  5
312
331
302
  5
313
331
304
  5
317
331
30B
  5
320
331
30C
  5
321
331
30D
  5
32C
331
30F
  5
34A
331
310
  5
359
331
312
  5
35B
331
314
  5
35C
331
319
  5
362
331
31A
  5
365
331
31F
  5
366
331
320
  5
367
331
321
  5
368
331
325
  5
369
331
326
  5
36A
331
327
  5
36B
331
328
  5
36C
331
32B
  5
36D
331
32C
  5
36E
331
359
  5
36F
331
35A
  5
370
331
35B
  5
372
331
35C
  5
373
331
35D
  5
374
331
35E
  5
375
331
35F
  5
376
331
361
  5
377
331
362
  5
378
331
365
  5
379
331
366
  5
37A
331
367
  5
37B
331
368
  5
69F
331
369
  5
6A2
331
36A
  5
6AA
331
36B
  5
6AB
331
36C
  5
6AC
331
36D
  5
6AD
331
36E
  5
6AE
331
36F
  5
6AF
331
370
  5
6B1
331
372
  5
6B3
331
373
  5
6B4
331
374
  5
6B6
331
375
  5
6B7
331
376
  5
795
331
377
  5
796
331
378
  5
797
331
379
  5
798
331
37A
  5
799
331
37B
  5
79A
331
8B9
  5
8BF
331
8BA
  5
8C0
331
8BB
  5
8C1
331
8BC
  5
8C2
331
8BD
  5
8C4
331
8BE
  5
8C5
331
8BF
  5
8C6
331
8C0
  5
8C7
331
8C1
  5
8C8
331
8C2
  5
8CB
331
8C3
  5
8CC
331
8C4
  5
8D1
331
8C5
  5
8D2
331
8C6
  5
8D3
331
8C7
  5
8D4
331
8C8
  5
8DB
331
8C9
  5
8DD
331
8CA
  5
8DE
331
8CB
  5
8DF
331
8CC
  5
8E0
331
8D1
  5
8C3
331
8D2
  5
8C9
331
8D3
  5
8CA
331
8D4
  5
2C2
331
8DB
  5
29C
331
8DC
  5
2B2
331
8DD
  5
8E1
331
8DE
  5
8E2
331
8DF
  5
6B5
331
8E0
  5
8DC
331
8E1
  5
35F
331
8E2
  5
6B0
  0
ACDBDETAILVIEWSTYLE
  5
3D3
102
{ACAD_XDICTIONARY
360
922
102
}
102
{ACAD_REACTORS
330
3D2
102
}
330
3D2
100
AcDbModelDocViewStyle
 70
     0
  3
Imperial24
290
     0
100
AcDbDetailViewStyle
 70
     0
 71
     0
 90
        3
 71
     1
340
14C
 40
0.24
340
0
 40
0.24
300

 40
0.36
280
     3
 71
     2
340
150
 90
       25
 71
     3
340
14C
 40
0.24
 90
        1
 40
0.75
 90
        1
300
%<\AcVar ViewType \f "%tc1">% %<\AcVar ViewDetailId>%\PSCALE %<\AcVar ViewScale \f "%sn">%
 71
     4
340
150
 90
       25
340
150
 90
       25
280
     0
  0
LAYOUT
  5
15C
102
{ACAD_XDICTIONARY
360
8ED
102
}
102
{ACAD_REACTORS
330
154
102
}
330
154
100
AcDbPlotSettings
  1

  2
Canon LASER SHOT LBP-1710
  4

  6

 40
0.0
 41
0.0
 42
0.0
 43
0.0
 44
0.0
 45
0.0
 46
0.0
 47
0.0
 48
0.0
 49
0.0
140
0.0
141
0.0
142
1.0
143
1.0
 70
  1712
 72
     0
 73
     0
 74
     0
  7
1mizukoshi.ctb
 75
     0
147
1.0
148
0.0
149
0.0
100
AcDbLayout
  1
Model
 70
     1
 71
     0
 10
0.0
 20
0.0
 11
12.0
 21
9.0
 12
0.0
 22
0.0
 32
0.0
 14
0.0
 24
0.0
 34
0.0
 15
0.0
 25
0.0
 35
0.0
146
0.0
 13
0.0
 23
0.0
 33
0.0
 16
1.0
 26
0.0
 36
0.0
 17
0.0
 27
1.0
 37
0.0
 76
     0
330
159
331
382
  0
LAYOUT
  5
158
102
{ACAD_XDICTIONARY
360
8EB
102
}
102
{ACAD_REACTORS
330
154
102
}
330
154
100
AcDbPlotSettings
  1

  2
Canon LASER SHOT LBP-1710
  4

  6

 40
0.0
 41
0.0
 42
0.0
 43
0.0
 44
0.0
 45
0.0
 46
0.0
 47
0.0
 48
0.0
 49
0.0
140
0.0
141
0.0
142
1.0
143
1.0
 70
   688
 72
     0
 73
     0
 74
     5
  7
1mizukoshi.ctb
 75
    16
147
1.0
148
0.0
149
0.0
100
AcDbLayout
  1
\U+FF9A\U+FF72\U+FF71\U+FF73\U+FF841
 70
     1
 71
     1
 10
0.0
 20
0.0
 11
420.0
 21
297.0
 12
0.0
 22
0.0
 32
0.0
 14
1.000000000000000E+20
 24
1.000000000000000E+20
 34
1.000000000000000E+20
 15
-1.000000000000000E+20
 25
-1.000000000000000E+20
 35
-1.000000000000000E+20
146
0.0
 13
0.0
 23
0.0
 33
0.0
 16
1.0
 26
0.0
 36
0.0
 17
0.0
 27
1.0
 37
0.0
 76
     0
330
155
  0
MATERIAL
  5
390
102
{ACAD_XDICTIONARY
360
391
102
}
102
{ACAD_REACTORS
330
387
102
}
330
387
100
AcDbMaterial
  1
ByBlock
 72
     0
 43
0.0208333333333333
 43
0.0
 43
0.0
 43
0.0
 43
0.0
 43
0.0208333333333333
 43
0.0
 43
0.0
 43
0.0
 43
0.0
 43
1.0
 43
0.0
 43
0.0
 43
0.0
 43
0.0
 43
1.0
 77
     0
 47
0.0208333333333333
 47
0.0
 47
0.0
 47
0.0
 47
0.0
 47
0.0208333333333333
 47
0.0
 47
0.0
 47
0.0
 47
0.0
 47
1.0
 47
0.0
 47
0.0
 47
0.0
 47
0.0
 47
1.0
171
     0
 49
0.0208333333333333
 49
0.0
 49
0.0
 49
0.0
 49
0.0
 49
0.0208333333333333
 49
0.0
 49
0.0
 49
0.0
 49
0.0
 49
1.0
 49
0.0
 49
0.0
 49
0.0
 49
0.0
 49
1.0
175
     0
142
0.0208333333333333
142
0.0
142
0.0
142
0.0
142
0.0
142
0.0208333333333333
142
0.0
142
0.0
142
0.0
142
0.0
142
1.0
142
0.0
142
0.0
142
0.0
142
0.0
142
1.0
179
     0
144
0.0208333333333333
144
0.0
144
0.0
144
0.0
144
0.0
144
0.0208333333333333
144
0.0
144
0.0
144
0.0
144
0.0
144
1.0
144
0.0
144
0.0
144
0.0
144
0.0
144
1.0
147
0.0208333333333333
147
0.0
147
0.0
147
0.0
147
0.0
147
0.0208333333333333
147
0.0
147
0.0
147
0.0
147
0.0
147
1.0
147
0.0
147
0.0
147
0.0
147
0.0
147
1.0
  0
MATERIAL
  5
388
102
{ACAD_XDICTIONARY
360
389
102
}
102
{ACAD_REACTORS
330
387
102
}
330
387
100
AcDbMaterial
  1
ByLayer
 72
     0
 43
0.0208333333333333
 43
0.0
 43
0.0
 43
0.0
 43
0.0
 43
0.0208333333333333
 43
0.0
 43
0.0
 43
0.0
 43
0.0
 43
1.0
 43
0.0
 43
0.0
 43
0.0
 43
0.0
 43
1.0
 77
     0
 47
0.0208333333333333
 47
0.0
 47
0.0
 47
0.0
 47
0.0
 47
0.0208333333333333
 47
0.0
 47
0.0
 47
0.0
 47
0.0
 47
1.0
 47
0.0
 47
0.0
 47
0.0
 47
0.0
 47
1.0
171
     0
 49
0.0208333333333333
 49
0.0
 49
0.0
 49
0.0
 49
0.0
 49
0.0208333333333333
 49
0.0
 49
0.0
 49
0.0
 49
0.0
 49
1.0
 49
0.0
 49
0.0
 49
0.0
 49
0.0
 49
1.0
175
     0
142
0.0208333333333333
142
0.0
142
0.0
142
0.0
142
0.0
142
0.0208333333333333
142
0.0
142
0.0
142
0.0
142
0.0
142
1.0
142
0.0
142
0.0
142
0.0
142
0.0
142
1.0
179
     0
144
0.0208333333333333
144
0.0
144
0.0
144
0.0
144
0.0
144
0.0208333333333333
144
0.0
144
0.0
144
0.0
144
0.0
144
1.0
144
0.0
144
0.0
144
0.0
144
0.0
144
1.0
147
0.0208333333333333
147
0.0
147
0.0
147
0.0
147
0.0
147
0.0208333333333333
147
0.0
147
0.0
147
0.0
147
0.0
147
1.0
147
0.0
147
0.0
147
0.0
147
0.0
147
1.0
  0
MATERIAL
  5
398
102
{ACAD_XDICTIONARY
360
399
102
}
102
{ACAD_REACTORS
330
387
102
}
330
387
100
AcDbMaterial
  1
Global
 72
     0
 43
0.0208333333333333
 43
0.0
 43
0.0
 43
0.0
 43
0.0
 43
0.0208333333333333
 43
0.0
 43
0.0
 43
0.0
 43
0.0
 43
1.0
 43
0.0
 43
0.0
 43
0.0
 43
0.0
 43
1.0
 77
     0
 47
0.0208333333333333
 47
0.0
 47
0.0
 47
0.0
 47
0.0
 47
0.0208333333333333
 47
0.0
 47
0.0
 47
0.0
 47
0.0
 47
1.0
 47
0.0
 47
0.0
 47
0.0
 47
0.0
 47
1.0
171
     0
 49
0.0208333333333333
 49
0.0
 49
0.0
 49
0.0
 49
0.0
 49
0.0208333333333333
 49
0.0
 49
0.0
 49
0.0
 49
0.0
 49
1.0
 49
0.0
 49
0.0
 49
0.0
 49
0.0
 49
1.0
175
     0
142
0.0208333333333333
142
0.0
142
0.0
142
0.0
142
0.0
142
0.0208333333333333
142
0.0
142
0.0
142
0.0
142
0.0
142
1.0
142
0.0
142
0.0
142
0.0
142
0.0
142
1.0
179
     0
144
0.0208333333333333
144
0.0
144
0.0
144
0.0
144
0.0
144
0.0208333333333333
144
0.0
144
0.0
144
0.0
144
0.0
144
1.0
144
0.0
144
0.0
144
0.0
144
0.0
144
1.0
147
0.0208333333333333
147
0.0
147
0.0
147
0.0
147
0.0
147
0.0208333333333333
147
0.0
147
0.0
147
0.0
147
0.0
147
1.0
147
0.0
147
0.0
147
0.0
147
0.0
147
1.0
  0
MLEADERSTYLE
  5
3CF
102
{ACAD_REACTORS
330
3CE
102
}
330
3CE
100
AcDbMLeaderStyle
170
     2
171
     1
172
     0
 90
        2
 40
0.0
 41
0.0
173
     1
 91
-1056964608
340
14E
 92
       -2
290
     1
 42
0.09
291
     1
 43
0.36
  3
Standard
 44
0.18
300

342
14C
174
     1
178
     6
175
     1
176
     0
 93
-1056964608
 45
0.18
292
     0
297
     0
 46
0.18
 94
-1056964608
 47
1.0
 49
1.0
140
1.0
293
     1
141
0.0
294
     1
177
     0
142
1.0
295
     0
296
     0
143
0.125
1001
ACAD_MLEADERVER
1070
     2
  0
MLINESTYLE
  5
152
102
{ACAD_REACTORS
330
151
102
}
330
151
100
AcDbMlineStyle
  2
STANDARD
 70
     0
  3

 62
   256
 51
90.0
 52
90.0
 71
     2
 49
0.5
 62
   256
  6
BYLAYER
 49
-0.5
 62
   256
  6
BYLAYER
  0
ACDBPLACEHOLDER
  5
14A
102
{ACAD_REACTORS
330
149
102
}
330
149
  0
SCALE
  5
3BD
102
{ACAD_REACTORS
330
3BC
102
}
330
3BC
100
AcDbScale
 70
     0
300
1:1
140
1.0
141
1.0
290
     1
  0
SCALE
  5
3BE
102
{ACAD_REACTORS
330
3BC
102
}
330
3BC
100
AcDbScale
 70
     0
300
1/128" = 1'-0"
140
0.0078125
141
12.0
290
     0
  0
SCALE
  5
3BF
102
{ACAD_REACTORS
330
3BC
102
}
330
3BC
100
AcDbScale
 70
     0
300
1/64" = 1'-0"
140
0.015625
141
12.0
290
     0
  0
SCALE
  5
3C0
102
{ACAD_REACTORS
330
3BC
102
}
330
3BC
100
AcDbScale
 70
     0
300
1/32" = 1'-0"
140
0.03125
141
12.0
290
     0
  0
SCALE
  5
3C1
102
{ACAD_REACTORS
330
3BC
102
}
330
3BC
100
AcDbScale
 70
     0
300
1/16" = 1'-0"
140
0.0625
141
12.0
290
     0
  0
SCALE
  5
3C2
102
{ACAD_REACTORS
330
3BC
102
}
330
3BC
100
AcDbScale
 70
     0
300
3/32" = 1'-0"
140
0.09375
141
12.0
290
     0
  0
SCALE
  5
3C3
102
{ACAD_REACTORS
330
3BC
102
}
330
3BC
100
AcDbScale
 70
     0
300
1/8" = 1'-0"
140
0.125
141
12.0
290
     0
  0
SCALE
  5
3C4
102
{ACAD_REACTORS
330
3BC
102
}
330
3BC
100
AcDbScale
 70
     0
300
3/16" = 1'-0"
140
0.1875
141
12.0
290
     0
  0
SCALE
  5
3C5
102
{ACAD_REACTORS
330
3BC
102
}
330
3BC
100
AcDbScale
 70
     0
300
1/4" = 1'-0"
140
0.25
141
12.0
290
     0
  0
SCALE
  5
3C6
102
{ACAD_REACTORS
330
3BC
102
}
330
3BC
100
AcDbScale
 70
     0
300
3/8" = 1'-0"
140
0.375
141
12.0
290
     0
  0
SCALE
  5
3C7
102
{ACAD_REACTORS
330
3BC
102
}
330
3BC
100
AcDbScale
 70
     0
300
1/2" = 1'-0"
140
0.5
141
12.0
290
     0
  0
SCALE
  5
3C8
102
{ACAD_REACTORS
330
3BC
102
}
330
3BC
100
AcDbScale
 70
     0
300
3/4" = 1'-0"
140
0.75
141
12.0
290
     0
  0
SCALE
  5
3C9
102
{ACAD_REACTORS
330
3BC
102
}
330
3BC
100
AcDbScale
 70
     0
300
1" = 1'-0"
140
1.0
141
12.0
290
     0
  0
SCALE
  5
3CA
102
{ACAD_REACTORS
330
3BC
102
}
330
3BC
100
AcDbScale
 70
     0
300
1-1/2" = 1'-0"
140
1.5
141
12.0
290
     0
  0
SCALE
  5
3CB
102
{ACAD_REACTORS
330
3BC
102
}
330
3BC
100
AcDbScale
 70
     0
300
3" = 1'-0"
140
3.0
141
12.0
290
     0
  0
SCALE
  5
3CC
102
{ACAD_REACTORS
330
3BC
102
}
330
3BC
100
AcDbScale
 70
     0
300
6" = 1'-0"
140
6.0
141
12.0
290
     0
  0
SCALE
  5
3CD
102
{ACAD_REACTORS
330
3BC
102
}
330
3BC
100
AcDbScale
 70
     0
300
1'-0" = 1'-0"
140
12.0
141
12.0
290
     0
  0
ACDBSECTIONVIEWSTYLE
  5
3D1
102
{ACAD_XDICTIONARY
360
920
102
}
102
{ACAD_REACTORS
330
3D0
102
}
330
3D0
100
AcDbModelDocViewStyle
 70
     0
  3
Imperial24
290
     0
100
AcDbSectionViewStyle
 70
     0
 71
     0
 90
       78
 71
     1
340
14C
 40
0.24
340
0
340
0
 40
0.24
300
I, O, Q, S, X, Z
 40
0.48
 90
        3
 40
0.18
 90
        1
 71
     2
340
150
 90
       25
340
150
 90
       50
 40
0.24
 40
0.0
 40
0.24
 71
     3
340
14C
 40
0.24
 90
        1
 40
0.75
 90
        1
300
%<\AcVar ViewType \f "%tc1">% %<\AcVar ViewSectionStartId>%-%<\AcVar ViewSectionEndId>%\PSCALE %<\AcVar ViewScale \f "%sn">%
 71
     4
300
ANSI31
 40
1.0
 90
        0
290
     0
290
     0
 90
        6
 40
0.0
 40
1.570796326794896
 40
0.2617993877991494
 40
1.308996938995747
 40
-0.2617993877991494
 40
1.832595714594044
  0
TABLESTYLE
  5
3BB
102
{ACAD_XDICTIONARY
360
3E5
102
}
102
{ACAD_REACTORS
330
3BA
102
}
330
3BA
100
AcDbTableStyle
  3
Standard
 70
     0
 71
     0
 40
0.06
 41
0.06
280
     0
281
     0
  7
STANDARD
140
0.18
170
     2
 62
     0
 63
     7
283
     0
274
    -2
284
     1
 64
     0
275
    -2
285
     1
 65
     0
276
    -2
286
     1
 66
     0
277
    -2
287
     1
 67
     0
278
    -2
288
     1
 68
     0
279
    -2
289
     1
 69
     0
  7
STANDARD
140
0.25
170
     5
 62
     0
 63
     7
283
     0
274
    -2
284
     1
 64
     0
275
    -2
285
     1
 65
     0
276
    -2
286
     1
 66
     0
277
    -2
287
     1
 67
     0
278
    -2
288
     1
 68
     0
279
    -2
289
     1
 69
     0
  7
STANDARD
140
0.18
170
     5
 62
     0
 63
     7
283
     0
274
    -2
284
     1
 64
     0
275
    -2
285
     1
 65
     0
276
    -2
286
     1
 66
     0
277
    -2
287
     1
 67
     0
278
    -2
288
     1
 68
     0
279
    -2
289
     1
 69
     0
  0
VISUALSTYLE
  5
3A6
102
{ACAD_XDICTIONARY
360
8F9
102
}
102
{ACAD_REACTORS
330
3A0
102
}
330
3A0
100
AcDbVisualStyle
  2

 70
     4
 71
     0
 72
     2
 73
     0
 90
        0
 40
-0.6
 41
-30.0
 62
     5
 63
     7
 74
     1
 91
        4
 64
     7
 65
   257
 75
     1
175
     1
 42
1.0
 92
        0
 66
   257
 43
1.0
 76
     1
 77
     6
 78
     2
 67
     7
 79
     5
170
     0
171
     0
290
     0
174
     0
 93
        1
 44
0.0
173
     0
291
     0
 45
0.0
1001
ACAD
1000
AcDbSavedByObjectVersion
1070
     0
  0
VISUALSTYLE
  5
3A5
102
{ACAD_XDICTIONARY
360
8F7
102
}
102
{ACAD_REACTORS
330
3A0
102
}
330
3A0
100
AcDbVisualStyle
  2

 70
     7
 71
     1
 72
     0
 73
     1
 90
        0
 40
-0.6
 41
-30.0
 62
     5
 63
     7
 74
     0
 91
        4
 64
     7
 65
   257
 75
     1
175
     1
 42
1.0
 92
        8
 66
     7
 43
1.0
 76
     1
 77
     6
 78
     2
 67
     7
 79
     5
170
     0
171
     0
290
     0
174
     0
 93
        1
 44
0.0
173
     0
291
     1
 45
0.0
1001
ACAD
1000
AcDbSavedByObjectVersion
1070
     0
  0
VISUALSTYLE
  5
3AC
102
{ACAD_XDICTIONARY
360
905
102
}
102
{ACAD_REACTORS
330
3A0
102
}
330
3A0
100
AcDbVisualStyle
  2

 70
    12
 71
     2
 72
     2
 73
     0
 90
        0
 40
-0.6
 41
-30.0
 62
     5
 63
     7
 74
     1
 91
        4
 64
     7
 65
   257
 75
     1
175
     1
 42
1.0
 92
        8
 66
     7
 43
1.0
 76
     1
 77
     6
 78
     2
 67
     7
 79
     5
170
     0
171
     0
290
     0
174
     0
 93
        1
 44
50.0
173
     0
291
     1
 45
0.0
1001
ACAD
1000
AcDbSavedByObjectVersion
1070
     0
  0
VISUALSTYLE
  5
3B0
102
{ACAD_XDICTIONARY
360
90D
102
}
102
{ACAD_REACTORS
330
3A0
102
}
330
3A0
100
AcDbVisualStyle
  2

 70
    16
 71
     2
 72
     2
 73
     3
 90
        0
 40
-0.6
 41
-30.0
 62
     5
 63
     8
 74
     1
 91
        4
 64
     7
 65
   257
 75
     1
175
     1
 42
1.0
 92
        8
 66
     8
 43
1.0
 76
     1
 77
     6
 78
     2
 67
     7
 79
     5
170
     0
171
     0
290
     0
174
     0
 93
        1
 44
0.0
173
     0
291
     1
 45
0.0
1001
ACAD
1000
AcDbSavedByObjectVersion
1070
     0
  0
VISUALSTYLE
  5
3A9
102
{ACAD_XDICTIONARY
360
8FF
102
}
102
{ACAD_REACTORS
330
3A0
102
}
330
3A0
100
AcDbVisualStyle
  2

 70
     9
 71
     3
 72
     2
 73
     0
 90
        0
 40
-0.6
 41
-30.0
 62
     5
 63
     7
 74
     2
 91
        2
 64
     7
 65
   257
 75
     1
175
     1
 42
179.0
 92
        8
 66
     7
 43
1.0
 76
     1
 77
     6
 78
     2
 67
     7
 79
     3
170
     0
171
     0
290
     0
174
     0
 93
        1
 44
0.0
173
     0
291
     0
 45
0.0
1001
ACAD
1000
AcDbSavedByObjectVersion
1070
     0
  0
VISUALSTYLE
  5
3AB
102
{ACAD_XDICTIONARY
360
903
102
}
102
{ACAD_REACTORS
330
3A0
102
}
330
3A0
100
AcDbVisualStyle
  2

 70
    11
 71
     2
 72
     2
 73
     0
 90
        0
 40
-0.6
 41
-30.0
 62
     5
 63
     7
 74
     1
 91
        4
 64
     7
 65
   257
 75
     1
175
     1
 42
1.0
 92
        8
 66
     7
 43
1.0
 76
     1
 77
     6
 78
     2
 67
     7
 79
     5
170
     0
171
     0
290
     0
174
     0
 93
        1
 44
-50.0
173
     0
291
     1
 45
0.0
1001
ACAD
1000
AcDbSavedByObjectVersion
1070
     0
  0
VISUALSTYLE
  5
3B8
102
{ACAD_XDICTIONARY
360
91D
102
}
102
{ACAD_REACTORS
330
3A0
102
}
330
3A0
100
AcDbVisualStyle
  2

 70
    22
 71
     2
 72
     2
 73
     0
 90
        0
 40
-0.6
 41
-30.0
 62
     5
 63
     7
 74
     1
 91
        4
 64
     7
 65
   257
 75
     1
175
     1
 42
1.0
 92
        8
 66
     7
 43
1.0
 76
     1
 77
     6
 78
     2
 67
     7
 79
     5
170
     0
171
     0
290
     0
174
     0
 93
        1
 44
0.0
173
     0
291
     1
 45
0.0
1001
ACAD
1000
AcDbSavedByObjectVersion
1070
     0
  0
VISUALSTYLE
  5
3AF
102
{ACAD_XDICTIONARY
360
90B
102
}
102
{ACAD_REACTORS
330
3A0
102
}
330
3A0
100
AcDbVisualStyle
  2

 70
    15
 71
     2
 72
     2
 73
     0
 90
        0
 40
-0.6
 41
-30.0
 62
     5
 63
     7
 74
     1
 91
        4
 64
     7
 65
   257
 75
     1
175
     1
 42
1.0
 92
        8
 66
     7
 43
1.0
 76
     1
 77
     6
 78
     2
 67
     7
 79
     5
170
     0
171
     0
290
     0
174
     0
 93
        1
 44
0.0
173
     0
291
     1
 45
0.0
1001
ACAD
1000
AcDbSavedByObjectVersion
1070
     0
  0
VISUALSTYLE
  5
3A1
102
{ACAD_XDICTIONARY
360
8EF
102
}
102
{ACAD_REACTORS
330
3A0
102
}
330
3A0
100
AcDbVisualStyle
  2

 70
     0
 71
     2
 72
     1
 73
     1
 90
        2
 40
-0.6
 41
30.0
 62
     5
 63
     7
 74
     0
 91
        0
 64
     7
 65
   257
 75
     1
175
     1
 42
1.0
 92
        8
 66
     7
 43
1.0
 76
     1
 77
     6
 78
     2
 67
     7
 79
     5
170
     0
171
     0
290
     0
174
     0
 93
       13
 44
0.0
173
     0
291
     1
 45
0.0
1001
ACAD
1000
AcDbSavedByObjectVersion
1070
     0
  0
VISUALSTYLE
  5
3A2
102
{ACAD_XDICTIONARY
360
8F1
102
}
102
{ACAD_REACTORS
330
3A0
102
}
330
3A0
100
AcDbVisualStyle
  2

 70
     1
 71
     2
 72
     1
 73
     1
 90
        2
 40
-0.6
 41
30.0
 62
     5
 63
     7
 74
     1
 91
        0
 64
     7
 65
   257
 75
     1
175
     1
 42
1.0
 92
        0
 66
   257
 43
1.0
 76
     1
 77
     6
 78
     2
 67
     7
 79
     5
170
     0
171
     0
290
     0
174
     0
 93
       13
 44
0.0
173
     0
291
     1
 45
0.0
1001
ACAD
1000
AcDbSavedByObjectVersion
1070
     0
  0
VISUALSTYLE
  5
3A3
102
{ACAD_XDICTIONARY
360
8F3
102
}
102
{ACAD_REACTORS
330
3A0
102
}
330
3A0
100
AcDbVisualStyle
  2

 70
     2
 71
     2
 72
     2
 73
     1
 90
        2
 40
-0.6
 41
30.0
 62
     5
 63
     7
 74
     0
 91
        0
 64
     7
 65
   257
 75
     1
175
     1
 42
1.0
 92
        0
 66
     7
 43
1.0
 76
     1
 77
     6
 78
     2
 67
     7
 79
     5
170
     0
171
     0
290
     0
174
     0
 93
       13
 44
0.0
173
     0
291
     1
 45
0.0
1001
ACAD
1000
AcDbSavedByObjectVersion
1070
     0
  0
VISUALSTYLE
  5
3A4
102
{ACAD_XDICTIONARY
360
8F5
102
}
102
{ACAD_REACTORS
330
3A0
102
}
330
3A0
100
AcDbVisualStyle
  2

 70
     3
 71
     2
 72
     2
 73
     1
 90
        2
 40
-0.6
 41
30.0
 62
     5
 63
     7
 74
     1
 91
        0
 64
     7
 65
   257
 75
     1
175
     1
 42
1.0
 92
        0
 66
   257
 43
1.0
 76
     1
 77
     6
 78
     2
 67
     7
 79
     5
170
     0
171
     0
290
     0
174
     0
 93
       13
 44
0.0
173
     0
291
     1
 45
0.0
1001
ACAD
1000
AcDbSavedByObjectVersion
1070
     0
  0
VISUALSTYLE
  5
3A8
102
{ACAD_XDICTIONARY
360
8FD
102
}
102
{ACAD_REACTORS
330
3A0
102
}
330
3A0
100
AcDbVisualStyle
  2

 70
     6
 71
     1
 72
     2
 73
     2
 90
        0
 40
-0.6
 41
-30.0
 62
     5
 63
     7
 74
     2
 91
        2
 64
     7
 65
   257
 75
     2
175
     1
 42
40.0
 92
        0
 66
   257
 43
1.0
 76
     1
 77
     6
 78
     2
 67
     7
 79
     3
170
     0
171
     0
290
     0
174
     0
 93
        1
 44
0.0
173
     0
291
     0
 45
0.0
1001
ACAD
1000
AcDbSavedByObjectVersion
1070
     0
  0
VISUALSTYLE
  5
3B6
102
{ACAD_XDICTIONARY
360
919
102
}
102
{ACAD_REACTORS
330
3A0
102
}
330
3A0
100
AcDbVisualStyle
  2

 70
    20
 71
     2
 72
     2
 73
     0
 90
        0
 40
-0.6
 41
-30.0
 62
     5
 63
     7
 74
     1
 91
        4
 64
     7
 65
   257
 75
     1
175
     1
 42
1.0
 92
       10
 66
     7
 43
1.0
 76
     1
 77
     6
 78
     2
 67
     7
 79
     5
170
     0
171
     0
290
     0
174
     0
 93
        1
 44
0.0
173
     0
291
     1
 45
0.0
1001
ACAD
1000
AcDbSavedByObjectVersion
1070
     0
  0
VISUALSTYLE
  5
3AE
102
{ACAD_XDICTIONARY
360
909
102
}
102
{ACAD_REACTORS
330
3A0
102
}
330
3A0
100
AcDbVisualStyle
  2

 70
    14
 71
     2
 72
     2
 73
     0
 90
        0
 40
-0.6
 41
-30.0
 62
     5
 63
     7
 74
     1
 91
        4
 64
     7
 65
   257
 75
     7
175
     7
 42
1.0
 92
        8
 66
     7
 43
1.0
 76
     1
 77
     6
 78
     2
 67
     7
 79
     5
170
     0
171
     0
290
     0
174
     0
 93
        1
 44
0.0
173
     0
291
     1
 45
0.0
1001
ACAD
1000
AcDbSavedByObjectVersion
1070
     0
  0
VISUALSTYLE
  5
3B7
102
{ACAD_XDICTIONARY
360
91B
102
}
102
{ACAD_REACTORS
330
3A0
102
}
330
3A0
100
AcDbVisualStyle
  2

 70
    21
 71
     2
 72
     2
 73
     0
 90
        0
 40
-0.6
 41
-30.0
 62
     5
 63
     7
 74
     1
 91
        4
 64
     7
 65
   257
 75
     1
175
     1
 42
1.0
 92
        9
 66
     7
 43
1.0
 76
     1
 77
     6
 78
     2
 67
     7
 79
     5
170
     0
171
     0
290
     0
174
     0
 93
        1
 44
0.0
173
     0
291
     1
 45
0.0
1001
ACAD
1000
AcDbSavedByObjectVersion
1070
     0
  0
VISUALSTYLE
  5
3AA
102
{ACAD_XDICTIONARY
360
901
102
}
102
{ACAD_REACTORS
330
3A0
102
}
330
3A0
100
AcDbVisualStyle
  2

 70
     8
 71
     2
 72
     3
 73
     0
 90
        2
 40
-0.6
 41
30.0
 62
     5
 63
     7
 74
     0
 91
        0
 64
     7
 65
   257
 75
     1
175
     1
 42
1.0
 92
        8
 66
   257
 43
1.0
 76
     1
 77
     6
 78
     2
 67
     7
 79
     3
170
     0
171
     0
290
     0
174
     0
 93
       13
 44
0.0
173
     0
291
     0
 45
0.0
1001
ACAD
1000
AcDbSavedByObjectVersion
1070
     0
  0
VISUALSTYLE
  5
3B5
102
{ACAD_XDICTIONARY
360
917
102
}
102
{ACAD_REACTORS
330
3A0
102
}
330
3A0
100
AcDbVisualStyle
  2

 70
    27
 71
     2
 72
     2
 73
     1
 90
        2
 40
-0.6
 41
30.0
 62
     5
 63
     7
 74
     0
 91
        4
 64
     7
 65
   257
 75
     1
175
     1
 42
1.0
 92
        8
 66
   257
 43
1.0
 76
     1
 77
     6
 78
     2
 67
     8
 79
     3
170
     0
171
     0
290
     0
174
     0
 93
        5
 44
0.0
173
     0
291
     0
 45
0.0
1001
ACAD
1000
AcDbSavedByObjectVersion
1070
     0
  0
VISUALSTYLE
  5
3B4
102
{ACAD_XDICTIONARY
360
915
102
}
102
{ACAD_REACTORS
330
3A0
102
}
330
3A0
100
AcDbVisualStyle
  2

 70
    26
 71
     2
 72
     2
 73
     1
 90
        2
 40
-0.6
 41
30.0
 62
     5
 63
     7
 74
     1
 91
        2
 64
     7
 65
   257
 75
     2
175
     1
 42
1.0
 92
        8
 66
   257
 43
1.0
 76
     1
 77
     6
 78
     2
 67
     7
 79
     3
170
     0
171
     0
290
     0
174
     0
 93
        5
 44
0.0
173
     0
291
     0
 45
0.0
1001
ACAD
1000
AcDbSavedByObjectVersion
1070
     0
  0
VISUALSTYLE
  5
3B1
102
{ACAD_XDICTIONARY
360
90F
102
}
102
{ACAD_REACTORS
330
3A0
102
}
330
3A0
100
AcDbVisualStyle
  2

 70
    23
 71
     2
 72
     2
 73
     3
 90
        0
 40
-0.6
 41
-30.0
 62
     5
 63
     7
 74
     2
 91
        2
 64
     7
 65
     7
 75
     1
175
     1
 42
40.0
 92
        8
 66
     7
 43
1.0
 76
     1
 77
     6
 78
     2
 67
     7
 79
     3
170
     0
171
     0
290
     0
174
     0
 93
        1
 44
0.0
173
     0
291
     0
 45
0.0
1001
ACAD
1000
AcDbSavedByObjectVersion
1070
     0
  0
VISUALSTYLE
  5
3B2
102
{ACAD_XDICTIONARY
360
911
102
}
102
{ACAD_REACTORS
330
3A0
102
}
330
3A0
100
AcDbVisualStyle
  2

 70
    24
 71
     1
 72
     2
 73
     2
 90
        0
 40
-0.6
 41
-30.0
 62
     5
 63
     7
 74
     2
 91
        2
 64
     7
 65
     7
 75
     1
175
     1
 42
40.0
 92
       11
 66
     7
 43
1.0
 76
     1
 77
     6
 78
     2
 67
     7
 79
     6
170
     0
171
     0
290
     0
174
     0
 93
        1
 44
0.0
173
     0
291
     0
 45
0.0
1001
ACAD
1000
AcDbSavedByObjectVersion
1070
     0
  0
VISUALSTYLE
  5
3AD
102
{ACAD_XDICTIONARY
360
907
102
}
102
{ACAD_REACTORS
330
3A0
102
}
330
3A0
100
AcDbVisualStyle
  2

 70
    13
 71
     2
 72
     2
 73
     0
 90
        0
 40
-0.6
 41
-30.0
 62
     5
 63
     7
 74
     1
 91
        4
 64
     7
 65
   257
 75
     1
175
     1
 42
1.0
 92
       12
 66
     7
 43
1.0
 76
     1
 77
     6
 78
     2
 67
     7
 79
     5
170
     0
171
     0
290
     0
174
     0
 93
        1
 44
0.0
173
     0
291
     1
 45
0.0
1001
ACAD
1000
AcDbSavedByObjectVersion
1070
     0
  0
VISUALSTYLE
  5
3A7
102
{ACAD_XDICTIONARY
360
8FB
102
}
102
{ACAD_REACTORS
330
3A0
102
}
330
3A0
100
AcDbVisualStyle
  2

 70
     5
 71
     0
 72
     2
 73
     0
 90
        0
 40
-0.6
 41
-30.0
 62
     5
 63
     7
 74
     1
 91
        4
 64
     7
 65
   257
 75
     1
175
     1
 42
1.0
 92
        0
 66
   257
 43
1.0
 76
     1
 77
     6
 78
     2
 67
     7
 79
     3
170
     0
171
     0
290
     0
174
     0
 93
        1
 44
0.0
173
     0
291
     0
 45
0.0
1001
ACAD
1000
AcDbSavedByObjectVersion
1070
     0
  0
VISUALSTYLE
  5
3B3
102
{ACAD_XDICTIONARY
360
913
102
}
102
{ACAD_REACTORS
330
3A0
102
}
330
3A0
100
AcDbVisualStyle
  2

 70
    25
 71
     2
 72
     2
 73
     1
 90
        1
 40
0.5
 41
-30.0
 62
     5
 63
     7
 74
     1
 91
        0
 64
     7
 65
   257
 75
     1
175
     1
 42
1.0
 92
        8
 66
     7
 43
1.0
 76
     1
 77
     6
 78
     2
 67
     7
 79
     3
170
     0
171
     0
290
     0
174
     0
 93
       13
 44
0.0
173
     0
291
     0
 45
0.0
1001
ACAD
1000
AcDbSavedByObjectVersion
1070
     0
  0
DICTIONARYVAR
  5
3E0
102
{ACAD_REACTORS
330
1DF
102
}
330
1DF
100
DictionaryVariables
280
     0
  1
1:1
  0
DICTIONARYVAR
  5
3DD
102
{ACAD_REACTORS
330
1DF
102
}
330
1DF
100
DictionaryVariables
280
     0
  1
STANDARD
  0
DICTIONARYVAR
  5
3DC
102
{ACAD_REACTORS
330
1DF
102
}
330
1DF
100
DictionaryVariables
280
     0
  1
STANDARD
  0
DICTIONARYVAR
  5
3DE
102
{ACAD_REACTORS
330
1DF
102
}
330
1DF
100
DictionaryVariables
280
     0
  1
Imperial24
  0
DICTIONARYVAR
  5
3DF
102
{ACAD_REACTORS
330
1DF
102
}
330
1DF
100
DictionaryVariables
280
     0
  1
Imperial24
  0
DICTIONARYVAR
  5
1E0
102
{ACAD_REACTORS
330
1DF
102
}
330
1DF
100
DictionaryVariables
280
     0
  1
1
  0
DICTIONARYVAR
  5
3E2
102
{ACAD_REACTORS
330
1DF
102
}
330
1DF
100
DictionaryVariables
280
     0
  1
0
  0
DICTIONARYVAR
  5
8E5
102
{ACAD_REACTORS
330
1DF
102
}
330
1DF
100
DictionaryVariables
280
     0
  1
1
  0
DICTIONARYVAR
  5
8E6
102
{ACAD_REACTORS
330
1DF
102
}
330
1DF
100
DictionaryVariables
280
     0
  1
15
  0
DICTIONARYVAR
  5
8E4
102
{ACAD_REACTORS
330
1DF
102
}
330
1DF
100
DictionaryVariables
280
     0
  1
0
  0
DICTIONARYVAR
  5
8E3
102
{ACAD_REACTORS
330
1DF
102
}
330
1DF
100
DictionaryVariables
280
     0
  1
0
  0
DICTIONARYVAR
  5
3E1
102
{ACAD_REACTORS
330
1DF
102
}
330
1DF
100
DictionaryVariables
280
     0
  1
127
  0
DICTIONARYVAR
  5
8E7
102
{ACAD_REACTORS
330
1DF
102
}
330
1DF
100
DictionaryVariables
280
     0
  1
2
  0
DICTIONARY
  5
922
330
3D3
100
AcDbDictionary
280
     1
281
     1
  3
ACAD_XREC_ROUNDTRIP
360
923
  0
DICTIONARY
  5
8ED
330
15C
100
AcDbDictionary
280
     1
281
     1
  3
ACAD_XREC_ROUNDTRIP
360
8EE
  0
DICTIONARY
  5
8EB
330
158
100
AcDbDictionary
280
     1
281
     1
  3
ACAD_XREC_ROUNDTRIP
360
8EC
  0
DICTIONARY
  5
391
330
390
100
AcDbDictionary
280
     1
281
     1
  3
ACAD_XREC_ROUNDTRIP
360
3EE
  3
BUMPTILE
360
393
  3
DIFFUSETILE
360
392
  3
OPACITYTILE
360
396
  3
REFLECTIONTILE
360
395
  3
REFRACTIONTILE
360
397
  3
SPECULARTILE
360
394
  0
DICTIONARY
  5
389
330
388
100
AcDbDictionary
280
     1
281
     1
  3
ACAD_XREC_ROUNDTRIP
360
3ED
  3
BUMPTILE
360
38B
  3
DIFFUSETILE
360
38A
  3
OPACITYTILE
360
38E
  3
REFLECTIONTILE
360
38D
  3
REFRACTIONTILE
360
38F
  3
SPECULARTILE
360
38C
  0
DICTIONARY
  5
399
330
398
100
AcDbDictionary
280
     1
281
     1
  3
ACAD_XREC_ROUNDTRIP
360
3EF
  3
BUMPTILE
360
39B
  3
DIFFUSETILE
360
39A
  3
OPACITYTILE
360
39E
  3
REFLECTIONTILE
360
39D
  3
REFRACTIONTILE
360
39F
  3
SPECULARTILE
360
39C
  0
DICTIONARY
  5
920
330
3D1
100
AcDbDictionary
280
     1
281
     1
  3
ACAD_XREC_ROUNDTRIP
360
921
  0
DICTIONARY
  5
3E5
330
3BB
100
AcDbDictionary
280
     1
281
     1
  3
ACAD_ROUNDTRIP_2008_TABLESTYLE_CELLSTYLEMAP
360
8E8
  3
ACAD_XREC_ROUNDTRIP
360
91F
  0
DICTIONARY
  5
8F9
330
3A6
100
AcDbDictionary
280
     1
281
     1
  3
ACAD_XREC_ROUNDTRIP
360
8FA
  0
DICTIONARY
  5
8F7
330
3A5
100
AcDbDictionary
280
     1
281
     1
  3
ACAD_XREC_ROUNDTRIP
360
8F8
  0
DICTIONARY
  5
905
330
3AC
100
AcDbDictionary
280
     1
281
     1
  3
ACAD_XREC_ROUNDTRIP
360
906
  0
DICTIONARY
  5
90D
330
3B0
100
AcDbDictionary
280
     1
281
     1
  3
ACAD_XREC_ROUNDTRIP
360
90E
  0
DICTIONARY
  5
8FF
330
3A9
100
AcDbDictionary
280
     1
281
     1
  3
ACAD_XREC_ROUNDTRIP
360
900
  0
DICTIONARY
  5
903
330
3AB
100
AcDbDictionary
280
     1
281
     1
  3
ACAD_XREC_ROUNDTRIP
360
904
  0
DICTIONARY
  5
91D
330
3B8
100
AcDbDictionary
280
     1
281
     1
  3
ACAD_XREC_ROUNDTRIP
360
91E
  0
DICTIONARY
  5
90B
330
3AF
100
AcDbDictionary
280
     1
281
     1
  3
ACAD_XREC_ROUNDTRIP
360
90C
  0
DICTIONARY
  5
8EF
330
3A1
100
AcDbDictionary
280
     1
281
     1
  3
ACAD_XREC_ROUNDTRIP
360
8F0
  0
DICTIONARY
  5
8F1
330
3A2
100
AcDbDictionary
280
     1
281
     1
  3
ACAD_XREC_ROUNDTRIP
360
8F2
  0
DICTIONARY
  5
8F3
330
3A3
100
AcDbDictionary
280
     1
281
     1
  3
ACAD_XREC_ROUNDTRIP
360
8F4
  0
DICTIONARY
  5
8F5
330
3A4
100
AcDbDictionary
280
     1
281
     1
  3
ACAD_XREC_ROUNDTRIP
360
8F6
  0
DICTIONARY
  5
8FD
330
3A8
100
AcDbDictionary
280
     1
281
     1
  3
ACAD_XREC_ROUNDTRIP
360
8FE
  0
DICTIONARY
  5
919
330
3B6
100
AcDbDictionary
280
     1
281
     1
  3
ACAD_XREC_ROUNDTRIP
360
91A
  0
DICTIONARY
  5
909
330
3AE
100
AcDbDictionary
280
     1
281
     1
  3
ACAD_XREC_ROUNDTRIP
360
90A
  0
DICTIONARY
  5
91B
330
3B7
100
AcDbDictionary
280
     1
281
     1
  3
ACAD_XREC_ROUNDTRIP
360
91C
  0
DICTIONARY
  5
901
330
3AA
100
AcDbDictionary
280
     1
281
     1
  3
ACAD_XREC_ROUNDTRIP
360
902
  0
DICTIONARY
  5
917
330
3B5
100
AcDbDictionary
280
     1
281
     1
  3
ACAD_XREC_ROUNDTRIP
360
918
  0
DICTIONARY
  5
915
330
3B4
100
AcDbDictionary
280
     1
281
     1
  3
ACAD_XREC_ROUNDTRIP
360
916
  0
DICTIONARY
  5
90F
330
3B1
100
AcDbDictionary
280
     1
281
     1
  3
ACAD_XREC_ROUNDTRIP
360
910
  0
DICTIONARY
  5
911
330
3B2
100
AcDbDictionary
280
     1
281
     1
  3
ACAD_XREC_ROUNDTRIP
360
912
  0
DICTIONARY
  5
907
330
3AD
100
AcDbDictionary
280
     1
281
     1
  3
ACAD_XREC_ROUNDTRIP
360
908
  0
DICTIONARY
  5
8FB
330
3A7
100
AcDbDictionary
280
     1
281
     1
  3
ACAD_XREC_ROUNDTRIP
360
8FC
  0
DICTIONARY
  5
913
330
3B3
100
AcDbDictionary
280
     1
281
     1
  3
ACAD_XREC_ROUNDTRIP
360
914
  0
XRECORD
  5
923
102
{ACAD_REACTORS
330
922
102
}
330
922
100
AcDbXrecord
280
     1
102
DISPLAYNAME
  1
Imperial24
102
FLAGS
 90
        0
  0
XRECORD
  5
8EE
102
{ACAD_REACTORS
330
8ED
102
}
330
8ED
100
AcDbXrecord
280
     1
102
SHADEPLOT
 70
     0
102
SHADEPLOTRESLEVEL
 70
     2
102
SHADEPLOTCUSTOMDPI
 70
   300
  0
XRECORD
  5
8EC
102
{ACAD_REACTORS
330
8EB
102
}
330
8EB
100
AcDbXrecord
280
     1
102
SHADEPLOT
 70
     0
102
SHADEPLOTRESLEVEL
 70
     2
102
SHADEPLOTCUSTOMDPI
 70
   300
  0
XRECORD
  5
3EE
102
{ACAD_REACTORS
330
391
102
}
330
391
100
AcDbXrecord
280
     1
102
MATERIAL
148
0.0
149
0.0
149
0.0
 93
        0
 94
      127
282
     0
 72
     0
 77
     0
171
     0
175
     0
179
     0
273
     0
  0
XRECORD
  5
393
102
{ACAD_REACTORS
330
391
102
}
330
391
100
AcDbXrecord
280
     1
270
     1
271
     1
  0
XRECORD
  5
392
102
{ACAD_REACTORS
330
391
102
}
330
391
100
AcDbXrecord
280
     1
270
     1
271
     1
  0
XRECORD
  5
396
102
{ACAD_REACTORS
330
391
102
}
330
391
100
AcDbXrecord
280
     1
270
     1
271
     1
  0
XRECORD
  5
395
102
{ACAD_REACTORS
330
391
102
}
330
391
100
AcDbXrecord
280
     1
270
     1
271
     1
  0
XRECORD
  5
397
102
{ACAD_REACTORS
330
391
102
}
330
391
100
AcDbXrecord
280
     1
270
     1
271
     1
  0
XRECORD
  5
394
102
{ACAD_REACTORS
330
391
102
}
330
391
100
AcDbXrecord
280
     1
270
     1
271
     1
  0
XRECORD
  5
3ED
102
{ACAD_REACTORS
330
389
102
}
330
389
100
AcDbXrecord
280
     1
102
MATERIAL
148
0.0
149
0.0
149
0.0
 93
        0
 94
      127
282
     0
 72
     0
 77
     0
171
     0
175
     0
179
     0
273
     0
  0
XRECORD
  5
38B
102
{ACAD_REACTORS
330
389
102
}
330
389
100
AcDbXrecord
280
     1
270
     1
271
     1
  0
XRECORD
  5
38A
102
{ACAD_REACTORS
330
389
102
}
330
389
100
AcDbXrecord
280
     1
270
     1
271
     1
  0
XRECORD
  5
38E
102
{ACAD_REACTORS
330
389
102
}
330
389
100
AcDbXrecord
280
     1
270
     1
271
     1
  0
XRECORD
  5
38D
102
{ACAD_REACTORS
330
389
102
}
330
389
100
AcDbXrecord
280
     1
270
     1
271
     1
  0
XRECORD
  5
38F
102
{ACAD_REACTORS
330
389
102
}
330
389
100
AcDbXrecord
280
     1
270
     1
271
     1
  0
XRECORD
  5
38C
102
{ACAD_REACTORS
330
389
102
}
330
389
100
AcDbXrecord
280
     1
270
     1
271
     1
  0
XRECORD
  5
3EF
102
{ACAD_REACTORS
330
399
102
}
330
399
100
AcDbXrecord
280
     1
102
MATERIAL
148
0.0
149
0.0
149
0.0
 93
        0
 94
      127
282
     0
 72
     0
 77
     0
171
     0
175
     0
179
     0
273
     0
  0
XRECORD
  5
39B
102
{ACAD_REACTORS
330
399
102
}
330
399
100
AcDbXrecord
280
     1
270
     1
271
     1
  0
XRECORD
  5
39A
102
{ACAD_REACTORS
330
399
102
}
330
399
100
AcDbXrecord
280
     1
270
     1
271
     1
  0
XRECORD
  5
39E
102
{ACAD_REACTORS
330
399
102
}
330
399
100
AcDbXrecord
280
     1
270
     1
271
     1
  0
XRECORD
  5
39D
102
{ACAD_REACTORS
330
399
102
}
330
399
100
AcDbXrecord
280
     1
270
     1
271
     1
  0
XRECORD
  5
39F
102
{ACAD_REACTORS
330
399
102
}
330
399
100
AcDbXrecord
280
     1
270
     1
271
     1
  0
XRECORD
  5
39C
102
{ACAD_REACTORS
330
399
102
}
330
399
100
AcDbXrecord
280
     1
270
     1
271
     1
  0
XRECORD
  5
921
102
{ACAD_REACTORS
330
920
102
}
330
920
100
AcDbXrecord
280
     1
102
DISPLAYNAME
  1
Imperial24
102
FLAGS
 90
        0
  0
CELLSTYLEMAP
  5
8E8
102
{ACAD_REACTORS
330
3E5
102
}
330
3E5
100
AcDbCellStyleMap
 90
        3
300
CELLSTYLE
  1
TABLEFORMAT_BEGIN
 90
        5
170
     1
 91
        0
 92
    32768
 62
   257
 93
        1
300
CONTENTFORMAT
  1
CONTENTFORMAT_BEGIN
 90
        0
 91
        0
 92
      512
 93
        0
300

 40
0.0
140
1.0
 94
        5
 62
     0
340
14C
144
0.25
309
CONTENTFORMAT_END
171
     1
301
MARGIN
  1
CELLMARGIN_BEGIN
 40
0.06
 40
0.06
 40
0.06
 40
0.06
 40
0.18
 40
0.18
309
CELLMARGIN_END
 94
        6
 95
        1
302
GRIDFORMAT
  1
GRIDFORMAT_BEGIN
 90
        0
 91
        1
 62
     0
 92
       -2
340
0
 93
        0
 40
0.045
309
GRIDFORMAT_END
 95
        2
302
GRIDFORMAT
  1
GRIDFORMAT_BEGIN
 90
        0
 91
        1
 62
     0
 92
       -2
340
0
 93
        0
 40
0.045
309
GRIDFORMAT_END
 95
        4
302
GRIDFORMAT
  1
GRIDFORMAT_BEGIN
 90
        0
 91
        1
 62
     0
 92
       -2
340
0
 93
        0
 40
0.045
309
GRIDFORMAT_END
 95
        8
302
GRIDFORMAT
  1
GRIDFORMAT_BEGIN
 90
        0
 91
        1
 62
     0
 92
       -2
340
0
 93
        0
 40
0.045
309
GRIDFORMAT_END
 95
       16
302
GRIDFORMAT
  1
GRIDFORMAT_BEGIN
 90
        0
 91
        1
 62
     0
 92
       -2
340
0
 93
        0
 40
0.045
309
GRIDFORMAT_END
 95
       32
302
GRIDFORMAT
  1
GRIDFORMAT_BEGIN
 90
        0
 91
        1
 62
     0
 92
       -2
340
0
 93
        0
 40
0.045
309
GRIDFORMAT_END
309
TABLEFORMAT_END
  1
CELLSTYLE_BEGIN
 90
        1
 91
        1
300
_TITLE
309
CELLSTYLE_END
300
CELLSTYLE
  1
TABLEFORMAT_BEGIN
 90
        5
170
     1
 91
        0
 92
        0
 62
   257
 93
        1
300
CONTENTFORMAT
  1
CONTENTFORMAT_BEGIN
 90
        0
 91
        0
 92
      512
 93
        0
300

 40
0.0
140
1.0
 94
        5
 62
     0
340
14C
144
0.18
309
CONTENTFORMAT_END
171
     1
301
MARGIN
  1
CELLMARGIN_BEGIN
 40
0.06
 40
0.06
 40
0.06
 40
0.06
 40
0.18
 40
0.18
309
CELLMARGIN_END
 94
        6
 95
        1
302
GRIDFORMAT
  1
GRIDFORMAT_BEGIN
 90
        0
 91
        1
 62
     0
 92
       -2
340
0
 93
        0
 40
0.045
309
GRIDFORMAT_END
 95
        2
302
GRIDFORMAT
  1
GRIDFORMAT_BEGIN
 90
        0
 91
        1
 62
     0
 92
       -2
340
0
 93
        0
 40
0.045
309
GRIDFORMAT_END
 95
        4
302
GRIDFORMAT
  1
GRIDFORMAT_BEGIN
 90
        0
 91
        1
 62
     0
 92
       -2
340
0
 93
        0
 40
0.045
309
GRIDFORMAT_END
 95
        8
302
GRIDFORMAT
  1
GRIDFORMAT_BEGIN
 90
        0
 91
        1
 62
     0
 92
       -2
340
0
 93
        0
 40
0.045
309
GRIDFORMAT_END
 95
       16
302
GRIDFORMAT
  1
GRIDFORMAT_BEGIN
 90
        0
 91
        1
 62
     0
 92
       -2
340
0
 93
        0
 40
0.045
309
GRIDFORMAT_END
 95
       32
302
GRIDFORMAT
  1
GRIDFORMAT_BEGIN
 90
        0
 91
        1
 62
     0
 92
       -2
340
0
 93
        0
 40
0.045
309
GRIDFORMAT_END
309
TABLEFORMAT_END
  1
CELLSTYLE_BEGIN
 90
        2
 91
        1
300
_HEADER
309
CELLSTYLE_END
300
CELLSTYLE
  1
TABLEFORMAT_BEGIN
 90
        5
170
     1
 91
        0
 92
        0
 62
   257
 93
        1
300
CONTENTFORMAT
  1
CONTENTFORMAT_BEGIN
 90
        0
 91
        0
 92
      512
 93
        0
300

 40
0.0
140
1.0
 94
        2
 62
     0
340
14C
144
0.18
309
CONTENTFORMAT_END
171
     1
301
MARGIN
  1
CELLMARGIN_BEGIN
 40
0.06
 40
0.06
 40
0.06
 40
0.06
 40
0.18
 40
0.18
309
CELLMARGIN_END
 94
        6
 95
        1
302
GRIDFORMAT
  1
GRIDFORMAT_BEGIN
 90
        0
 91
        1
 62
     0
 92
       -2
340
0
 93
        0
 40
0.045
309
GRIDFORMAT_END
 95
        2
302
GRIDFORMAT
  1
GRIDFORMAT_BEGIN
 90
        0
 91
        1
 62
     0
 92
       -2
340
0
 93
        0
 40
0.045
309
GRIDFORMAT_END
 95
        4
302
GRIDFORMAT
  1
GRIDFORMAT_BEGIN
 90
        0
 91
        1
 62
     0
 92
       -2
340
0
 93
        0
 40
0.045
309
GRIDFORMAT_END
 95
        8
302
GRIDFORMAT
  1
GRIDFORMAT_BEGIN
 90
        0
 91
        1
 62
     0
 92
       -2
340
0
 93
        0
 40
0.045
309
GRIDFORMAT_END
 95
       16
302
GRIDFORMAT
  1
GRIDFORMAT_BEGIN
 90
        0
 91
        1
 62
     0
 92
       -2
340
0
 93
        0
 40
0.045
309
GRIDFORMAT_END
 95
       32
302
GRIDFORMAT
  1
GRIDFORMAT_BEGIN
 90
        0
 91
        1
 62
     0
 92
       -2
340
0
 93
        0
 40
0.045
309
GRIDFORMAT_END
309
TABLEFORMAT_END
  1
CELLSTYLE_BEGIN
 90
        3
 91
        2
300
_DATA
309
CELLSTYLE_END
  0
XRECORD
  5
91F
102
{ACAD_REACTORS
330
3E5
102
}
330
3E5
100
AcDbXrecord
280
     1
102
ACAD_ROUNDTRIP_PRE2007_TABLESTYLE
 90
      512
 91
        0
  1

 92
      512
 93
        0
  2

 94
      512
 95
        0
  3

  0
XRECORD
  5
8FA
102
{ACAD_REACTORS
330
8F9
102
}
330
8F9
100
AcDbXrecord
280
     1
102
RTVSPost2010Prop28
280
     1
102
RTVSPost2010PropOp28
 70
     1
102
RTVSPost2010Prop29
280
     1
102
RTVSPost2010PropOp29
 70
     1
102
RTVSPost2010Prop30
280
     0
102
RTVSPost2010PropOp30
 70
     1
102
RTVSPost2010Prop31
280
     0
102
RTVSPost2010PropOp31
 70
     1
102
RTVSPost2010Prop32
280
     0
102
RTVSPost2010PropOp32
 70
     1
102
RTVSPost2010Prop33
280
     0
102
RTVSPost2010PropOp33
 70
     1
102
RTVSPost2010Prop34
280
     0
102
RTVSPost2010PropOp34
 70
     1
102
RTVSPost2010Prop35
280
     0
102
RTVSPost2010PropOp35
 70
     1
102
RTVSPost2010Prop36
280
     0
102
RTVSPost2010PropOp36
 70
     1
102
RTVSPost2010Prop37
 90
       50
102
RTVSPost2010PropOp37
 70
     1
102
RTVSPost2010Prop38
140
0.0
102
RTVSPost2010PropOp38
 70
     1
102
RTVSPost2010Prop39
140
1.0
102
RTVSPost2010PropOp39
 70
     1
102
RTVSPost2010Prop40
 90
        0
102
RTVSPost2010PropOp40
 70
     1
102
RTVSPost2010Prop41ColorIndex
 90
       18
102
RTVSPost2010Prop41ColorRGB
 90
        0
102
RTVSPost2010PropOp41
 70
     1
102
RTVSPost2010Prop42
 90
       50
102
RTVSPost2010PropOp42
 70
     1
102
RTVSPost2010Prop43
 90
        3
102
RTVSPost2010PropOp43
 70
     1
102
RTVSPost2010Prop44ColorIndex
 90
        5
102
RTVSPost2010Prop44ColorRGB
 90
      255
102
RTVSPost2010PropOp44
 70
     1
102
RTVSPost2010Prop45
280
     0
102
RTVSPost2010PropOp45
 70
     1
102
RTVSPost2010Prop46
 90
       50
102
RTVSPost2010PropOp46
 70
     1
102
RTVSPost2010Prop47
 90
       50
102
RTVSPost2010PropOp47
 70
     1
102
RTVSPost2010Prop48
 90
       50
102
RTVSPost2010PropOp48
 70
     1
102
RTVSPost2010Prop49
280
     0
102
RTVSPost2010PropOp49
 70
     1
102
RTVSPost2010Prop50
 90
       50
102
RTVSPost2010PropOp50
 70
     1
102
RTVSPost2010Prop51ColorIndex
 90
      256
102
RTVSPost2010Prop51ColorRGB
 90
-16777216
102
RTVSPost2010PropOp51
 70
     0
102
RTVSPost2010Prop52
140
1.0
102
RTVSPost2010PropOp52
 70
     0
102
RTVSPost2010Prop53
 90
        2
102
RTVSPost2010PropOp53
 70
     1
102
RTVSPost2010Prop54
  1
strokes_ogs.tif
102
RTVSPost2010PropOp54
 70
     1
102
RTVSPost2010Prop55
280
     0
102
RTVSPost2010PropOp55
 70
     1
102
RTVSPost2010Prop56
140
1.0
102
RTVSPost2010PropOp56
 70
     1
102
RTVSPost2010Prop57
140
1.0
102
RTVSPost2010PropOp57
 70
     1
102
RTVSPropertyOp0
 70
     1
102
RTVSPropertyOp1
 70
     1
102
RTVSPropertyOp2
 70
     1
102
RTVSPropertyOp3
 70
     1
102
RTVSPropertyOp4
 70
     1
102
RTVSPropertyOp5
 70
     1
102
RTVSPropertyOp6
 70
     1
102
RTVSPropertyOp7
 70
     1
102
RTVSPropertyOp8
 70
     1
102
RTVSPropertyOp9
 70
     1
102
RTVSPropertyOp10
 70
     1
102
RTVSPropertyOp11
 70
     1
102
RTVSPropertyOp12
 70
     1
102
RTVSPropertyOp13
 70
     1
102
RTVSPropertyOp14
 70
     1
102
RTVSPropertyOp15
 70
     1
102
RTVSPropertyOp16
 70
     1
102
RTVSPropertyOp17
 70
     1
102
RTVSPropertyOp18
 70
     1
102
RTVSPropertyOp19
 70
     1
102
RTVSPropertyOp20
 70
     1
102
RTVSPropertyOp21
 70
     1
102
RTVSPropertyOp22
 70
     1
102
RTVSPropertyOp23
 70
     1
102
RTVSPropertyOp24
 70
     1
102
RTVSPropertyOp25
 70
     1
102
RTVSPropertyOp26
 70
     1
102
RTVSPropertyOp27
 70
     1
102
RTVSPropertyOp28
 70
     1
102
RTVSPropertyOp29
 70
     1
102
RTVSPropertyOp30
 70
     1
102
RTVSPropertyOp31
 70
     1
102
RTVSPropertyOp32
 70
     1
102
RTVSPropertyOp33
 70
     1
102
RTVSPropertyOp34
 70
     1
102
RTVSPropertyOp35
 70
     1
102
RTVSPropertyOp36
 70
     1
102
RTVSPropertyOp37
 70
     1
102
RTVSPropertyOp38
 70
     1
102
RTVSPropertyOp39
 70
     1
102
RTVSPropertyOp40
 70
     1
102
RTVSPropertyOp41
 70
     1
102
RTVSPropertyOp42
 70
     1
102
RTVSPropertyOp43
 70
     1
102
RTVSPropertyOp44
 70
     1
102
RTVSPropertyOp45
 70
     1
102
RTVSPropertyOp46
 70
     1
102
RTVSPropertyOp47
 70
     1
102
RTVSPropertyOp48
 70
     1
102
RTVSPropertyOp49
 70
     1
102
RTVSPropertyOp50
 70
     1
102
RTVSPropertyOp51
 70
     0
102
RTVSPropertyOp52
 70
     0
102
RTVSPropertyOp53
 70
     1
102
RTVSPropertyOp54
 70
     1
102
RTVSPropertyOp55
 70
     1
102
RTVSPropertyOp56
 70
     1
102
RTVSPropertyOp57
 70
     1
102
RTVSPropertyOp58
 70
     1
102
RTVSPropertyOp59
 70
     1
102
RTVSPropertyOp60
 70
     1
102
RTVSPropertyOp61
 70
     1
102
RTVSPropertyOp62
 70
     1
  0
XRECORD
  5
8F8
102
{ACAD_REACTORS
330
8F7
102
}
330
8F7
100
AcDbXrecord
280
     1
102
RTVSPost2010Prop28
280
     0
102
RTVSPost2010PropOp28
 70
     1
102
RTVSPost2010Prop29
280
     1
102
RTVSPost2010PropOp29
 70
     1
102
RTVSPost2010Prop30
280
     1
102
RTVSPost2010PropOp30
 70
     1
102
RTVSPost2010Prop31
280
     0
102
RTVSPost2010PropOp31
 70
     1
102
RTVSPost2010Prop32
280
     0
102
RTVSPost2010PropOp32
 70
     1
102
RTVSPost2010Prop33
280
     0
102
RTVSPost2010PropOp33
 70
     1
102
RTVSPost2010Prop34
280
     0
102
RTVSPost2010PropOp34
 70
     1
102
RTVSPost2010Prop35
280
     0
102
RTVSPost2010PropOp35
 70
     1
102
RTVSPost2010Prop36
280
     0
102
RTVSPost2010PropOp36
 70
     1
102
RTVSPost2010Prop37
 90
       50
102
RTVSPost2010PropOp37
 70
     1
102
RTVSPost2010Prop38
140
0.0
102
RTVSPost2010PropOp38
 70
     1
102
RTVSPost2010Prop39
140
1.0
102
RTVSPost2010PropOp39
 70
     1
102
RTVSPost2010Prop40
 90
        0
102
RTVSPost2010PropOp40
 70
     1
102
RTVSPost2010Prop41ColorIndex
 90
       18
102
RTVSPost2010Prop41ColorRGB
 90
        0
102
RTVSPost2010PropOp41
 70
     1
102
RTVSPost2010Prop42
 90
       50
102
RTVSPost2010PropOp42
 70
     1
102
RTVSPost2010Prop43
 90
        3
102
RTVSPost2010PropOp43
 70
     1
102
RTVSPost2010Prop44ColorIndex
 90
        5
102
RTVSPost2010Prop44ColorRGB
 90
      255
102
RTVSPost2010PropOp44
 70
     1
102
RTVSPost2010Prop45
280
     0
102
RTVSPost2010PropOp45
 70
     1
102
RTVSPost2010Prop46
 90
       50
102
RTVSPost2010PropOp46
 70
     1
102
RTVSPost2010Prop47
 90
       50
102
RTVSPost2010PropOp47
 70
     1
102
RTVSPost2010Prop48
 90
       50
102
RTVSPost2010PropOp48
 70
     1
102
RTVSPost2010Prop49
280
     0
102
RTVSPost2010PropOp49
 70
     1
102
RTVSPost2010Prop50
 90
       50
102
RTVSPost2010PropOp50
 70
     1
102
RTVSPost2010Prop51ColorIndex
 90
      256
102
RTVSPost2010Prop51ColorRGB
 90
-16777216
102
RTVSPost2010PropOp51
 70
     0
102
RTVSPost2010Prop52
140
1.0
102
RTVSPost2010PropOp52
 70
     0
102
RTVSPost2010Prop53
 90
        2
102
RTVSPost2010PropOp53
 70
     1
102
RTVSPost2010Prop54
  1
strokes_ogs.tif
102
RTVSPost2010PropOp54
 70
     1
102
RTVSPost2010Prop55
280
     0
102
RTVSPost2010PropOp55
 70
     1
102
RTVSPost2010Prop56
140
1.0
102
RTVSPost2010PropOp56
 70
     1
102
RTVSPost2010Prop57
140
1.0
102
RTVSPost2010PropOp57
 70
     1
102
RTVSPropertyOp0
 70
     1
102
RTVSPropertyOp1
 70
     1
102
RTVSPropertyOp2
 70
     1
102
RTVSPropertyOp3
 70
     1
102
RTVSPropertyOp4
 70
     1
102
RTVSPropertyOp5
 70
     1
102
RTVSPropertyOp6
 70
     1
102
RTVSPropertyOp7
 70
     1
102
RTVSPropertyOp8
 70
     1
102
RTVSPropertyOp9
 70
     1
102
RTVSPropertyOp10
 70
     1
102
RTVSPropertyOp11
 70
     1
102
RTVSPropertyOp12
 70
     1
102
RTVSPropertyOp13
 70
     1
102
RTVSPropertyOp14
 70
     1
102
RTVSPropertyOp15
 70
     1
102
RTVSPropertyOp16
 70
     1
102
RTVSPropertyOp17
 70
     1
102
RTVSPropertyOp18
 70
     1
102
RTVSPropertyOp19
 70
     1
102
RTVSPropertyOp20
 70
     1
102
RTVSPropertyOp21
 70
     1
102
RTVSPropertyOp22
 70
     1
102
RTVSPropertyOp23
 70
     1
102
RTVSPropertyOp24
 70
     1
102
RTVSPropertyOp25
 70
     1
102
RTVSPropertyOp26
 70
     1
102
RTVSPropertyOp27
 70
     1
102
RTVSPropertyOp28
 70
     1
102
RTVSPropertyOp29
 70
     1
102
RTVSPropertyOp30
 70
     1
102
RTVSPropertyOp31
 70
     1
102
RTVSPropertyOp32
 70
     1
102
RTVSPropertyOp33
 70
     1
102
RTVSPropertyOp34
 70
     1
102
RTVSPropertyOp35
 70
     1
102
RTVSPropertyOp36
 70
     1
102
RTVSPropertyOp37
 70
     1
102
RTVSPropertyOp38
 70
     1
102
RTVSPropertyOp39
 70
     1
102
RTVSPropertyOp40
 70
     1
102
RTVSPropertyOp41
 70
     1
102
RTVSPropertyOp42
 70
     1
102
RTVSPropertyOp43
 70
     1
102
RTVSPropertyOp44
 70
     1
102
RTVSPropertyOp45
 70
     1
102
RTVSPropertyOp46
 70
     1
102
RTVSPropertyOp47
 70
     1
102
RTVSPropertyOp48
 70
     1
102
RTVSPropertyOp49
 70
     1
102
RTVSPropertyOp50
 70
     1
102
RTVSPropertyOp51
 70
     0
102
RTVSPropertyOp52
 70
     0
102
RTVSPropertyOp53
 70
     1
102
RTVSPropertyOp54
 70
     1
102
RTVSPropertyOp55
 70
     1
102
RTVSPropertyOp56
 70
     1
102
RTVSPropertyOp57
 70
     1
102
RTVSPropertyOp58
 70
     1
102
RTVSPropertyOp59
 70
     1
102
RTVSPropertyOp60
 70
     1
102
RTVSPropertyOp61
 70
     1
102
RTVSPropertyOp62
 70
     1
  0
XRECORD
  5
906
102
{ACAD_REACTORS
330
905
102
}
330
905
100
AcDbXrecord
280
     1
102
RTVSPost2010Prop28
280
     0
102
RTVSPost2010PropOp28
 70
     1
102
RTVSPost2010Prop29
280
     1
102
RTVSPost2010PropOp29
 70
     1
102
RTVSPost2010Prop30
280
     1
102
RTVSPost2010PropOp30
 70
     1
102
RTVSPost2010Prop31
280
     0
102
RTVSPost2010PropOp31
 70
     1
102
RTVSPost2010Prop32
280
     0
102
RTVSPost2010PropOp32
 70
     1
102
RTVSPost2010Prop33
280
     0
102
RTVSPost2010PropOp33
 70
     1
102
RTVSPost2010Prop34
280
     0
102
RTVSPost2010PropOp34
 70
     1
102
RTVSPost2010Prop35
280
     0
102
RTVSPost2010PropOp35
 70
     1
102
RTVSPost2010Prop36
280
     0
102
RTVSPost2010PropOp36
 70
     1
102
RTVSPost2010Prop37
 90
       50
102
RTVSPost2010PropOp37
 70
     1
102
RTVSPost2010Prop38
140
0.0
102
RTVSPost2010PropOp38
 70
     1
102
RTVSPost2010Prop39
140
1.0
102
RTVSPost2010PropOp39
 70
     1
102
RTVSPost2010Prop40
 90
        0
102
RTVSPost2010PropOp40
 70
     1
102
RTVSPost2010Prop41ColorIndex
 90
       18
102
RTVSPost2010Prop41ColorRGB
 90
        0
102
RTVSPost2010PropOp41
 70
     1
102
RTVSPost2010Prop42
 90
       50
102
RTVSPost2010PropOp42
 70
     1
102
RTVSPost2010Prop43
 90
        3
102
RTVSPost2010PropOp43
 70
     1
102
RTVSPost2010Prop44ColorIndex
 90
        5
102
RTVSPost2010Prop44ColorRGB
 90
      255
102
RTVSPost2010PropOp44
 70
     1
102
RTVSPost2010Prop45
280
     0
102
RTVSPost2010PropOp45
 70
     1
102
RTVSPost2010Prop46
 90
       50
102
RTVSPost2010PropOp46
 70
     1
102
RTVSPost2010Prop47
 90
       50
102
RTVSPost2010PropOp47
 70
     1
102
RTVSPost2010Prop48
 90
       50
102
RTVSPost2010PropOp48
 70
     1
102
RTVSPost2010Prop49
280
     0
102
RTVSPost2010PropOp49
 70
     1
102
RTVSPost2010Prop50
 90
       50
102
RTVSPost2010PropOp50
 70
     1
102
RTVSPost2010Prop51ColorIndex
 90
      256
102
RTVSPost2010Prop51ColorRGB
 90
-16777216
102
RTVSPost2010PropOp51
 70
     0
102
RTVSPost2010Prop52
140
1.0
102
RTVSPost2010PropOp52
 70
     0
102
RTVSPost2010Prop53
 90
        2
102
RTVSPost2010PropOp53
 70
     1
102
RTVSPost2010Prop54
  1
strokes_ogs.tif
102
RTVSPost2010PropOp54
 70
     1
102
RTVSPost2010Prop55
280
     0
102
RTVSPost2010PropOp55
 70
     1
102
RTVSPost2010Prop56
140
1.0
102
RTVSPost2010PropOp56
 70
     1
102
RTVSPost2010Prop57
140
1.0
102
RTVSPost2010PropOp57
 70
     1
102
RTVSPropertyOp0
 70
     1
102
RTVSPropertyOp1
 70
     1
102
RTVSPropertyOp2
 70
     1
102
RTVSPropertyOp3
 70
     1
102
RTVSPropertyOp4
 70
     1
102
RTVSPropertyOp5
 70
     1
102
RTVSPropertyOp6
 70
     1
102
RTVSPropertyOp7
 70
     1
102
RTVSPropertyOp8
 70
     1
102
RTVSPropertyOp9
 70
     1
102
RTVSPropertyOp10
 70
     1
102
RTVSPropertyOp11
 70
     1
102
RTVSPropertyOp12
 70
     1
102
RTVSPropertyOp13
 70
     1
102
RTVSPropertyOp14
 70
     1
102
RTVSPropertyOp15
 70
     1
102
RTVSPropertyOp16
 70
     1
102
RTVSPropertyOp17
 70
     1
102
RTVSPropertyOp18
 70
     1
102
RTVSPropertyOp19
 70
     1
102
RTVSPropertyOp20
 70
     1
102
RTVSPropertyOp21
 70
     1
102
RTVSPropertyOp22
 70
     1
102
RTVSPropertyOp23
 70
     1
102
RTVSPropertyOp24
 70
     1
102
RTVSPropertyOp25
 70
     1
102
RTVSPropertyOp26
 70
     1
102
RTVSPropertyOp27
 70
     1
102
RTVSPropertyOp28
 70
     1
102
RTVSPropertyOp29
 70
     1
102
RTVSPropertyOp30
 70
     1
102
RTVSPropertyOp31
 70
     1
102
RTVSPropertyOp32
 70
     1
102
RTVSPropertyOp33
 70
     1
102
RTVSPropertyOp34
 70
     1
102
RTVSPropertyOp35
 70
     1
102
RTVSPropertyOp36
 70
     1
102
RTVSPropertyOp37
 70
     1
102
RTVSPropertyOp38
 70
     1
102
RTVSPropertyOp39
 70
     1
102
RTVSPropertyOp40
 70
     1
102
RTVSPropertyOp41
 70
     1
102
RTVSPropertyOp42
 70
     1
102
RTVSPropertyOp43
 70
     1
102
RTVSPropertyOp44
 70
     1
102
RTVSPropertyOp45
 70
     1
102
RTVSPropertyOp46
 70
     1
102
RTVSPropertyOp47
 70
     1
102
RTVSPropertyOp48
 70
     1
102
RTVSPropertyOp49
 70
     1
102
RTVSPropertyOp50
 70
     1
102
RTVSPropertyOp51
 70
     0
102
RTVSPropertyOp52
 70
     0
102
RTVSPropertyOp53
 70
     1
102
RTVSPropertyOp54
 70
     1
102
RTVSPropertyOp55
 70
     1
102
RTVSPropertyOp56
 70
     1
102
RTVSPropertyOp57
 70
     1
102
RTVSPropertyOp58
 70
     1
102
RTVSPropertyOp59
 70
     1
102
RTVSPropertyOp60
 70
     1
102
RTVSPropertyOp61
 70
     1
102
RTVSPropertyOp62
 70
     1
  0
XRECORD
  5
90E
102
{ACAD_REACTORS
330
90D
102
}
330
90D
100
AcDbXrecord
280
     1
102
RTVSPost2010Prop28
280
     0
102
RTVSPost2010PropOp28
 70
     1
102
RTVSPost2010Prop29
280
     1
102
RTVSPost2010PropOp29
 70
     1
102
RTVSPost2010Prop30
280
     1
102
RTVSPost2010PropOp30
 70
     1
102
RTVSPost2010Prop31
280
     0
102
RTVSPost2010PropOp31
 70
     1
102
RTVSPost2010Prop32
280
     0
102
RTVSPost2010PropOp32
 70
     1
102
RTVSPost2010Prop33
280
     0
102
RTVSPost2010PropOp33
 70
     1
102
RTVSPost2010Prop34
280
     0
102
RTVSPost2010PropOp34
 70
     1
102
RTVSPost2010Prop35
280
     0
102
RTVSPost2010PropOp35
 70
     1
102
RTVSPost2010Prop36
280
     0
102
RTVSPost2010PropOp36
 70
     1
102
RTVSPost2010Prop37
 90
       50
102
RTVSPost2010PropOp37
 70
     1
102
RTVSPost2010Prop38
140
0.0
102
RTVSPost2010PropOp38
 70
     1
102
RTVSPost2010Prop39
140
1.0
102
RTVSPost2010PropOp39
 70
     1
102
RTVSPost2010Prop40
 90
        0
102
RTVSPost2010PropOp40
 70
     1
102
RTVSPost2010Prop41ColorIndex
 90
       18
102
RTVSPost2010Prop41ColorRGB
 90
        0
102
RTVSPost2010PropOp41
 70
     1
102
RTVSPost2010Prop42
 90
       50
102
RTVSPost2010PropOp42
 70
     1
102
RTVSPost2010Prop43
 90
        3
102
RTVSPost2010PropOp43
 70
     1
102
RTVSPost2010Prop44ColorIndex
 90
        5
102
RTVSPost2010Prop44ColorRGB
 90
      255
102
RTVSPost2010PropOp44
 70
     1
102
RTVSPost2010Prop45
280
     0
102
RTVSPost2010PropOp45
 70
     1
102
RTVSPost2010Prop46
 90
       50
102
RTVSPost2010PropOp46
 70
     1
102
RTVSPost2010Prop47
 90
       50
102
RTVSPost2010PropOp47
 70
     1
102
RTVSPost2010Prop48
 90
       50
102
RTVSPost2010PropOp48
 70
     1
102
RTVSPost2010Prop49
280
     0
102
RTVSPost2010PropOp49
 70
     1
102
RTVSPost2010Prop50
 90
       50
102
RTVSPost2010PropOp50
 70
     1
102
RTVSPost2010Prop51ColorIndex
 90
      256
102
RTVSPost2010Prop51ColorRGB
 90
-16777216
102
RTVSPost2010PropOp51
 70
     0
102
RTVSPost2010Prop52
140
1.0
102
RTVSPost2010PropOp52
 70
     0
102
RTVSPost2010Prop53
 90
        2
102
RTVSPost2010PropOp53
 70
     1
102
RTVSPost2010Prop54
  1
strokes_ogs.tif
102
RTVSPost2010PropOp54
 70
     1
102
RTVSPost2010Prop55
280
     0
102
RTVSPost2010PropOp55
 70
     1
102
RTVSPost2010Prop56
140
1.0
102
RTVSPost2010PropOp56
 70
     1
102
RTVSPost2010Prop57
140
1.0
102
RTVSPost2010PropOp57
 70
     1
102
RTVSPropertyOp0
 70
     1
102
RTVSPropertyOp1
 70
     1
102
RTVSPropertyOp2
 70
     1
102
RTVSPropertyOp3
 70
     1
102
RTVSPropertyOp4
 70
     1
102
RTVSPropertyOp5
 70
     1
102
RTVSPropertyOp6
 70
     1
102
RTVSPropertyOp7
 70
     1
102
RTVSPropertyOp8
 70
     1
102
RTVSPropertyOp9
 70
     1
102
RTVSPropertyOp10
 70
     1
102
RTVSPropertyOp11
 70
     1
102
RTVSPropertyOp12
 70
     1
102
RTVSPropertyOp13
 70
     1
102
RTVSPropertyOp14
 70
     1
102
RTVSPropertyOp15
 70
     1
102
RTVSPropertyOp16
 70
     1
102
RTVSPropertyOp17
 70
     1
102
RTVSPropertyOp18
 70
     1
102
RTVSPropertyOp19
 70
     1
102
RTVSPropertyOp20
 70
     1
102
RTVSPropertyOp21
 70
     1
102
RTVSPropertyOp22
 70
     1
102
RTVSPropertyOp23
 70
     1
102
RTVSPropertyOp24
 70
     1
102
RTVSPropertyOp25
 70
     1
102
RTVSPropertyOp26
 70
     1
102
RTVSPropertyOp27
 70
     1
102
RTVSPropertyOp28
 70
     1
102
RTVSPropertyOp29
 70
     1
102
RTVSPropertyOp30
 70
     1
102
RTVSPropertyOp31
 70
     1
102
RTVSPropertyOp32
 70
     1
102
RTVSPropertyOp33
 70
     1
102
RTVSPropertyOp34
 70
     1
102
RTVSPropertyOp35
 70
     1
102
RTVSPropertyOp36
 70
     1
102
RTVSPropertyOp37
 70
     1
102
RTVSPropertyOp38
 70
     1
102
RTVSPropertyOp39
 70
     1
102
RTVSPropertyOp40
 70
     1
102
RTVSPropertyOp41
 70
     1
102
RTVSPropertyOp42
 70
     1
102
RTVSPropertyOp43
 70
     1
102
RTVSPropertyOp44
 70
     1
102
RTVSPropertyOp45
 70
     1
102
RTVSPropertyOp46
 70
     1
102
RTVSPropertyOp47
 70
     1
102
RTVSPropertyOp48
 70
     1
102
RTVSPropertyOp49
 70
     1
102
RTVSPropertyOp50
 70
     1
102
RTVSPropertyOp51
 70
     0
102
RTVSPropertyOp52
 70
     0
102
RTVSPropertyOp53
 70
     1
102
RTVSPropertyOp54
 70
     1
102
RTVSPropertyOp55
 70
     1
102
RTVSPropertyOp56
 70
     1
102
RTVSPropertyOp57
 70
     1
102
RTVSPropertyOp58
 70
     1
102
RTVSPropertyOp59
 70
     1
102
RTVSPropertyOp60
 70
     1
102
RTVSPropertyOp61
 70
     1
102
RTVSPropertyOp62
 70
     1
  0
XRECORD
  5
900
102
{ACAD_REACTORS
330
8FF
102
}
330
8FF
100
AcDbXrecord
280
     1
102
RTVSPost2010Prop28
280
     0
102
RTVSPost2010PropOp28
 70
     1
102
RTVSPost2010Prop29
280
     1
102
RTVSPost2010PropOp29
 70
     1
102
RTVSPost2010Prop30
280
     1
102
RTVSPost2010PropOp30
 70
     1
102
RTVSPost2010Prop31
280
     0
102
RTVSPost2010PropOp31
 70
     1
102
RTVSPost2010Prop32
280
     0
102
RTVSPost2010PropOp32
 70
     1
102
RTVSPost2010Prop33
280
     0
102
RTVSPost2010PropOp33
 70
     1
102
RTVSPost2010Prop34
280
     0
102
RTVSPost2010PropOp34
 70
     1
102
RTVSPost2010Prop35
280
     0
102
RTVSPost2010PropOp35
 70
     1
102
RTVSPost2010Prop36
280
     0
102
RTVSPost2010PropOp36
 70
     1
102
RTVSPost2010Prop37
 90
       50
102
RTVSPost2010PropOp37
 70
     1
102
RTVSPost2010Prop38
140
0.0
102
RTVSPost2010PropOp38
 70
     1
102
RTVSPost2010Prop39
140
1.0
102
RTVSPost2010PropOp39
 70
     1
102
RTVSPost2010Prop40
 90
        0
102
RTVSPost2010PropOp40
 70
     1
102
RTVSPost2010Prop41ColorIndex
 90
       18
102
RTVSPost2010Prop41ColorRGB
 90
        0
102
RTVSPost2010PropOp41
 70
     1
102
RTVSPost2010Prop42
 90
       50
102
RTVSPost2010PropOp42
 70
     1
102
RTVSPost2010Prop43
 90
        3
102
RTVSPost2010PropOp43
 70
     1
102
RTVSPost2010Prop44ColorIndex
 90
        5
102
RTVSPost2010Prop44ColorRGB
 90
      255
102
RTVSPost2010PropOp44
 70
     1
102
RTVSPost2010Prop45
280
     0
102
RTVSPost2010PropOp45
 70
     1
102
RTVSPost2010Prop46
 90
       50
102
RTVSPost2010PropOp46
 70
     1
102
RTVSPost2010Prop47
 90
       50
102
RTVSPost2010PropOp47
 70
     1
102
RTVSPost2010Prop48
 90
       50
102
RTVSPost2010PropOp48
 70
     1
102
RTVSPost2010Prop49
280
     0
102
RTVSPost2010PropOp49
 70
     1
102
RTVSPost2010Prop50
 90
       50
102
RTVSPost2010PropOp50
 70
     1
102
RTVSPost2010Prop51ColorIndex
 90
      256
102
RTVSPost2010Prop51ColorRGB
 90
-16777216
102
RTVSPost2010PropOp51
 70
     0
102
RTVSPost2010Prop52
140
1.0
102
RTVSPost2010PropOp52
 70
     0
102
RTVSPost2010Prop53
 90
        2
102
RTVSPost2010PropOp53
 70
     1
102
RTVSPost2010Prop54
  1
strokes_ogs.tif
102
RTVSPost2010PropOp54
 70
     1
102
RTVSPost2010Prop55
280
     0
102
RTVSPost2010PropOp55
 70
     1
102
RTVSPost2010Prop56
140
1.0
102
RTVSPost2010PropOp56
 70
     1
102
RTVSPost2010Prop57
140
1.0
102
RTVSPost2010PropOp57
 70
     1
102
RTVSPropertyOp0
 70
     1
102
RTVSPropertyOp1
 70
     1
102
RTVSPropertyOp2
 70
     1
102
RTVSPropertyOp3
 70
     1
102
RTVSPropertyOp4
 70
     1
102
RTVSPropertyOp5
 70
     1
102
RTVSPropertyOp6
 70
     1
102
RTVSPropertyOp7
 70
     1
102
RTVSPropertyOp8
 70
     1
102
RTVSPropertyOp9
 70
     1
102
RTVSPropertyOp10
 70
     1
102
RTVSPropertyOp11
 70
     1
102
RTVSPropertyOp12
 70
     1
102
RTVSPropertyOp13
 70
     1
102
RTVSPropertyOp14
 70
     1
102
RTVSPropertyOp15
 70
     1
102
RTVSPropertyOp16
 70
     1
102
RTVSPropertyOp17
 70
     1
102
RTVSPropertyOp18
 70
     1
102
RTVSPropertyOp19
 70
     1
102
RTVSPropertyOp20
 70
     1
102
RTVSPropertyOp21
 70
     1
102
RTVSPropertyOp22
 70
     1
102
RTVSPropertyOp23
 70
     1
102
RTVSPropertyOp24
 70
     1
102
RTVSPropertyOp25
 70
     1
102
RTVSPropertyOp26
 70
     1
102
RTVSPropertyOp27
 70
     1
102
RTVSPropertyOp28
 70
     1
102
RTVSPropertyOp29
 70
     1
102
RTVSPropertyOp30
 70
     1
102
RTVSPropertyOp31
 70
     1
102
RTVSPropertyOp32
 70
     1
102
RTVSPropertyOp33
 70
     1
102
RTVSPropertyOp34
 70
     1
102
RTVSPropertyOp35
 70
     1
102
RTVSPropertyOp36
 70
     1
102
RTVSPropertyOp37
 70
     1
102
RTVSPropertyOp38
 70
     1
102
RTVSPropertyOp39
 70
     1
102
RTVSPropertyOp40
 70
     1
102
RTVSPropertyOp41
 70
     1
102
RTVSPropertyOp42
 70
     1
102
RTVSPropertyOp43
 70
     1
102
RTVSPropertyOp44
 70
     1
102
RTVSPropertyOp45
 70
     1
102
RTVSPropertyOp46
 70
     1
102
RTVSPropertyOp47
 70
     1
102
RTVSPropertyOp48
 70
     1
102
RTVSPropertyOp49
 70
     1
102
RTVSPropertyOp50
 70
     1
102
RTVSPropertyOp51
 70
     0
102
RTVSPropertyOp52
 70
     0
102
RTVSPropertyOp53
 70
     1
102
RTVSPropertyOp54
 70
     1
102
RTVSPropertyOp55
 70
     1
102
RTVSPropertyOp56
 70
     1
102
RTVSPropertyOp57
 70
     1
102
RTVSPropertyOp58
 70
     1
102
RTVSPropertyOp59
 70
     1
102
RTVSPropertyOp60
 70
     1
102
RTVSPropertyOp61
 70
     1
102
RTVSPropertyOp62
 70
     1
  0
XRECORD
  5
904
102
{ACAD_REACTORS
330
903
102
}
330
903
100
AcDbXrecord
280
     1
102
RTVSPost2010Prop28
280
     0
102
RTVSPost2010PropOp28
 70
     1
102
RTVSPost2010Prop29
280
     1
102
RTVSPost2010PropOp29
 70
     1
102
RTVSPost2010Prop30
280
     1
102
RTVSPost2010PropOp30
 70
     1
102
RTVSPost2010Prop31
280
     0
102
RTVSPost2010PropOp31
 70
     1
102
RTVSPost2010Prop32
280
     0
102
RTVSPost2010PropOp32
 70
     1
102
RTVSPost2010Prop33
280
     0
102
RTVSPost2010PropOp33
 70
     1
102
RTVSPost2010Prop34
280
     0
102
RTVSPost2010PropOp34
 70
     1
102
RTVSPost2010Prop35
280
     0
102
RTVSPost2010PropOp35
 70
     1
102
RTVSPost2010Prop36
280
     0
102
RTVSPost2010PropOp36
 70
     1
102
RTVSPost2010Prop37
 90
       50
102
RTVSPost2010PropOp37
 70
     1
102
RTVSPost2010Prop38
140
0.0
102
RTVSPost2010PropOp38
 70
     1
102
RTVSPost2010Prop39
140
1.0
102
RTVSPost2010PropOp39
 70
     1
102
RTVSPost2010Prop40
 90
        0
102
RTVSPost2010PropOp40
 70
     1
102
RTVSPost2010Prop41ColorIndex
 90
       18
102
RTVSPost2010Prop41ColorRGB
 90
        0
102
RTVSPost2010PropOp41
 70
     1
102
RTVSPost2010Prop42
 90
       50
102
RTVSPost2010PropOp42
 70
     1
102
RTVSPost2010Prop43
 90
        3
102
RTVSPost2010PropOp43
 70
     1
102
RTVSPost2010Prop44ColorIndex
 90
        5
102
RTVSPost2010Prop44ColorRGB
 90
      255
102
RTVSPost2010PropOp44
 70
     1
102
RTVSPost2010Prop45
280
     0
102
RTVSPost2010PropOp45
 70
     1
102
RTVSPost2010Prop46
 90
       50
102
RTVSPost2010PropOp46
 70
     1
102
RTVSPost2010Prop47
 90
       50
102
RTVSPost2010PropOp47
 70
     1
102
RTVSPost2010Prop48
 90
       50
102
RTVSPost2010PropOp48
 70
     1
102
RTVSPost2010Prop49
280
     0
102
RTVSPost2010PropOp49
 70
     1
102
RTVSPost2010Prop50
 90
       50
102
RTVSPost2010PropOp50
 70
     1
102
RTVSPost2010Prop51ColorIndex
 90
      256
102
RTVSPost2010Prop51ColorRGB
 90
-16777216
102
RTVSPost2010PropOp51
 70
     0
102
RTVSPost2010Prop52
140
1.0
102
RTVSPost2010PropOp52
 70
     0
102
RTVSPost2010Prop53
 90
        2
102
RTVSPost2010PropOp53
 70
     1
102
RTVSPost2010Prop54
  1
strokes_ogs.tif
102
RTVSPost2010PropOp54
 70
     1
102
RTVSPost2010Prop55
280
     0
102
RTVSPost2010PropOp55
 70
     1
102
RTVSPost2010Prop56
140
1.0
102
RTVSPost2010PropOp56
 70
     1
102
RTVSPost2010Prop57
140
1.0
102
RTVSPost2010PropOp57
 70
     1
102
RTVSPropertyOp0
 70
     1
102
RTVSPropertyOp1
 70
     1
102
RTVSPropertyOp2
 70
     1
102
RTVSPropertyOp3
 70
     1
102
RTVSPropertyOp4
 70
     1
102
RTVSPropertyOp5
 70
     1
102
RTVSPropertyOp6
 70
     1
102
RTVSPropertyOp7
 70
     1
102
RTVSPropertyOp8
 70
     1
102
RTVSPropertyOp9
 70
     1
102
RTVSPropertyOp10
 70
     1
102
RTVSPropertyOp11
 70
     1
102
RTVSPropertyOp12
 70
     1
102
RTVSPropertyOp13
 70
     1
102
RTVSPropertyOp14
 70
     1
102
RTVSPropertyOp15
 70
     1
102
RTVSPropertyOp16
 70
     1
102
RTVSPropertyOp17
 70
     1
102
RTVSPropertyOp18
 70
     1
102
RTVSPropertyOp19
 70
     1
102
RTVSPropertyOp20
 70
     1
102
RTVSPropertyOp21
 70
     1
102
RTVSPropertyOp22
 70
     1
102
RTVSPropertyOp23
 70
     1
102
RTVSPropertyOp24
 70
     1
102
RTVSPropertyOp25
 70
     1
102
RTVSPropertyOp26
 70
     1
102
RTVSPropertyOp27
 70
     1
102
RTVSPropertyOp28
 70
     1
102
RTVSPropertyOp29
 70
     1
102
RTVSPropertyOp30
 70
     1
102
RTVSPropertyOp31
 70
     1
102
RTVSPropertyOp32
 70
     1
102
RTVSPropertyOp33
 70
     1
102
RTVSPropertyOp34
 70
     1
102
RTVSPropertyOp35
 70
     1
102
RTVSPropertyOp36
 70
     1
102
RTVSPropertyOp37
 70
     1
102
RTVSPropertyOp38
 70
     1
102
RTVSPropertyOp39
 70
     1
102
RTVSPropertyOp40
 70
     1
102
RTVSPropertyOp41
 70
     1
102
RTVSPropertyOp42
 70
     1
102
RTVSPropertyOp43
 70
     1
102
RTVSPropertyOp44
 70
     1
102
RTVSPropertyOp45
 70
     1
102
RTVSPropertyOp46
 70
     1
102
RTVSPropertyOp47
 70
     1
102
RTVSPropertyOp48
 70
     1
102
RTVSPropertyOp49
 70
     1
102
RTVSPropertyOp50
 70
     1
102
RTVSPropertyOp51
 70
     0
102
RTVSPropertyOp52
 70
     0
102
RTVSPropertyOp53
 70
     1
102
RTVSPropertyOp54
 70
     1
102
RTVSPropertyOp55
 70
     1
102
RTVSPropertyOp56
 70
     1
102
RTVSPropertyOp57
 70
     1
102
RTVSPropertyOp58
 70
     1
102
RTVSPropertyOp59
 70
     1
102
RTVSPropertyOp60
 70
     1
102
RTVSPropertyOp61
 70
     1
102
RTVSPropertyOp62
 70
     1
  0
XRECORD
  5
91E
102
{ACAD_REACTORS
330
91D
102
}
330
91D
100
AcDbXrecord
280
     1
102
RTVSPost2010Prop28
280
     0
102
RTVSPost2010PropOp28
 70
     1
102
RTVSPost2010Prop29
280
     1
102
RTVSPost2010PropOp29
 70
     1
102
RTVSPost2010Prop30
280
     1
102
RTVSPost2010PropOp30
 70
     1
102
RTVSPost2010Prop31
280
     0
102
RTVSPost2010PropOp31
 70
     1
102
RTVSPost2010Prop32
280
     0
102
RTVSPost2010PropOp32
 70
     1
102
RTVSPost2010Prop33
280
     0
102
RTVSPost2010PropOp33
 70
     1
102
RTVSPost2010Prop34
280
     0
102
RTVSPost2010PropOp34
 70
     1
102
RTVSPost2010Prop35
280
     0
102
RTVSPost2010PropOp35
 70
     1
102
RTVSPost2010Prop36
280
     0
102
RTVSPost2010PropOp36
 70
     1
102
RTVSPost2010Prop37
 90
       50
102
RTVSPost2010PropOp37
 70
     0
102
RTVSPost2010Prop38
140
0.0
102
RTVSPost2010PropOp38
 70
     0
102
RTVSPost2010Prop39
140
1.0
102
RTVSPost2010PropOp39
 70
     0
102
RTVSPost2010Prop40
 90
        0
102
RTVSPost2010PropOp40
 70
     0
102
RTVSPost2010Prop41ColorIndex
 90
       18
102
RTVSPost2010Prop41ColorRGB
 90
        0
102
RTVSPost2010PropOp41
 70
     0
102
RTVSPost2010Prop42
 90
       50
102
RTVSPost2010PropOp42
 70
     0
102
RTVSPost2010Prop43
 90
        3
102
RTVSPost2010PropOp43
 70
     0
102
RTVSPost2010Prop44ColorIndex
 90
        5
102
RTVSPost2010Prop44ColorRGB
 90
      255
102
RTVSPost2010PropOp44
 70
     0
102
RTVSPost2010Prop45
280
     0
102
RTVSPost2010PropOp45
 70
     1
102
RTVSPost2010Prop46
 90
       50
102
RTVSPost2010PropOp46
 70
     0
102
RTVSPost2010Prop47
 90
       50
102
RTVSPost2010PropOp47
 70
     0
102
RTVSPost2010Prop48
 90
       50
102
RTVSPost2010PropOp48
 70
     0
102
RTVSPost2010Prop49
280
     0
102
RTVSPost2010PropOp49
 70
     1
102
RTVSPost2010Prop50
 90
       50
102
RTVSPost2010PropOp50
 70
     0
102
RTVSPost2010Prop51ColorIndex
 90
      256
102
RTVSPost2010Prop51ColorRGB
 90
-16777216
102
RTVSPost2010PropOp51
 70
     0
102
RTVSPost2010Prop52
140
1.0
102
RTVSPost2010PropOp52
 70
     0
102
RTVSPost2010Prop53
 90
        2
102
RTVSPost2010PropOp53
 70
     0
102
RTVSPost2010Prop54
  1
strokes_ogs.tif
102
RTVSPost2010PropOp54
 70
     0
102
RTVSPost2010Prop55
280
     0
102
RTVSPost2010PropOp55
 70
     1
102
RTVSPost2010Prop56
140
1.0
102
RTVSPost2010PropOp56
 70
     0
102
RTVSPost2010Prop57
140
1.0
102
RTVSPost2010PropOp57
 70
     0
102
RTVSPropertyOp0
 70
     0
102
RTVSPropertyOp1
 70
     0
102
RTVSPropertyOp2
 70
     0
102
RTVSPropertyOp3
 70
     0
102
RTVSPropertyOp4
 70
     0
102
RTVSPropertyOp5
 70
     0
102
RTVSPropertyOp6
 70
     0
102
RTVSPropertyOp7
 70
     0
102
RTVSPropertyOp8
 70
     0
102
RTVSPropertyOp9
 70
     0
102
RTVSPropertyOp10
 70
     0
102
RTVSPropertyOp11
 70
     0
102
RTVSPropertyOp12
 70
     0
102
RTVSPropertyOp13
 70
     0
102
RTVSPropertyOp14
 70
     2
102
RTVSPropertyOp15
 70
     0
102
RTVSPropertyOp16
 70
     0
102
RTVSPropertyOp17
 70
     0
102
RTVSPropertyOp18
 70
     0
102
RTVSPropertyOp19
 70
     0
102
RTVSPropertyOp20
 70
     0
102
RTVSPropertyOp21
 70
     0
102
RTVSPropertyOp22
 70
     0
102
RTVSPropertyOp23
 70
     0
102
RTVSPropertyOp24
 70
     0
102
RTVSPropertyOp25
 70
     0
102
RTVSPropertyOp26
 70
     0
102
RTVSPropertyOp27
 70
     0
102
RTVSPropertyOp28
 70
     1
102
RTVSPropertyOp29
 70
     1
102
RTVSPropertyOp30
 70
     1
102
RTVSPropertyOp31
 70
     1
102
RTVSPropertyOp32
 70
     1
102
RTVSPropertyOp33
 70
     1
102
RTVSPropertyOp34
 70
     1
102
RTVSPropertyOp35
 70
     1
102
RTVSPropertyOp36
 70
     1
102
RTVSPropertyOp37
 70
     0
102
RTVSPropertyOp38
 70
     0
102
RTVSPropertyOp39
 70
     0
102
RTVSPropertyOp40
 70
     0
102
RTVSPropertyOp41
 70
     0
102
RTVSPropertyOp42
 70
     0
102
RTVSPropertyOp43
 70
     0
102
RTVSPropertyOp44
 70
     0
102
RTVSPropertyOp45
 70
     1
102
RTVSPropertyOp46
 70
     0
102
RTVSPropertyOp47
 70
     0
102
RTVSPropertyOp48
 70
     0
102
RTVSPropertyOp49
 70
     1
102
RTVSPropertyOp50
 70
     0
102
RTVSPropertyOp51
 70
     0
102
RTVSPropertyOp52
 70
     0
102
RTVSPropertyOp53
 70
     0
102
RTVSPropertyOp54
 70
     0
102
RTVSPropertyOp55
 70
     1
102
RTVSPropertyOp56
 70
     0
102
RTVSPropertyOp57
 70
     0
102
RTVSPropertyOp58
 70
     0
102
RTVSPropertyOp59
 70
     0
102
RTVSPropertyOp60
 70
     0
102
RTVSPropertyOp61
 70
     0
102
RTVSPropertyOp62
 70
     0
  0
XRECORD
  5
90C
102
{ACAD_REACTORS
330
90B
102
}
330
90B
100
AcDbXrecord
280
     1
102
RTVSPost2010Prop28
280
     0
102
RTVSPost2010PropOp28
 70
     1
102
RTVSPost2010Prop29
280
     1
102
RTVSPost2010PropOp29
 70
     1
102
RTVSPost2010Prop30
280
     1
102
RTVSPost2010PropOp30
 70
     1
102
RTVSPost2010Prop31
280
     0
102
RTVSPost2010PropOp31
 70
     1
102
RTVSPost2010Prop32
280
     0
102
RTVSPost2010PropOp32
 70
     1
102
RTVSPost2010Prop33
280
     0
102
RTVSPost2010PropOp33
 70
     1
102
RTVSPost2010Prop34
280
     0
102
RTVSPost2010PropOp34
 70
     1
102
RTVSPost2010Prop35
280
     0
102
RTVSPost2010PropOp35
 70
     1
102
RTVSPost2010Prop36
280
     0
102
RTVSPost2010PropOp36
 70
     1
102
RTVSPost2010Prop37
 90
       50
102
RTVSPost2010PropOp37
 70
     1
102
RTVSPost2010Prop38
140
0.0
102
RTVSPost2010PropOp38
 70
     1
102
RTVSPost2010Prop39
140
1.0
102
RTVSPost2010PropOp39
 70
     1
102
RTVSPost2010Prop40
 90
        0
102
RTVSPost2010PropOp40
 70
     1
102
RTVSPost2010Prop41ColorIndex
 90
       18
102
RTVSPost2010Prop41ColorRGB
 90
        0
102
RTVSPost2010PropOp41
 70
     1
102
RTVSPost2010Prop42
 90
       50
102
RTVSPost2010PropOp42
 70
     1
102
RTVSPost2010Prop43
 90
        3
102
RTVSPost2010PropOp43
 70
     1
102
RTVSPost2010Prop44ColorIndex
 90
        5
102
RTVSPost2010Prop44ColorRGB
 90
      255
102
RTVSPost2010PropOp44
 70
     1
102
RTVSPost2010Prop45
280
     0
102
RTVSPost2010PropOp45
 70
     1
102
RTVSPost2010Prop46
 90
       50
102
RTVSPost2010PropOp46
 70
     1
102
RTVSPost2010Prop47
 90
       50
102
RTVSPost2010PropOp47
 70
     1
102
RTVSPost2010Prop48
 90
       50
102
RTVSPost2010PropOp48
 70
     1
102
RTVSPost2010Prop49
280
     0
102
RTVSPost2010PropOp49
 70
     1
102
RTVSPost2010Prop50
 90
       50
102
RTVSPost2010PropOp50
 70
     1
102
RTVSPost2010Prop51ColorIndex
 90
      256
102
RTVSPost2010Prop51ColorRGB
 90
-16777216
102
RTVSPost2010PropOp51
 70
     0
102
RTVSPost2010Prop52
140
1.0
102
RTVSPost2010PropOp52
 70
     0
102
RTVSPost2010Prop53
 90
        2
102
RTVSPost2010PropOp53
 70
     1
102
RTVSPost2010Prop54
  1
strokes_ogs.tif
102
RTVSPost2010PropOp54
 70
     1
102
RTVSPost2010Prop55
280
     0
102
RTVSPost2010PropOp55
 70
     1
102
RTVSPost2010Prop56
140
1.0
102
RTVSPost2010PropOp56
 70
     1
102
RTVSPost2010Prop57
140
1.0
102
RTVSPost2010PropOp57
 70
     1
102
RTVSPropertyOp0
 70
     1
102
RTVSPropertyOp1
 70
     1
102
RTVSPropertyOp2
 70
     1
102
RTVSPropertyOp3
 70
     1
102
RTVSPropertyOp4
 70
     1
102
RTVSPropertyOp5
 70
     1
102
RTVSPropertyOp6
 70
     1
102
RTVSPropertyOp7
 70
     1
102
RTVSPropertyOp8
 70
     1
102
RTVSPropertyOp9
 70
     1
102
RTVSPropertyOp10
 70
     1
102
RTVSPropertyOp11
 70
     1
102
RTVSPropertyOp12
 70
     1
102
RTVSPropertyOp13
 70
     1
102
RTVSPropertyOp14
 70
     1
102
RTVSPropertyOp15
 70
     1
102
RTVSPropertyOp16
 70
     1
102
RTVSPropertyOp17
 70
     1
102
RTVSPropertyOp18
 70
     1
102
RTVSPropertyOp19
 70
     1
102
RTVSPropertyOp20
 70
     1
102
RTVSPropertyOp21
 70
     1
102
RTVSPropertyOp22
 70
     1
102
RTVSPropertyOp23
 70
     1
102
RTVSPropertyOp24
 70
     1
102
RTVSPropertyOp25
 70
     1
102
RTVSPropertyOp26
 70
     1
102
RTVSPropertyOp27
 70
     1
102
RTVSPropertyOp28
 70
     1
102
RTVSPropertyOp29
 70
     1
102
RTVSPropertyOp30
 70
     1
102
RTVSPropertyOp31
 70
     1
102
RTVSPropertyOp32
 70
     1
102
RTVSPropertyOp33
 70
     1
102
RTVSPropertyOp34
 70
     1
102
RTVSPropertyOp35
 70
     1
102
RTVSPropertyOp36
 70
     1
102
RTVSPropertyOp37
 70
     1
102
RTVSPropertyOp38
 70
     1
102
RTVSPropertyOp39
 70
     1
102
RTVSPropertyOp40
 70
     1
102
RTVSPropertyOp41
 70
     1
102
RTVSPropertyOp42
 70
     1
102
RTVSPropertyOp43
 70
     1
102
RTVSPropertyOp44
 70
     1
102
RTVSPropertyOp45
 70
     1
102
RTVSPropertyOp46
 70
     1
102
RTVSPropertyOp47
 70
     1
102
RTVSPropertyOp48
 70
     1
102
RTVSPropertyOp49
 70
     1
102
RTVSPropertyOp50
 70
     1
102
RTVSPropertyOp51
 70
     0
102
RTVSPropertyOp52
 70
     0
102
RTVSPropertyOp53
 70
     1
102
RTVSPropertyOp54
 70
     1
102
RTVSPropertyOp55
 70
     1
102
RTVSPropertyOp56
 70
     1
102
RTVSPropertyOp57
 70
     1
102
RTVSPropertyOp58
 70
     1
102
RTVSPropertyOp59
 70
     1
102
RTVSPropertyOp60
 70
     1
102
RTVSPropertyOp61
 70
     1
102
RTVSPropertyOp62
 70
     1
  0
XRECORD
  5
8F0
102
{ACAD_REACTORS
330
8EF
102
}
330
8EF
100
AcDbXrecord
280
     1
102
RTVSPost2010Prop28
280
     0
102
RTVSPost2010PropOp28
 70
     1
102
RTVSPost2010Prop29
280
     1
102
RTVSPost2010PropOp29
 70
     1
102
RTVSPost2010Prop30
280
     1
102
RTVSPost2010PropOp30
 70
     1
102
RTVSPost2010Prop31
280
     0
102
RTVSPost2010PropOp31
 70
     1
102
RTVSPost2010Prop32
280
     0
102
RTVSPost2010PropOp32
 70
     1
102
RTVSPost2010Prop33
280
     0
102
RTVSPost2010PropOp33
 70
     1
102
RTVSPost2010Prop34
280
     0
102
RTVSPost2010PropOp34
 70
     1
102
RTVSPost2010Prop35
280
     0
102
RTVSPost2010PropOp35
 70
     1
102
RTVSPost2010Prop36
280
     0
102
RTVSPost2010PropOp36
 70
     1
102
RTVSPost2010Prop37
 90
       50
102
RTVSPost2010PropOp37
 70
     1
102
RTVSPost2010Prop38
140
0.0
102
RTVSPost2010PropOp38
 70
     1
102
RTVSPost2010Prop39
140
1.0
102
RTVSPost2010PropOp39
 70
     1
102
RTVSPost2010Prop40
 90
        0
102
RTVSPost2010PropOp40
 70
     1
102
RTVSPost2010Prop41ColorIndex
 90
       18
102
RTVSPost2010Prop41ColorRGB
 90
        0
102
RTVSPost2010PropOp41
 70
     1
102
RTVSPost2010Prop42
 90
       50
102
RTVSPost2010PropOp42
 70
     1
102
RTVSPost2010Prop43
 90
        3
102
RTVSPost2010PropOp43
 70
     1
102
RTVSPost2010Prop44ColorIndex
 90
        5
102
RTVSPost2010Prop44ColorRGB
 90
      255
102
RTVSPost2010PropOp44
 70
     1
102
RTVSPost2010Prop45
280
     0
102
RTVSPost2010PropOp45
 70
     1
102
RTVSPost2010Prop46
 90
       50
102
RTVSPost2010PropOp46
 70
     1
102
RTVSPost2010Prop47
 90
       50
102
RTVSPost2010PropOp47
 70
     1
102
RTVSPost2010Prop48
 90
       50
102
RTVSPost2010PropOp48
 70
     1
102
RTVSPost2010Prop49
280
     0
102
RTVSPost2010PropOp49
 70
     1
102
RTVSPost2010Prop50
 90
       50
102
RTVSPost2010PropOp50
 70
     1
102
RTVSPost2010Prop51ColorIndex
 90
      256
102
RTVSPost2010Prop51ColorRGB
 90
-16777216
102
RTVSPost2010PropOp51
 70
     0
102
RTVSPost2010Prop52
140
1.0
102
RTVSPost2010PropOp52
 70
     0
102
RTVSPost2010Prop53
 90
        2
102
RTVSPost2010PropOp53
 70
     1
102
RTVSPost2010Prop54
  1
strokes_ogs.tif
102
RTVSPost2010PropOp54
 70
     1
102
RTVSPost2010Prop55
280
     0
102
RTVSPost2010PropOp55
 70
     1
102
RTVSPost2010Prop56
140
1.0
102
RTVSPost2010PropOp56
 70
     1
102
RTVSPost2010Prop57
140
1.0
102
RTVSPost2010PropOp57
 70
     1
102
RTVSPropertyOp0
 70
     1
102
RTVSPropertyOp1
 70
     1
102
RTVSPropertyOp2
 70
     1
102
RTVSPropertyOp3
 70
     1
102
RTVSPropertyOp4
 70
     1
102
RTVSPropertyOp5
 70
     1
102
RTVSPropertyOp6
 70
     1
102
RTVSPropertyOp7
 70
     1
102
RTVSPropertyOp8
 70
     1
102
RTVSPropertyOp9
 70
     1
102
RTVSPropertyOp10
 70
     1
102
RTVSPropertyOp11
 70
     1
102
RTVSPropertyOp12
 70
     1
102
RTVSPropertyOp13
 70
     1
102
RTVSPropertyOp14
 70
     1
102
RTVSPropertyOp15
 70
     1
102
RTVSPropertyOp16
 70
     1
102
RTVSPropertyOp17
 70
     1
102
RTVSPropertyOp18
 70
     1
102
RTVSPropertyOp19
 70
     1
102
RTVSPropertyOp20
 70
     1
102
RTVSPropertyOp21
 70
     1
102
RTVSPropertyOp22
 70
     1
102
RTVSPropertyOp23
 70
     1
102
RTVSPropertyOp24
 70
     1
102
RTVSPropertyOp25
 70
     1
102
RTVSPropertyOp26
 70
     1
102
RTVSPropertyOp27
 70
     1
102
RTVSPropertyOp28
 70
     1
102
RTVSPropertyOp29
 70
     1
102
RTVSPropertyOp30
 70
     1
102
RTVSPropertyOp31
 70
     1
102
RTVSPropertyOp32
 70
     1
102
RTVSPropertyOp33
 70
     1
102
RTVSPropertyOp34
 70
     1
102
RTVSPropertyOp35
 70
     1
102
RTVSPropertyOp36
 70
     1
102
RTVSPropertyOp37
 70
     1
102
RTVSPropertyOp38
 70
     1
102
RTVSPropertyOp39
 70
     1
102
RTVSPropertyOp40
 70
     1
102
RTVSPropertyOp41
 70
     1
102
RTVSPropertyOp42
 70
     1
102
RTVSPropertyOp43
 70
     1
102
RTVSPropertyOp44
 70
     1
102
RTVSPropertyOp45
 70
     1
102
RTVSPropertyOp46
 70
     1
102
RTVSPropertyOp47
 70
     1
102
RTVSPropertyOp48
 70
     1
102
RTVSPropertyOp49
 70
     1
102
RTVSPropertyOp50
 70
     1
102
RTVSPropertyOp51
 70
     0
102
RTVSPropertyOp52
 70
     0
102
RTVSPropertyOp53
 70
     1
102
RTVSPropertyOp54
 70
     1
102
RTVSPropertyOp55
 70
     1
102
RTVSPropertyOp56
 70
     1
102
RTVSPropertyOp57
 70
     1
102
RTVSPropertyOp58
 70
     1
102
RTVSPropertyOp59
 70
     1
102
RTVSPropertyOp60
 70
     1
102
RTVSPropertyOp61
 70
     1
102
RTVSPropertyOp62
 70
     1
  0
XRECORD
  5
8F2
102
{ACAD_REACTORS
330
8F1
102
}
330
8F1
100
AcDbXrecord
280
     1
102
RTVSPost2010Prop28
280
     0
102
RTVSPost2010PropOp28
 70
     1
102
RTVSPost2010Prop29
280
     1
102
RTVSPost2010PropOp29
 70
     1
102
RTVSPost2010Prop30
280
     1
102
RTVSPost2010PropOp30
 70
     1
102
RTVSPost2010Prop31
280
     0
102
RTVSPost2010PropOp31
 70
     1
102
RTVSPost2010Prop32
280
     0
102
RTVSPost2010PropOp32
 70
     1
102
RTVSPost2010Prop33
280
     0
102
RTVSPost2010PropOp33
 70
     1
102
RTVSPost2010Prop34
280
     0
102
RTVSPost2010PropOp34
 70
     1
102
RTVSPost2010Prop35
280
     0
102
RTVSPost2010PropOp35
 70
     1
102
RTVSPost2010Prop36
280
     0
102
RTVSPost2010PropOp36
 70
     1
102
RTVSPost2010Prop37
 90
       50
102
RTVSPost2010PropOp37
 70
     1
102
RTVSPost2010Prop38
140
0.0
102
RTVSPost2010PropOp38
 70
     1
102
RTVSPost2010Prop39
140
1.0
102
RTVSPost2010PropOp39
 70
     1
102
RTVSPost2010Prop40
 90
        0
102
RTVSPost2010PropOp40
 70
     1
102
RTVSPost2010Prop41ColorIndex
 90
       18
102
RTVSPost2010Prop41ColorRGB
 90
        0
102
RTVSPost2010PropOp41
 70
     1
102
RTVSPost2010Prop42
 90
       50
102
RTVSPost2010PropOp42
 70
     1
102
RTVSPost2010Prop43
 90
        3
102
RTVSPost2010PropOp43
 70
     1
102
RTVSPost2010Prop44ColorIndex
 90
        5
102
RTVSPost2010Prop44ColorRGB
 90
      255
102
RTVSPost2010PropOp44
 70
     1
102
RTVSPost2010Prop45
280
     0
102
RTVSPost2010PropOp45
 70
     1
102
RTVSPost2010Prop46
 90
       50
102
RTVSPost2010PropOp46
 70
     1
102
RTVSPost2010Prop47
 90
       50
102
RTVSPost2010PropOp47
 70
     1
102
RTVSPost2010Prop48
 90
       50
102
RTVSPost2010PropOp48
 70
     1
102
RTVSPost2010Prop49
280
     0
102
RTVSPost2010PropOp49
 70
     1
102
RTVSPost2010Prop50
 90
       50
102
RTVSPost2010PropOp50
 70
     1
102
RTVSPost2010Prop51ColorIndex
 90
      256
102
RTVSPost2010Prop51ColorRGB
 90
-16777216
102
RTVSPost2010PropOp51
 70
     0
102
RTVSPost2010Prop52
140
1.0
102
RTVSPost2010PropOp52
 70
     0
102
RTVSPost2010Prop53
 90
        2
102
RTVSPost2010PropOp53
 70
     1
102
RTVSPost2010Prop54
  1
strokes_ogs.tif
102
RTVSPost2010PropOp54
 70
     1
102
RTVSPost2010Prop55
280
     0
102
RTVSPost2010PropOp55
 70
     1
102
RTVSPost2010Prop56
140
1.0
102
RTVSPost2010PropOp56
 70
     1
102
RTVSPost2010Prop57
140
1.0
102
RTVSPost2010PropOp57
 70
     1
102
RTVSPropertyOp0
 70
     1
102
RTVSPropertyOp1
 70
     1
102
RTVSPropertyOp2
 70
     1
102
RTVSPropertyOp3
 70
     1
102
RTVSPropertyOp4
 70
     1
102
RTVSPropertyOp5
 70
     1
102
RTVSPropertyOp6
 70
     1
102
RTVSPropertyOp7
 70
     1
102
RTVSPropertyOp8
 70
     1
102
RTVSPropertyOp9
 70
     1
102
RTVSPropertyOp10
 70
     1
102
RTVSPropertyOp11
 70
     1
102
RTVSPropertyOp12
 70
     1
102
RTVSPropertyOp13
 70
     1
102
RTVSPropertyOp14
 70
     1
102
RTVSPropertyOp15
 70
     1
102
RTVSPropertyOp16
 70
     1
102
RTVSPropertyOp17
 70
     1
102
RTVSPropertyOp18
 70
     1
102
RTVSPropertyOp19
 70
     1
102
RTVSPropertyOp20
 70
     1
102
RTVSPropertyOp21
 70
     1
102
RTVSPropertyOp22
 70
     1
102
RTVSPropertyOp23
 70
     1
102
RTVSPropertyOp24
 70
     1
102
RTVSPropertyOp25
 70
     1
102
RTVSPropertyOp26
 70
     1
102
RTVSPropertyOp27
 70
     1
102
RTVSPropertyOp28
 70
     1
102
RTVSPropertyOp29
 70
     1
102
RTVSPropertyOp30
 70
     1
102
RTVSPropertyOp31
 70
     1
102
RTVSPropertyOp32
 70
     1
102
RTVSPropertyOp33
 70
     1
102
RTVSPropertyOp34
 70
     1
102
RTVSPropertyOp35
 70
     1
102
RTVSPropertyOp36
 70
     1
102
RTVSPropertyOp37
 70
     1
102
RTVSPropertyOp38
 70
     1
102
RTVSPropertyOp39
 70
     1
102
RTVSPropertyOp40
 70
     1
102
RTVSPropertyOp41
 70
     1
102
RTVSPropertyOp42
 70
     1
102
RTVSPropertyOp43
 70
     1
102
RTVSPropertyOp44
 70
     1
102
RTVSPropertyOp45
 70
     1
102
RTVSPropertyOp46
 70
     1
102
RTVSPropertyOp47
 70
     1
102
RTVSPropertyOp48
 70
     1
102
RTVSPropertyOp49
 70
     1
102
RTVSPropertyOp50
 70
     1
102
RTVSPropertyOp51
 70
     0
102
RTVSPropertyOp52
 70
     0
102
RTVSPropertyOp53
 70
     1
102
RTVSPropertyOp54
 70
     1
102
RTVSPropertyOp55
 70
     1
102
RTVSPropertyOp56
 70
     1
102
RTVSPropertyOp57
 70
     1
102
RTVSPropertyOp58
 70
     1
102
RTVSPropertyOp59
 70
     1
102
RTVSPropertyOp60
 70
     1
102
RTVSPropertyOp61
 70
     1
102
RTVSPropertyOp62
 70
     1
  0
XRECORD
  5
8F4
102
{ACAD_REACTORS
330
8F3
102
}
330
8F3
100
AcDbXrecord
280
     1
102
RTVSPost2010Prop28
280
     0
102
RTVSPost2010PropOp28
 70
     1
102
RTVSPost2010Prop29
280
     1
102
RTVSPost2010PropOp29
 70
     1
102
RTVSPost2010Prop30
280
     1
102
RTVSPost2010PropOp30
 70
     1
102
RTVSPost2010Prop31
280
     0
102
RTVSPost2010PropOp31
 70
     1
102
RTVSPost2010Prop32
280
     0
102
RTVSPost2010PropOp32
 70
     1
102
RTVSPost2010Prop33
280
     0
102
RTVSPost2010PropOp33
 70
     1
102
RTVSPost2010Prop34
280
     0
102
RTVSPost2010PropOp34
 70
     1
102
RTVSPost2010Prop35
280
     0
102
RTVSPost2010PropOp35
 70
     1
102
RTVSPost2010Prop36
280
     0
102
RTVSPost2010PropOp36
 70
     1
102
RTVSPost2010Prop37
 90
       50
102
RTVSPost2010PropOp37
 70
     1
102
RTVSPost2010Prop38
140
0.0
102
RTVSPost2010PropOp38
 70
     1
102
RTVSPost2010Prop39
140
1.0
102
RTVSPost2010PropOp39
 70
     1
102
RTVSPost2010Prop40
 90
        0
102
RTVSPost2010PropOp40
 70
     1
102
RTVSPost2010Prop41ColorIndex
 90
       18
102
RTVSPost2010Prop41ColorRGB
 90
        0
102
RTVSPost2010PropOp41
 70
     1
102
RTVSPost2010Prop42
 90
       50
102
RTVSPost2010PropOp42
 70
     1
102
RTVSPost2010Prop43
 90
        3
102
RTVSPost2010PropOp43
 70
     1
102
RTVSPost2010Prop44ColorIndex
 90
        5
102
RTVSPost2010Prop44ColorRGB
 90
      255
102
RTVSPost2010PropOp44
 70
     1
102
RTVSPost2010Prop45
280
     0
102
RTVSPost2010PropOp45
 70
     1
102
RTVSPost2010Prop46
 90
       50
102
RTVSPost2010PropOp46
 70
     1
102
RTVSPost2010Prop47
 90
       50
102
RTVSPost2010PropOp47
 70
     1
102
RTVSPost2010Prop48
 90
       50
102
RTVSPost2010PropOp48
 70
     1
102
RTVSPost2010Prop49
280
     0
102
RTVSPost2010PropOp49
 70
     1
102
RTVSPost2010Prop50
 90
       50
102
RTVSPost2010PropOp50
 70
     1
102
RTVSPost2010Prop51ColorIndex
 90
      256
102
RTVSPost2010Prop51ColorRGB
 90
-16777216
102
RTVSPost2010PropOp51
 70
     0
102
RTVSPost2010Prop52
140
1.0
102
RTVSPost2010PropOp52
 70
     0
102
RTVSPost2010Prop53
 90
        2
102
RTVSPost2010PropOp53
 70
     1
102
RTVSPost2010Prop54
  1
strokes_ogs.tif
102
RTVSPost2010PropOp54
 70
     1
102
RTVSPost2010Prop55
280
     0
102
RTVSPost2010PropOp55
 70
     1
102
RTVSPost2010Prop56
140
1.0
102
RTVSPost2010PropOp56
 70
     1
102
RTVSPost2010Prop57
140
1.0
102
RTVSPost2010PropOp57
 70
     1
102
RTVSPropertyOp0
 70
     1
102
RTVSPropertyOp1
 70
     1
102
RTVSPropertyOp2
 70
     1
102
RTVSPropertyOp3
 70
     1
102
RTVSPropertyOp4
 70
     1
102
RTVSPropertyOp5
 70
     1
102
RTVSPropertyOp6
 70
     1
102
RTVSPropertyOp7
 70
     1
102
RTVSPropertyOp8
 70
     1
102
RTVSPropertyOp9
 70
     1
102
RTVSPropertyOp10
 70
     1
102
RTVSPropertyOp11
 70
     1
102
RTVSPropertyOp12
 70
     1
102
RTVSPropertyOp13
 70
     1
102
RTVSPropertyOp14
 70
     1
102
RTVSPropertyOp15
 70
     1
102
RTVSPropertyOp16
 70
     1
102
RTVSPropertyOp17
 70
     1
102
RTVSPropertyOp18
 70
     1
102
RTVSPropertyOp19
 70
     1
102
RTVSPropertyOp20
 70
     1
102
RTVSPropertyOp21
 70
     1
102
RTVSPropertyOp22
 70
     1
102
RTVSPropertyOp23
 70
     1
102
RTVSPropertyOp24
 70
     1
102
RTVSPropertyOp25
 70
     1
102
RTVSPropertyOp26
 70
     1
102
RTVSPropertyOp27
 70
     1
102
RTVSPropertyOp28
 70
     1
102
RTVSPropertyOp29
 70
     1
102
RTVSPropertyOp30
 70
     1
102
RTVSPropertyOp31
 70
     1
102
RTVSPropertyOp32
 70
     1
102
RTVSPropertyOp33
 70
     1
102
RTVSPropertyOp34
 70
     1
102
RTVSPropertyOp35
 70
     1
102
RTVSPropertyOp36
 70
     1
102
RTVSPropertyOp37
 70
     1
102
RTVSPropertyOp38
 70
     1
102
RTVSPropertyOp39
 70
     1
102
RTVSPropertyOp40
 70
     1
102
RTVSPropertyOp41
 70
     1
102
RTVSPropertyOp42
 70
     1
102
RTVSPropertyOp43
 70
     1
102
RTVSPropertyOp44
 70
     1
102
RTVSPropertyOp45
 70
     1
102
RTVSPropertyOp46
 70
     1
102
RTVSPropertyOp47
 70
     1
102
RTVSPropertyOp48
 70
     1
102
RTVSPropertyOp49
 70
     1
102
RTVSPropertyOp50
 70
     1
102
RTVSPropertyOp51
 70
     0
102
RTVSPropertyOp52
 70
     0
102
RTVSPropertyOp53
 70
     1
102
RTVSPropertyOp54
 70
     1
102
RTVSPropertyOp55
 70
     1
102
RTVSPropertyOp56
 70
     1
102
RTVSPropertyOp57
 70
     1
102
RTVSPropertyOp58
 70
     1
102
RTVSPropertyOp59
 70
     1
102
RTVSPropertyOp60
 70
     1
102
RTVSPropertyOp61
 70
     1
102
RTVSPropertyOp62
 70
     1
  0
XRECORD
  5
8F6
102
{ACAD_REACTORS
330
8F5
102
}
330
8F5
100
AcDbXrecord
280
     1
102
RTVSPost2010Prop28
280
     0
102
RTVSPost2010PropOp28
 70
     1
102
RTVSPost2010Prop29
280
     1
102
RTVSPost2010PropOp29
 70
     1
102
RTVSPost2010Prop30
280
     1
102
RTVSPost2010PropOp30
 70
     1
102
RTVSPost2010Prop31
280
     0
102
RTVSPost2010PropOp31
 70
     1
102
RTVSPost2010Prop32
280
     0
102
RTVSPost2010PropOp32
 70
     1
102
RTVSPost2010Prop33
280
     0
102
RTVSPost2010PropOp33
 70
     1
102
RTVSPost2010Prop34
280
     0
102
RTVSPost2010PropOp34
 70
     1
102
RTVSPost2010Prop35
280
     0
102
RTVSPost2010PropOp35
 70
     1
102
RTVSPost2010Prop36
280
     0
102
RTVSPost2010PropOp36
 70
     1
102
RTVSPost2010Prop37
 90
       50
102
RTVSPost2010PropOp37
 70
     1
102
RTVSPost2010Prop38
140
0.0
102
RTVSPost2010PropOp38
 70
     1
102
RTVSPost2010Prop39
140
1.0
102
RTVSPost2010PropOp39
 70
     1
102
RTVSPost2010Prop40
 90
        0
102
RTVSPost2010PropOp40
 70
     1
102
RTVSPost2010Prop41ColorIndex
 90
       18
102
RTVSPost2010Prop41ColorRGB
 90
        0
102
RTVSPost2010PropOp41
 70
     1
102
RTVSPost2010Prop42
 90
       50
102
RTVSPost2010PropOp42
 70
     1
102
RTVSPost2010Prop43
 90
        3
102
RTVSPost2010PropOp43
 70
     1
102
RTVSPost2010Prop44ColorIndex
 90
        5
102
RTVSPost2010Prop44ColorRGB
 90
      255
102
RTVSPost2010PropOp44
 70
     1
102
RTVSPost2010Prop45
280
     0
102
RTVSPost2010PropOp45
 70
     1
102
RTVSPost2010Prop46
 90
       50
102
RTVSPost2010PropOp46
 70
     1
102
RTVSPost2010Prop47
 90
       50
102
RTVSPost2010PropOp47
 70
     1
102
RTVSPost2010Prop48
 90
       50
102
RTVSPost2010PropOp48
 70
     1
102
RTVSPost2010Prop49
280
     0
102
RTVSPost2010PropOp49
 70
     1
102
RTVSPost2010Prop50
 90
       50
102
RTVSPost2010PropOp50
 70
     1
102
RTVSPost2010Prop51ColorIndex
 90
      256
102
RTVSPost2010Prop51ColorRGB
 90
-16777216
102
RTVSPost2010PropOp51
 70
     0
102
RTVSPost2010Prop52
140
1.0
102
RTVSPost2010PropOp52
 70
     0
102
RTVSPost2010Prop53
 90
        2
102
RTVSPost2010PropOp53
 70
     1
102
RTVSPost2010Prop54
  1
strokes_ogs.tif
102
RTVSPost2010PropOp54
 70
     1
102
RTVSPost2010Prop55
280
     0
102
RTVSPost2010PropOp55
 70
     1
102
RTVSPost2010Prop56
140
1.0
102
RTVSPost2010PropOp56
 70
     1
102
RTVSPost2010Prop57
140
1.0
102
RTVSPost2010PropOp57
 70
     1
102
RTVSPropertyOp0
 70
     1
102
RTVSPropertyOp1
 70
     1
102
RTVSPropertyOp2
 70
     1
102
RTVSPropertyOp3
 70
     1
102
RTVSPropertyOp4
 70
     1
102
RTVSPropertyOp5
 70
     1
102
RTVSPropertyOp6
 70
     1
102
RTVSPropertyOp7
 70
     1
102
RTVSPropertyOp8
 70
     1
102
RTVSPropertyOp9
 70
     1
102
RTVSPropertyOp10
 70
     1
102
RTVSPropertyOp11
 70
     1
102
RTVSPropertyOp12
 70
     1
102
RTVSPropertyOp13
 70
     1
102
RTVSPropertyOp14
 70
     1
102
RTVSPropertyOp15
 70
     1
102
RTVSPropertyOp16
 70
     1
102
RTVSPropertyOp17
 70
     1
102
RTVSPropertyOp18
 70
     1
102
RTVSPropertyOp19
 70
     1
102
RTVSPropertyOp20
 70
     1
102
RTVSPropertyOp21
 70
     1
102
RTVSPropertyOp22
 70
     1
102
RTVSPropertyOp23
 70
     1
102
RTVSPropertyOp24
 70
     1
102
RTVSPropertyOp25
 70
     1
102
RTVSPropertyOp26
 70
     1
102
RTVSPropertyOp27
 70
     1
102
RTVSPropertyOp28
 70
     1
102
RTVSPropertyOp29
 70
     1
102
RTVSPropertyOp30
 70
     1
102
RTVSPropertyOp31
 70
     1
102
RTVSPropertyOp32
 70
     1
102
RTVSPropertyOp33
 70
     1
102
RTVSPropertyOp34
 70
     1
102
RTVSPropertyOp35
 70
     1
102
RTVSPropertyOp36
 70
     1
102
RTVSPropertyOp37
 70
     1
102
RTVSPropertyOp38
 70
     1
102
RTVSPropertyOp39
 70
     1
102
RTVSPropertyOp40
 70
     1
102
RTVSPropertyOp41
 70
     1
102
RTVSPropertyOp42
 70
     1
102
RTVSPropertyOp43
 70
     1
102
RTVSPropertyOp44
 70
     1
102
RTVSPropertyOp45
 70
     1
102
RTVSPropertyOp46
 70
     1
102
RTVSPropertyOp47
 70
     1
102
RTVSPropertyOp48
 70
     1
102
RTVSPropertyOp49
 70
     1
102
RTVSPropertyOp50
 70
     1
102
RTVSPropertyOp51
 70
     0
102
RTVSPropertyOp52
 70
     0
102
RTVSPropertyOp53
 70
     1
102
RTVSPropertyOp54
 70
     1
102
RTVSPropertyOp55
 70
     1
102
RTVSPropertyOp56
 70
     1
102
RTVSPropertyOp57
 70
     1
102
RTVSPropertyOp58
 70
     1
102
RTVSPropertyOp59
 70
     1
102
RTVSPropertyOp60
 70
     1
102
RTVSPropertyOp61
 70
     1
102
RTVSPropertyOp62
 70
     1
  0
XRECORD
  5
8FE
102
{ACAD_REACTORS
330
8FD
102
}
330
8FD
100
AcDbXrecord
280
     1
102
RTVSPost2010Prop28
280
     0
102
RTVSPost2010PropOp28
 70
     1
102
RTVSPost2010Prop29
280
     1
102
RTVSPost2010PropOp29
 70
     1
102
RTVSPost2010Prop30
280
     1
102
RTVSPost2010PropOp30
 70
     1
102
RTVSPost2010Prop31
280
     0
102
RTVSPost2010PropOp31
 70
     1
102
RTVSPost2010Prop32
280
     0
102
RTVSPost2010PropOp32
 70
     1
102
RTVSPost2010Prop33
280
     0
102
RTVSPost2010PropOp33
 70
     1
102
RTVSPost2010Prop34
280
     0
102
RTVSPost2010PropOp34
 70
     1
102
RTVSPost2010Prop35
280
     0
102
RTVSPost2010PropOp35
 70
     1
102
RTVSPost2010Prop36
280
     0
102
RTVSPost2010PropOp36
 70
     1
102
RTVSPost2010Prop37
 90
       50
102
RTVSPost2010PropOp37
 70
     1
102
RTVSPost2010Prop38
140
0.0
102
RTVSPost2010PropOp38
 70
     1
102
RTVSPost2010Prop39
140
1.0
102
RTVSPost2010PropOp39
 70
     1
102
RTVSPost2010Prop40
 90
        0
102
RTVSPost2010PropOp40
 70
     1
102
RTVSPost2010Prop41ColorIndex
 90
       18
102
RTVSPost2010Prop41ColorRGB
 90
        0
102
RTVSPost2010PropOp41
 70
     1
102
RTVSPost2010Prop42
 90
       50
102
RTVSPost2010PropOp42
 70
     1
102
RTVSPost2010Prop43
 90
        3
102
RTVSPost2010PropOp43
 70
     1
102
RTVSPost2010Prop44ColorIndex
 90
        5
102
RTVSPost2010Prop44ColorRGB
 90
      255
102
RTVSPost2010PropOp44
 70
     1
102
RTVSPost2010Prop45
280
     0
102
RTVSPost2010PropOp45
 70
     1
102
RTVSPost2010Prop46
 90
       50
102
RTVSPost2010PropOp46
 70
     1
102
RTVSPost2010Prop47
 90
       50
102
RTVSPost2010PropOp47
 70
     1
102
RTVSPost2010Prop48
 90
       50
102
RTVSPost2010PropOp48
 70
     1
102
RTVSPost2010Prop49
280
     0
102
RTVSPost2010PropOp49
 70
     1
102
RTVSPost2010Prop50
 90
       50
102
RTVSPost2010PropOp50
 70
     1
102
RTVSPost2010Prop51ColorIndex
 90
      256
102
RTVSPost2010Prop51ColorRGB
 90
-16777216
102
RTVSPost2010PropOp51
 70
     0
102
RTVSPost2010Prop52
140
1.0
102
RTVSPost2010PropOp52
 70
     0
102
RTVSPost2010Prop53
 90
        2
102
RTVSPost2010PropOp53
 70
     1
102
RTVSPost2010Prop54
  1
strokes_ogs.tif
102
RTVSPost2010PropOp54
 70
     1
102
RTVSPost2010Prop55
280
     0
102
RTVSPost2010PropOp55
 70
     1
102
RTVSPost2010Prop56
140
1.0
102
RTVSPost2010PropOp56
 70
     1
102
RTVSPost2010Prop57
140
1.0
102
RTVSPost2010PropOp57
 70
     1
102
RTVSPropertyOp0
 70
     1
102
RTVSPropertyOp1
 70
     1
102
RTVSPropertyOp2
 70
     1
102
RTVSPropertyOp3
 70
     1
102
RTVSPropertyOp4
 70
     1
102
RTVSPropertyOp5
 70
     1
102
RTVSPropertyOp6
 70
     1
102
RTVSPropertyOp7
 70
     1
102
RTVSPropertyOp8
 70
     1
102
RTVSPropertyOp9
 70
     1
102
RTVSPropertyOp10
 70
     1
102
RTVSPropertyOp11
 70
     1
102
RTVSPropertyOp12
 70
     1
102
RTVSPropertyOp13
 70
     1
102
RTVSPropertyOp14
 70
     1
102
RTVSPropertyOp15
 70
     1
102
RTVSPropertyOp16
 70
     1
102
RTVSPropertyOp17
 70
     1
102
RTVSPropertyOp18
 70
     1
102
RTVSPropertyOp19
 70
     1
102
RTVSPropertyOp20
 70
     1
102
RTVSPropertyOp21
 70
     1
102
RTVSPropertyOp22
 70
     1
102
RTVSPropertyOp23
 70
     1
102
RTVSPropertyOp24
 70
     1
102
RTVSPropertyOp25
 70
     1
102
RTVSPropertyOp26
 70
     1
102
RTVSPropertyOp27
 70
     1
102
RTVSPropertyOp28
 70
     1
102
RTVSPropertyOp29
 70
     1
102
RTVSPropertyOp30
 70
     1
102
RTVSPropertyOp31
 70
     1
102
RTVSPropertyOp32
 70
     1
102
RTVSPropertyOp33
 70
     1
102
RTVSPropertyOp34
 70
     1
102
RTVSPropertyOp35
 70
     1
102
RTVSPropertyOp36
 70
     1
102
RTVSPropertyOp37
 70
     1
102
RTVSPropertyOp38
 70
     1
102
RTVSPropertyOp39
 70
     1
102
RTVSPropertyOp40
 70
     1
102
RTVSPropertyOp41
 70
     1
102
RTVSPropertyOp42
 70
     1
102
RTVSPropertyOp43
 70
     1
102
RTVSPropertyOp44
 70
     1
102
RTVSPropertyOp45
 70
     1
102
RTVSPropertyOp46
 70
     1
102
RTVSPropertyOp47
 70
     1
102
RTVSPropertyOp48
 70
     1
102
RTVSPropertyOp49
 70
     1
102
RTVSPropertyOp50
 70
     1
102
RTVSPropertyOp51
 70
     0
102
RTVSPropertyOp52
 70
     0
102
RTVSPropertyOp53
 70
     1
102
RTVSPropertyOp54
 70
     1
102
RTVSPropertyOp55
 70
     1
102
RTVSPropertyOp56
 70
     1
102
RTVSPropertyOp57
 70
     1
102
RTVSPropertyOp58
 70
     1
102
RTVSPropertyOp59
 70
     1
102
RTVSPropertyOp60
 70
     1
102
RTVSPropertyOp61
 70
     1
102
RTVSPropertyOp62
 70
     1
  0
XRECORD
  5
91A
102
{ACAD_REACTORS
330
919
102
}
330
919
100
AcDbXrecord
280
     1
102
RTVSPost2010Prop28
280
     0
102
RTVSPost2010PropOp28
 70
     1
102
RTVSPost2010Prop29
280
     1
102
RTVSPost2010PropOp29
 70
     1
102
RTVSPost2010Prop30
280
     1
102
RTVSPost2010PropOp30
 70
     1
102
RTVSPost2010Prop31
280
     0
102
RTVSPost2010PropOp31
 70
     1
102
RTVSPost2010Prop32
280
     0
102
RTVSPost2010PropOp32
 70
     1
102
RTVSPost2010Prop33
280
     0
102
RTVSPost2010PropOp33
 70
     1
102
RTVSPost2010Prop34
280
     0
102
RTVSPost2010PropOp34
 70
     1
102
RTVSPost2010Prop35
280
     0
102
RTVSPost2010PropOp35
 70
     1
102
RTVSPost2010Prop36
280
     0
102
RTVSPost2010PropOp36
 70
     1
102
RTVSPost2010Prop37
 90
       50
102
RTVSPost2010PropOp37
 70
     0
102
RTVSPost2010Prop38
140
0.0
102
RTVSPost2010PropOp38
 70
     0
102
RTVSPost2010Prop39
140
1.0
102
RTVSPost2010PropOp39
 70
     0
102
RTVSPost2010Prop40
 90
        0
102
RTVSPost2010PropOp40
 70
     0
102
RTVSPost2010Prop41ColorIndex
 90
       18
102
RTVSPost2010Prop41ColorRGB
 90
        0
102
RTVSPost2010PropOp41
 70
     0
102
RTVSPost2010Prop42
 90
       50
102
RTVSPost2010PropOp42
 70
     0
102
RTVSPost2010Prop43
 90
        3
102
RTVSPost2010PropOp43
 70
     0
102
RTVSPost2010Prop44ColorIndex
 90
        5
102
RTVSPost2010Prop44ColorRGB
 90
      255
102
RTVSPost2010PropOp44
 70
     0
102
RTVSPost2010Prop45
280
     0
102
RTVSPost2010PropOp45
 70
     1
102
RTVSPost2010Prop46
 90
       50
102
RTVSPost2010PropOp46
 70
     0
102
RTVSPost2010Prop47
 90
       50
102
RTVSPost2010PropOp47
 70
     0
102
RTVSPost2010Prop48
 90
       50
102
RTVSPost2010PropOp48
 70
     0
102
RTVSPost2010Prop49
280
     0
102
RTVSPost2010PropOp49
 70
     1
102
RTVSPost2010Prop50
 90
       50
102
RTVSPost2010PropOp50
 70
     0
102
RTVSPost2010Prop51ColorIndex
 90
      256
102
RTVSPost2010Prop51ColorRGB
 90
-16777216
102
RTVSPost2010PropOp51
 70
     0
102
RTVSPost2010Prop52
140
1.0
102
RTVSPost2010PropOp52
 70
     0
102
RTVSPost2010Prop53
 90
        2
102
RTVSPost2010PropOp53
 70
     0
102
RTVSPost2010Prop54
  1
strokes_ogs.tif
102
RTVSPost2010PropOp54
 70
     0
102
RTVSPost2010Prop55
280
     0
102
RTVSPost2010PropOp55
 70
     1
102
RTVSPost2010Prop56
140
1.0
102
RTVSPost2010PropOp56
 70
     0
102
RTVSPost2010Prop57
140
1.0
102
RTVSPost2010PropOp57
 70
     0
102
RTVSPropertyOp0
 70
     0
102
RTVSPropertyOp1
 70
     0
102
RTVSPropertyOp2
 70
     0
102
RTVSPropertyOp3
 70
     0
102
RTVSPropertyOp4
 70
     0
102
RTVSPropertyOp5
 70
     0
102
RTVSPropertyOp6
 70
     0
102
RTVSPropertyOp7
 70
     0
102
RTVSPropertyOp8
 70
     0
102
RTVSPropertyOp9
 70
     0
102
RTVSPropertyOp10
 70
     0
102
RTVSPropertyOp11
 70
     0
102
RTVSPropertyOp12
 70
     0
102
RTVSPropertyOp13
 70
     0
102
RTVSPropertyOp14
 70
     2
102
RTVSPropertyOp15
 70
     0
102
RTVSPropertyOp16
 70
     0
102
RTVSPropertyOp17
 70
     0
102
RTVSPropertyOp18
 70
     0
102
RTVSPropertyOp19
 70
     0
102
RTVSPropertyOp20
 70
     0
102
RTVSPropertyOp21
 70
     0
102
RTVSPropertyOp22
 70
     0
102
RTVSPropertyOp23
 70
     0
102
RTVSPropertyOp24
 70
     0
102
RTVSPropertyOp25
 70
     0
102
RTVSPropertyOp26
 70
     0
102
RTVSPropertyOp27
 70
     0
102
RTVSPropertyOp28
 70
     1
102
RTVSPropertyOp29
 70
     1
102
RTVSPropertyOp30
 70
     1
102
RTVSPropertyOp31
 70
     1
102
RTVSPropertyOp32
 70
     1
102
RTVSPropertyOp33
 70
     1
102
RTVSPropertyOp34
 70
     1
102
RTVSPropertyOp35
 70
     1
102
RTVSPropertyOp36
 70
     1
102
RTVSPropertyOp37
 70
     0
102
RTVSPropertyOp38
 70
     0
102
RTVSPropertyOp39
 70
     0
102
RTVSPropertyOp40
 70
     0
102
RTVSPropertyOp41
 70
     0
102
RTVSPropertyOp42
 70
     0
102
RTVSPropertyOp43
 70
     0
102
RTVSPropertyOp44
 70
     0
102
RTVSPropertyOp45
 70
     1
102
RTVSPropertyOp46
 70
     0
102
RTVSPropertyOp47
 70
     0
102
RTVSPropertyOp48
 70
     0
102
RTVSPropertyOp49
 70
     1
102
RTVSPropertyOp50
 70
     0
102
RTVSPropertyOp51
 70
     0
102
RTVSPropertyOp52
 70
     0
102
RTVSPropertyOp53
 70
     0
102
RTVSPropertyOp54
 70
     0
102
RTVSPropertyOp55
 70
     1
102
RTVSPropertyOp56
 70
     0
102
RTVSPropertyOp57
 70
     0
102
RTVSPropertyOp58
 70
     0
102
RTVSPropertyOp59
 70
     0
102
RTVSPropertyOp60
 70
     0
102
RTVSPropertyOp61
 70
     0
102
RTVSPropertyOp62
 70
     0
  0
XRECORD
  5
90A
102
{ACAD_REACTORS
330
909
102
}
330
909
100
AcDbXrecord
280
     1
102
RTVSPost2010Prop28
280
     0
102
RTVSPost2010PropOp28
 70
     1
102
RTVSPost2010Prop29
280
     1
102
RTVSPost2010PropOp29
 70
     1
102
RTVSPost2010Prop30
280
     1
102
RTVSPost2010PropOp30
 70
     1
102
RTVSPost2010Prop31
280
     0
102
RTVSPost2010PropOp31
 70
     1
102
RTVSPost2010Prop32
280
     0
102
RTVSPost2010PropOp32
 70
     1
102
RTVSPost2010Prop33
280
     0
102
RTVSPost2010PropOp33
 70
     1
102
RTVSPost2010Prop34
280
     0
102
RTVSPost2010PropOp34
 70
     1
102
RTVSPost2010Prop35
280
     0
102
RTVSPost2010PropOp35
 70
     1
102
RTVSPost2010Prop36
280
     0
102
RTVSPost2010PropOp36
 70
     1
102
RTVSPost2010Prop37
 90
       50
102
RTVSPost2010PropOp37
 70
     1
102
RTVSPost2010Prop38
140
0.0
102
RTVSPost2010PropOp38
 70
     1
102
RTVSPost2010Prop39
140
1.0
102
RTVSPost2010PropOp39
 70
     1
102
RTVSPost2010Prop40
 90
        0
102
RTVSPost2010PropOp40
 70
     1
102
RTVSPost2010Prop41ColorIndex
 90
       18
102
RTVSPost2010Prop41ColorRGB
 90
        0
102
RTVSPost2010PropOp41
 70
     1
102
RTVSPost2010Prop42
 90
       50
102
RTVSPost2010PropOp42
 70
     1
102
RTVSPost2010Prop43
 90
        3
102
RTVSPost2010PropOp43
 70
     1
102
RTVSPost2010Prop44ColorIndex
 90
        5
102
RTVSPost2010Prop44ColorRGB
 90
      255
102
RTVSPost2010PropOp44
 70
     1
102
RTVSPost2010Prop45
280
     0
102
RTVSPost2010PropOp45
 70
     1
102
RTVSPost2010Prop46
 90
       50
102
RTVSPost2010PropOp46
 70
     1
102
RTVSPost2010Prop47
 90
       50
102
RTVSPost2010PropOp47
 70
     1
102
RTVSPost2010Prop48
 90
       50
102
RTVSPost2010PropOp48
 70
     1
102
RTVSPost2010Prop49
280
     0
102
RTVSPost2010PropOp49
 70
     1
102
RTVSPost2010Prop50
 90
       50
102
RTVSPost2010PropOp50
 70
     1
102
RTVSPost2010Prop51ColorIndex
 90
      256
102
RTVSPost2010Prop51ColorRGB
 90
-16777216
102
RTVSPost2010PropOp51
 70
     0
102
RTVSPost2010Prop52
140
1.0
102
RTVSPost2010PropOp52
 70
     0
102
RTVSPost2010Prop53
 90
        2
102
RTVSPost2010PropOp53
 70
     1
102
RTVSPost2010Prop54
  1
strokes_ogs.tif
102
RTVSPost2010PropOp54
 70
     1
102
RTVSPost2010Prop55
280
     0
102
RTVSPost2010PropOp55
 70
     1
102
RTVSPost2010Prop56
140
1.0
102
RTVSPost2010PropOp56
 70
     1
102
RTVSPost2010Prop57
140
1.0
102
RTVSPost2010PropOp57
 70
     1
102
RTVSPropertyOp0
 70
     1
102
RTVSPropertyOp1
 70
     1
102
RTVSPropertyOp2
 70
     1
102
RTVSPropertyOp3
 70
     1
102
RTVSPropertyOp4
 70
     1
102
RTVSPropertyOp5
 70
     1
102
RTVSPropertyOp6
 70
     1
102
RTVSPropertyOp7
 70
     1
102
RTVSPropertyOp8
 70
     1
102
RTVSPropertyOp9
 70
     1
102
RTVSPropertyOp10
 70
     1
102
RTVSPropertyOp11
 70
     1
102
RTVSPropertyOp12
 70
     1
102
RTVSPropertyOp13
 70
     1
102
RTVSPropertyOp14
 70
     1
102
RTVSPropertyOp15
 70
     1
102
RTVSPropertyOp16
 70
     1
102
RTVSPropertyOp17
 70
     1
102
RTVSPropertyOp18
 70
     1
102
RTVSPropertyOp19
 70
     1
102
RTVSPropertyOp20
 70
     1
102
RTVSPropertyOp21
 70
     1
102
RTVSPropertyOp22
 70
     1
102
RTVSPropertyOp23
 70
     1
102
RTVSPropertyOp24
 70
     1
102
RTVSPropertyOp25
 70
     1
102
RTVSPropertyOp26
 70
     1
102
RTVSPropertyOp27
 70
     1
102
RTVSPropertyOp28
 70
     1
102
RTVSPropertyOp29
 70
     1
102
RTVSPropertyOp30
 70
     1
102
RTVSPropertyOp31
 70
     1
102
RTVSPropertyOp32
 70
     1
102
RTVSPropertyOp33
 70
     1
102
RTVSPropertyOp34
 70
     1
102
RTVSPropertyOp35
 70
     1
102
RTVSPropertyOp36
 70
     1
102
RTVSPropertyOp37
 70
     1
102
RTVSPropertyOp38
 70
     1
102
RTVSPropertyOp39
 70
     1
102
RTVSPropertyOp40
 70
     1
102
RTVSPropertyOp41
 70
     1
102
RTVSPropertyOp42
 70
     1
102
RTVSPropertyOp43
 70
     1
102
RTVSPropertyOp44
 70
     1
102
RTVSPropertyOp45
 70
     1
102
RTVSPropertyOp46
 70
     1
102
RTVSPropertyOp47
 70
     1
102
RTVSPropertyOp48
 70
     1
102
RTVSPropertyOp49
 70
     1
102
RTVSPropertyOp50
 70
     1
102
RTVSPropertyOp51
 70
     0
102
RTVSPropertyOp52
 70
     0
102
RTVSPropertyOp53
 70
     1
102
RTVSPropertyOp54
 70
     1
102
RTVSPropertyOp55
 70
     1
102
RTVSPropertyOp56
 70
     1
102
RTVSPropertyOp57
 70
     1
102
RTVSPropertyOp58
 70
     1
102
RTVSPropertyOp59
 70
     1
102
RTVSPropertyOp60
 70
     1
102
RTVSPropertyOp61
 70
     1
102
RTVSPropertyOp62
 70
     1
  0
XRECORD
  5
91C
102
{ACAD_REACTORS
330
91B
102
}
330
91B
100
AcDbXrecord
280
     1
102
RTVSPost2010Prop28
280
     0
102
RTVSPost2010PropOp28
 70
     1
102
RTVSPost2010Prop29
280
     1
102
RTVSPost2010PropOp29
 70
     1
102
RTVSPost2010Prop30
280
     1
102
RTVSPost2010PropOp30
 70
     1
102
RTVSPost2010Prop31
280
     0
102
RTVSPost2010PropOp31
 70
     1
102
RTVSPost2010Prop32
280
     0
102
RTVSPost2010PropOp32
 70
     1
102
RTVSPost2010Prop33
280
     0
102
RTVSPost2010PropOp33
 70
     1
102
RTVSPost2010Prop34
280
     0
102
RTVSPost2010PropOp34
 70
     1
102
RTVSPost2010Prop35
280
     0
102
RTVSPost2010PropOp35
 70
     1
102
RTVSPost2010Prop36
280
     0
102
RTVSPost2010PropOp36
 70
     1
102
RTVSPost2010Prop37
 90
       50
102
RTVSPost2010PropOp37
 70
     0
102
RTVSPost2010Prop38
140
0.0
102
RTVSPost2010PropOp38
 70
     0
102
RTVSPost2010Prop39
140
1.0
102
RTVSPost2010PropOp39
 70
     0
102
RTVSPost2010Prop40
 90
        0
102
RTVSPost2010PropOp40
 70
     0
102
RTVSPost2010Prop41ColorIndex
 90
       18
102
RTVSPost2010Prop41ColorRGB
 90
        0
102
RTVSPost2010PropOp41
 70
     0
102
RTVSPost2010Prop42
 90
       50
102
RTVSPost2010PropOp42
 70
     0
102
RTVSPost2010Prop43
 90
        3
102
RTVSPost2010PropOp43
 70
     0
102
RTVSPost2010Prop44ColorIndex
 90
        5
102
RTVSPost2010Prop44ColorRGB
 90
      255
102
RTVSPost2010PropOp44
 70
     0
102
RTVSPost2010Prop45
280
     0
102
RTVSPost2010PropOp45
 70
     1
102
RTVSPost2010Prop46
 90
       50
102
RTVSPost2010PropOp46
 70
     0
102
RTVSPost2010Prop47
 90
       50
102
RTVSPost2010PropOp47
 70
     0
102
RTVSPost2010Prop48
 90
       50
102
RTVSPost2010PropOp48
 70
     0
102
RTVSPost2010Prop49
280
     0
102
RTVSPost2010PropOp49
 70
     1
102
RTVSPost2010Prop50
 90
       50
102
RTVSPost2010PropOp50
 70
     0
102
RTVSPost2010Prop51ColorIndex
 90
      256
102
RTVSPost2010Prop51ColorRGB
 90
-16777216
102
RTVSPost2010PropOp51
 70
     0
102
RTVSPost2010Prop52
140
1.0
102
RTVSPost2010PropOp52
 70
     0
102
RTVSPost2010Prop53
 90
        2
102
RTVSPost2010PropOp53
 70
     0
102
RTVSPost2010Prop54
  1
strokes_ogs.tif
102
RTVSPost2010PropOp54
 70
     0
102
RTVSPost2010Prop55
280
     0
102
RTVSPost2010PropOp55
 70
     1
102
RTVSPost2010Prop56
140
1.0
102
RTVSPost2010PropOp56
 70
     0
102
RTVSPost2010Prop57
140
1.0
102
RTVSPost2010PropOp57
 70
     0
102
RTVSPropertyOp0
 70
     0
102
RTVSPropertyOp1
 70
     0
102
RTVSPropertyOp2
 70
     0
102
RTVSPropertyOp3
 70
     0
102
RTVSPropertyOp4
 70
     0
102
RTVSPropertyOp5
 70
     0
102
RTVSPropertyOp6
 70
     0
102
RTVSPropertyOp7
 70
     0
102
RTVSPropertyOp8
 70
     0
102
RTVSPropertyOp9
 70
     0
102
RTVSPropertyOp10
 70
     0
102
RTVSPropertyOp11
 70
     0
102
RTVSPropertyOp12
 70
     0
102
RTVSPropertyOp13
 70
     0
102
RTVSPropertyOp14
 70
     2
102
RTVSPropertyOp15
 70
     0
102
RTVSPropertyOp16
 70
     0
102
RTVSPropertyOp17
 70
     0
102
RTVSPropertyOp18
 70
     0
102
RTVSPropertyOp19
 70
     0
102
RTVSPropertyOp20
 70
     0
102
RTVSPropertyOp21
 70
     0
102
RTVSPropertyOp22
 70
     0
102
RTVSPropertyOp23
 70
     0
102
RTVSPropertyOp24
 70
     0
102
RTVSPropertyOp25
 70
     0
102
RTVSPropertyOp26
 70
     0
102
RTVSPropertyOp27
 70
     0
102
RTVSPropertyOp28
 70
     1
102
RTVSPropertyOp29
 70
     1
102
RTVSPropertyOp30
 70
     1
102
RTVSPropertyOp31
 70
     1
102
RTVSPropertyOp32
 70
     1
102
RTVSPropertyOp33
 70
     1
102
RTVSPropertyOp34
 70
     1
102
RTVSPropertyOp35
 70
     1
102
RTVSPropertyOp36
 70
     1
102
RTVSPropertyOp37
 70
     0
102
RTVSPropertyOp38
 70
     0
102
RTVSPropertyOp39
 70
     0
102
RTVSPropertyOp40
 70
     0
102
RTVSPropertyOp41
 70
     0
102
RTVSPropertyOp42
 70
     0
102
RTVSPropertyOp43
 70
     0
102
RTVSPropertyOp44
 70
     0
102
RTVSPropertyOp45
 70
     1
102
RTVSPropertyOp46
 70
     0
102
RTVSPropertyOp47
 70
     0
102
RTVSPropertyOp48
 70
     0
102
RTVSPropertyOp49
 70
     1
102
RTVSPropertyOp50
 70
     0
102
RTVSPropertyOp51
 70
     0
102
RTVSPropertyOp52
 70
     0
102
RTVSPropertyOp53
 70
     0
102
RTVSPropertyOp54
 70
     0
102
RTVSPropertyOp55
 70
     1
102
RTVSPropertyOp56
 70
     0
102
RTVSPropertyOp57
 70
     0
102
RTVSPropertyOp58
 70
     0
102
RTVSPropertyOp59
 70
     0
102
RTVSPropertyOp60
 70
     0
102
RTVSPropertyOp61
 70
     0
102
RTVSPropertyOp62
 70
     0
  0
XRECORD
  5
902
102
{ACAD_REACTORS
330
901
102
}
330
901
100
AcDbXrecord
280
     1
102
RTVSPost2010Prop28
280
     0
102
RTVSPost2010PropOp28
 70
     1
102
RTVSPost2010Prop29
280
     1
102
RTVSPost2010PropOp29
 70
     1
102
RTVSPost2010Prop30
280
     1
102
RTVSPost2010PropOp30
 70
     1
102
RTVSPost2010Prop31
280
     0
102
RTVSPost2010PropOp31
 70
     1
102
RTVSPost2010Prop32
280
     0
102
RTVSPost2010PropOp32
 70
     1
102
RTVSPost2010Prop33
280
     0
102
RTVSPost2010PropOp33
 70
     1
102
RTVSPost2010Prop34
280
     0
102
RTVSPost2010PropOp34
 70
     1
102
RTVSPost2010Prop35
280
     0
102
RTVSPost2010PropOp35
 70
     1
102
RTVSPost2010Prop36
280
     0
102
RTVSPost2010PropOp36
 70
     1
102
RTVSPost2010Prop37
 90
       50
102
RTVSPost2010PropOp37
 70
     1
102
RTVSPost2010Prop38
140
0.0
102
RTVSPost2010PropOp38
 70
     1
102
RTVSPost2010Prop39
140
1.0
102
RTVSPost2010PropOp39
 70
     1
102
RTVSPost2010Prop40
 90
        0
102
RTVSPost2010PropOp40
 70
     1
102
RTVSPost2010Prop41ColorIndex
 90
       18
102
RTVSPost2010Prop41ColorRGB
 90
        0
102
RTVSPost2010PropOp41
 70
     1
102
RTVSPost2010Prop42
 90
       50
102
RTVSPost2010PropOp42
 70
     1
102
RTVSPost2010Prop43
 90
        3
102
RTVSPost2010PropOp43
 70
     1
102
RTVSPost2010Prop44ColorIndex
 90
        5
102
RTVSPost2010Prop44ColorRGB
 90
      255
102
RTVSPost2010PropOp44
 70
     1
102
RTVSPost2010Prop45
280
     0
102
RTVSPost2010PropOp45
 70
     1
102
RTVSPost2010Prop46
 90
       50
102
RTVSPost2010PropOp46
 70
     1
102
RTVSPost2010Prop47
 90
       50
102
RTVSPost2010PropOp47
 70
     1
102
RTVSPost2010Prop48
 90
       50
102
RTVSPost2010PropOp48
 70
     1
102
RTVSPost2010Prop49
280
     0
102
RTVSPost2010PropOp49
 70
     1
102
RTVSPost2010Prop50
 90
       50
102
RTVSPost2010PropOp50
 70
     1
102
RTVSPost2010Prop51ColorIndex
 90
      256
102
RTVSPost2010Prop51ColorRGB
 90
-16777216
102
RTVSPost2010PropOp51
 70
     0
102
RTVSPost2010Prop52
140
1.0
102
RTVSPost2010PropOp52
 70
     0
102
RTVSPost2010Prop53
 90
        2
102
RTVSPost2010PropOp53
 70
     1
102
RTVSPost2010Prop54
  1
strokes_ogs.tif
102
RTVSPost2010PropOp54
 70
     1
102
RTVSPost2010Prop55
280
     0
102
RTVSPost2010PropOp55
 70
     1
102
RTVSPost2010Prop56
140
1.0
102
RTVSPost2010PropOp56
 70
     1
102
RTVSPost2010Prop57
140
1.0
102
RTVSPost2010PropOp57
 70
     1
102
RTVSPropertyOp0
 70
     1
102
RTVSPropertyOp1
 70
     1
102
RTVSPropertyOp2
 70
     1
102
RTVSPropertyOp3
 70
     1
102
RTVSPropertyOp4
 70
     1
102
RTVSPropertyOp5
 70
     1
102
RTVSPropertyOp6
 70
     1
102
RTVSPropertyOp7
 70
     1
102
RTVSPropertyOp8
 70
     1
102
RTVSPropertyOp9
 70
     1
102
RTVSPropertyOp10
 70
     1
102
RTVSPropertyOp11
 70
     1
102
RTVSPropertyOp12
 70
     1
102
RTVSPropertyOp13
 70
     1
102
RTVSPropertyOp14
 70
     1
102
RTVSPropertyOp15
 70
     1
102
RTVSPropertyOp16
 70
     1
102
RTVSPropertyOp17
 70
     1
102
RTVSPropertyOp18
 70
     1
102
RTVSPropertyOp19
 70
     1
102
RTVSPropertyOp20
 70
     1
102
RTVSPropertyOp21
 70
     1
102
RTVSPropertyOp22
 70
     1
102
RTVSPropertyOp23
 70
     1
102
RTVSPropertyOp24
 70
     1
102
RTVSPropertyOp25
 70
     1
102
RTVSPropertyOp26
 70
     1
102
RTVSPropertyOp27
 70
     1
102
RTVSPropertyOp28
 70
     1
102
RTVSPropertyOp29
 70
     1
102
RTVSPropertyOp30
 70
     1
102
RTVSPropertyOp31
 70
     1
102
RTVSPropertyOp32
 70
     1
102
RTVSPropertyOp33
 70
     1
102
RTVSPropertyOp34
 70
     1
102
RTVSPropertyOp35
 70
     1
102
RTVSPropertyOp36
 70
     1
102
RTVSPropertyOp37
 70
     1
102
RTVSPropertyOp38
 70
     1
102
RTVSPropertyOp39
 70
     1
102
RTVSPropertyOp40
 70
     1
102
RTVSPropertyOp41
 70
     1
102
RTVSPropertyOp42
 70
     1
102
RTVSPropertyOp43
 70
     1
102
RTVSPropertyOp44
 70
     1
102
RTVSPropertyOp45
 70
     1
102
RTVSPropertyOp46
 70
     1
102
RTVSPropertyOp47
 70
     1
102
RTVSPropertyOp48
 70
     1
102
RTVSPropertyOp49
 70
     1
102
RTVSPropertyOp50
 70
     1
102
RTVSPropertyOp51
 70
     0
102
RTVSPropertyOp52
 70
     0
102
RTVSPropertyOp53
 70
     1
102
RTVSPropertyOp54
 70
     1
102
RTVSPropertyOp55
 70
     1
102
RTVSPropertyOp56
 70
     1
102
RTVSPropertyOp57
 70
     1
102
RTVSPropertyOp58
 70
     1
102
RTVSPropertyOp59
 70
     1
102
RTVSPropertyOp60
 70
     1
102
RTVSPropertyOp61
 70
     1
102
RTVSPropertyOp62
 70
     1
  0
XRECORD
  5
918
102
{ACAD_REACTORS
330
917
102
}
330
917
100
AcDbXrecord
280
     1
102
RTVSPost2010Prop28
280
     0
102
RTVSPost2010PropOp28
 70
     1
102
RTVSPost2010Prop29
280
     1
102
RTVSPost2010PropOp29
 70
     1
102
RTVSPost2010Prop30
280
     1
102
RTVSPost2010PropOp30
 70
     1
102
RTVSPost2010Prop31
280
     0
102
RTVSPost2010PropOp31
 70
     1
102
RTVSPost2010Prop32
280
     0
102
RTVSPost2010PropOp32
 70
     1
102
RTVSPost2010Prop33
280
     0
102
RTVSPost2010PropOp33
 70
     1
102
RTVSPost2010Prop34
280
     0
102
RTVSPost2010PropOp34
 70
     1
102
RTVSPost2010Prop35
280
     0
102
RTVSPost2010PropOp35
 70
     1
102
RTVSPost2010Prop36
280
     0
102
RTVSPost2010PropOp36
 70
     1
102
RTVSPost2010Prop37
 90
       50
102
RTVSPost2010PropOp37
 70
     1
102
RTVSPost2010Prop38
140
0.0
102
RTVSPost2010PropOp38
 70
     1
102
RTVSPost2010Prop39
140
1.0
102
RTVSPost2010PropOp39
 70
     1
102
RTVSPost2010Prop40
 90
        0
102
RTVSPost2010PropOp40
 70
     1
102
RTVSPost2010Prop41ColorIndex
 90
       18
102
RTVSPost2010Prop41ColorRGB
 90
        0
102
RTVSPost2010PropOp41
 70
     1
102
RTVSPost2010Prop42
 90
       50
102
RTVSPost2010PropOp42
 70
     1
102
RTVSPost2010Prop43
 90
        3
102
RTVSPost2010PropOp43
 70
     1
102
RTVSPost2010Prop44ColorIndex
 90
        5
102
RTVSPost2010Prop44ColorRGB
 90
      255
102
RTVSPost2010PropOp44
 70
     1
102
RTVSPost2010Prop45
280
     0
102
RTVSPost2010PropOp45
 70
     1
102
RTVSPost2010Prop46
 90
       50
102
RTVSPost2010PropOp46
 70
     1
102
RTVSPost2010Prop47
 90
       50
102
RTVSPost2010PropOp47
 70
     1
102
RTVSPost2010Prop48
 90
       50
102
RTVSPost2010PropOp48
 70
     1
102
RTVSPost2010Prop49
280
     0
102
RTVSPost2010PropOp49
 70
     1
102
RTVSPost2010Prop50
 90
       50
102
RTVSPost2010PropOp50
 70
     1
102
RTVSPost2010Prop51ColorIndex
 90
      256
102
RTVSPost2010Prop51ColorRGB
 90
-16777216
102
RTVSPost2010PropOp51
 70
     0
102
RTVSPost2010Prop52
140
1.0
102
RTVSPost2010PropOp52
 70
     0
102
RTVSPost2010Prop53
 90
        2
102
RTVSPost2010PropOp53
 70
     1
102
RTVSPost2010Prop54
  1
strokes_ogs.tif
102
RTVSPost2010PropOp54
 70
     1
102
RTVSPost2010Prop55
280
     0
102
RTVSPost2010PropOp55
 70
     1
102
RTVSPost2010Prop56
140
1.0
102
RTVSPost2010PropOp56
 70
     1
102
RTVSPost2010Prop57
140
1.0
102
RTVSPost2010PropOp57
 70
     1
102
RTVSPropertyOp0
 70
     1
102
RTVSPropertyOp1
 70
     1
102
RTVSPropertyOp2
 70
     1
102
RTVSPropertyOp3
 70
     1
102
RTVSPropertyOp4
 70
     1
102
RTVSPropertyOp5
 70
     1
102
RTVSPropertyOp6
 70
     1
102
RTVSPropertyOp7
 70
     1
102
RTVSPropertyOp8
 70
     1
102
RTVSPropertyOp9
 70
     1
102
RTVSPropertyOp10
 70
     1
102
RTVSPropertyOp11
 70
     1
102
RTVSPropertyOp12
 70
     1
102
RTVSPropertyOp13
 70
     1
102
RTVSPropertyOp14
 70
     1
102
RTVSPropertyOp15
 70
     1
102
RTVSPropertyOp16
 70
     1
102
RTVSPropertyOp17
 70
     1
102
RTVSPropertyOp18
 70
     1
102
RTVSPropertyOp19
 70
     1
102
RTVSPropertyOp20
 70
     1
102
RTVSPropertyOp21
 70
     1
102
RTVSPropertyOp22
 70
     1
102
RTVSPropertyOp23
 70
     1
102
RTVSPropertyOp24
 70
     1
102
RTVSPropertyOp25
 70
     1
102
RTVSPropertyOp26
 70
     1
102
RTVSPropertyOp27
 70
     1
102
RTVSPropertyOp28
 70
     1
102
RTVSPropertyOp29
 70
     1
102
RTVSPropertyOp30
 70
     1
102
RTVSPropertyOp31
 70
     1
102
RTVSPropertyOp32
 70
     1
102
RTVSPropertyOp33
 70
     1
102
RTVSPropertyOp34
 70
     1
102
RTVSPropertyOp35
 70
     1
102
RTVSPropertyOp36
 70
     1
102
RTVSPropertyOp37
 70
     1
102
RTVSPropertyOp38
 70
     1
102
RTVSPropertyOp39
 70
     1
102
RTVSPropertyOp40
 70
     1
102
RTVSPropertyOp41
 70
     1
102
RTVSPropertyOp42
 70
     1
102
RTVSPropertyOp43
 70
     1
102
RTVSPropertyOp44
 70
     1
102
RTVSPropertyOp45
 70
     1
102
RTVSPropertyOp46
 70
     1
102
RTVSPropertyOp47
 70
     1
102
RTVSPropertyOp48
 70
     1
102
RTVSPropertyOp49
 70
     1
102
RTVSPropertyOp50
 70
     1
102
RTVSPropertyOp51
 70
     0
102
RTVSPropertyOp52
 70
     0
102
RTVSPropertyOp53
 70
     1
102
RTVSPropertyOp54
 70
     1
102
RTVSPropertyOp55
 70
     1
102
RTVSPropertyOp56
 70
     1
102
RTVSPropertyOp57
 70
     1
102
RTVSPropertyOp58
 70
     1
102
RTVSPropertyOp59
 70
     1
102
RTVSPropertyOp60
 70
     1
102
RTVSPropertyOp61
 70
     1
102
RTVSPropertyOp62
 70
     1
  0
XRECORD
  5
916
102
{ACAD_REACTORS
330
915
102
}
330
915
100
AcDbXrecord
280
     1
102
RTVSPost2010Prop28
280
     0
102
RTVSPost2010PropOp28
 70
     1
102
RTVSPost2010Prop29
280
     1
102
RTVSPost2010PropOp29
 70
     1
102
RTVSPost2010Prop30
280
     1
102
RTVSPost2010PropOp30
 70
     1
102
RTVSPost2010Prop31
280
     0
102
RTVSPost2010PropOp31
 70
     1
102
RTVSPost2010Prop32
280
     0
102
RTVSPost2010PropOp32
 70
     1
102
RTVSPost2010Prop33
280
     0
102
RTVSPost2010PropOp33
 70
     1
102
RTVSPost2010Prop34
280
     0
102
RTVSPost2010PropOp34
 70
     1
102
RTVSPost2010Prop35
280
     0
102
RTVSPost2010PropOp35
 70
     1
102
RTVSPost2010Prop36
280
     0
102
RTVSPost2010PropOp36
 70
     1
102
RTVSPost2010Prop37
 90
       50
102
RTVSPost2010PropOp37
 70
     1
102
RTVSPost2010Prop38
140
0.0
102
RTVSPost2010PropOp38
 70
     1
102
RTVSPost2010Prop39
140
1.0
102
RTVSPost2010PropOp39
 70
     1
102
RTVSPost2010Prop40
 90
        0
102
RTVSPost2010PropOp40
 70
     1
102
RTVSPost2010Prop41ColorIndex
 90
       18
102
RTVSPost2010Prop41ColorRGB
 90
        0
102
RTVSPost2010PropOp41
 70
     1
102
RTVSPost2010Prop42
 90
       50
102
RTVSPost2010PropOp42
 70
     1
102
RTVSPost2010Prop43
 90
        3
102
RTVSPost2010PropOp43
 70
     1
102
RTVSPost2010Prop44ColorIndex
 90
        5
102
RTVSPost2010Prop44ColorRGB
 90
      255
102
RTVSPost2010PropOp44
 70
     1
102
RTVSPost2010Prop45
280
     0
102
RTVSPost2010PropOp45
 70
     1
102
RTVSPost2010Prop46
 90
       50
102
RTVSPost2010PropOp46
 70
     1
102
RTVSPost2010Prop47
 90
       50
102
RTVSPost2010PropOp47
 70
     1
102
RTVSPost2010Prop48
 90
       50
102
RTVSPost2010PropOp48
 70
     1
102
RTVSPost2010Prop49
280
     0
102
RTVSPost2010PropOp49
 70
     1
102
RTVSPost2010Prop50
 90
       50
102
RTVSPost2010PropOp50
 70
     1
102
RTVSPost2010Prop51ColorIndex
 90
      256
102
RTVSPost2010Prop51ColorRGB
 90
-16777216
102
RTVSPost2010PropOp51
 70
     0
102
RTVSPost2010Prop52
140
1.0
102
RTVSPost2010PropOp52
 70
     0
102
RTVSPost2010Prop53
 90
        2
102
RTVSPost2010PropOp53
 70
     1
102
RTVSPost2010Prop54
  1
strokes_ogs.tif
102
RTVSPost2010PropOp54
 70
     1
102
RTVSPost2010Prop55
280
     0
102
RTVSPost2010PropOp55
 70
     1
102
RTVSPost2010Prop56
140
1.0
102
RTVSPost2010PropOp56
 70
     1
102
RTVSPost2010Prop57
140
1.0
102
RTVSPost2010PropOp57
 70
     1
102
RTVSPropertyOp0
 70
     1
102
RTVSPropertyOp1
 70
     1
102
RTVSPropertyOp2
 70
     1
102
RTVSPropertyOp3
 70
     1
102
RTVSPropertyOp4
 70
     1
102
RTVSPropertyOp5
 70
     1
102
RTVSPropertyOp6
 70
     1
102
RTVSPropertyOp7
 70
     1
102
RTVSPropertyOp8
 70
     1
102
RTVSPropertyOp9
 70
     1
102
RTVSPropertyOp10
 70
     1
102
RTVSPropertyOp11
 70
     1
102
RTVSPropertyOp12
 70
     1
102
RTVSPropertyOp13
 70
     1
102
RTVSPropertyOp14
 70
     1
102
RTVSPropertyOp15
 70
     1
102
RTVSPropertyOp16
 70
     1
102
RTVSPropertyOp17
 70
     1
102
RTVSPropertyOp18
 70
     1
102
RTVSPropertyOp19
 70
     1
102
RTVSPropertyOp20
 70
     1
102
RTVSPropertyOp21
 70
     1
102
RTVSPropertyOp22
 70
     1
102
RTVSPropertyOp23
 70
     1
102
RTVSPropertyOp24
 70
     1
102
RTVSPropertyOp25
 70
     1
102
RTVSPropertyOp26
 70
     1
102
RTVSPropertyOp27
 70
     1
102
RTVSPropertyOp28
 70
     1
102
RTVSPropertyOp29
 70
     1
102
RTVSPropertyOp30
 70
     1
102
RTVSPropertyOp31
 70
     1
102
RTVSPropertyOp32
 70
     1
102
RTVSPropertyOp33
 70
     1
102
RTVSPropertyOp34
 70
     1
102
RTVSPropertyOp35
 70
     1
102
RTVSPropertyOp36
 70
     1
102
RTVSPropertyOp37
 70
     1
102
RTVSPropertyOp38
 70
     1
102
RTVSPropertyOp39
 70
     1
102
RTVSPropertyOp40
 70
     1
102
RTVSPropertyOp41
 70
     1
102
RTVSPropertyOp42
 70
     1
102
RTVSPropertyOp43
 70
     1
102
RTVSPropertyOp44
 70
     1
102
RTVSPropertyOp45
 70
     1
102
RTVSPropertyOp46
 70
     1
102
RTVSPropertyOp47
 70
     1
102
RTVSPropertyOp48
 70
     1
102
RTVSPropertyOp49
 70
     1
102
RTVSPropertyOp50
 70
     1
102
RTVSPropertyOp51
 70
     0
102
RTVSPropertyOp52
 70
     0
102
RTVSPropertyOp53
 70
     1
102
RTVSPropertyOp54
 70
     1
102
RTVSPropertyOp55
 70
     1
102
RTVSPropertyOp56
 70
     1
102
RTVSPropertyOp57
 70
     1
102
RTVSPropertyOp58
 70
     1
102
RTVSPropertyOp59
 70
     1
102
RTVSPropertyOp60
 70
     1
102
RTVSPropertyOp61
 70
     1
102
RTVSPropertyOp62
 70
     1
  0
XRECORD
  5
910
102
{ACAD_REACTORS
330
90F
102
}
330
90F
100
AcDbXrecord
280
     1
102
RTVSPost2010Prop28
280
     0
102
RTVSPost2010PropOp28
 70
     1
102
RTVSPost2010Prop29
280
     1
102
RTVSPost2010PropOp29
 70
     1
102
RTVSPost2010Prop30
280
     1
102
RTVSPost2010PropOp30
 70
     1
102
RTVSPost2010Prop31
280
     0
102
RTVSPost2010PropOp31
 70
     1
102
RTVSPost2010Prop32
280
     0
102
RTVSPost2010PropOp32
 70
     1
102
RTVSPost2010Prop33
280
     0
102
RTVSPost2010PropOp33
 70
     1
102
RTVSPost2010Prop34
280
     0
102
RTVSPost2010PropOp34
 70
     1
102
RTVSPost2010Prop35
280
     0
102
RTVSPost2010PropOp35
 70
     1
102
RTVSPost2010Prop36
280
     0
102
RTVSPost2010PropOp36
 70
     1
102
RTVSPost2010Prop37
 90
       50
102
RTVSPost2010PropOp37
 70
     1
102
RTVSPost2010Prop38
140
0.0
102
RTVSPost2010PropOp38
 70
     1
102
RTVSPost2010Prop39
140
1.0
102
RTVSPost2010PropOp39
 70
     1
102
RTVSPost2010Prop40
 90
        0
102
RTVSPost2010PropOp40
 70
     1
102
RTVSPost2010Prop41ColorIndex
 90
       18
102
RTVSPost2010Prop41ColorRGB
 90
        0
102
RTVSPost2010PropOp41
 70
     1
102
RTVSPost2010Prop42
 90
       50
102
RTVSPost2010PropOp42
 70
     1
102
RTVSPost2010Prop43
 90
        3
102
RTVSPost2010PropOp43
 70
     1
102
RTVSPost2010Prop44ColorIndex
 90
        5
102
RTVSPost2010Prop44ColorRGB
 90
      255
102
RTVSPost2010PropOp44
 70
     1
102
RTVSPost2010Prop45
280
     0
102
RTVSPost2010PropOp45
 70
     1
102
RTVSPost2010Prop46
 90
       50
102
RTVSPost2010PropOp46
 70
     1
102
RTVSPost2010Prop47
 90
       50
102
RTVSPost2010PropOp47
 70
     1
102
RTVSPost2010Prop48
 90
       50
102
RTVSPost2010PropOp48
 70
     1
102
RTVSPost2010Prop49
280
     0
102
RTVSPost2010PropOp49
 70
     1
102
RTVSPost2010Prop50
 90
       50
102
RTVSPost2010PropOp50
 70
     1
102
RTVSPost2010Prop51ColorIndex
 90
      256
102
RTVSPost2010Prop51ColorRGB
 90
-16777216
102
RTVSPost2010PropOp51
 70
     0
102
RTVSPost2010Prop52
140
1.0
102
RTVSPost2010PropOp52
 70
     0
102
RTVSPost2010Prop53
 90
        2
102
RTVSPost2010PropOp53
 70
     1
102
RTVSPost2010Prop54
  1
strokes_ogs.tif
102
RTVSPost2010PropOp54
 70
     1
102
RTVSPost2010Prop55
280
     0
102
RTVSPost2010PropOp55
 70
     1
102
RTVSPost2010Prop56
140
1.0
102
RTVSPost2010PropOp56
 70
     1
102
RTVSPost2010Prop57
140
1.0
102
RTVSPost2010PropOp57
 70
     1
102
RTVSPropertyOp0
 70
     1
102
RTVSPropertyOp1
 70
     1
102
RTVSPropertyOp2
 70
     1
102
RTVSPropertyOp3
 70
     1
102
RTVSPropertyOp4
 70
     1
102
RTVSPropertyOp5
 70
     1
102
RTVSPropertyOp6
 70
     1
102
RTVSPropertyOp7
 70
     1
102
RTVSPropertyOp8
 70
     1
102
RTVSPropertyOp9
 70
     1
102
RTVSPropertyOp10
 70
     1
102
RTVSPropertyOp11
 70
     1
102
RTVSPropertyOp12
 70
     1
102
RTVSPropertyOp13
 70
     1
102
RTVSPropertyOp14
 70
     1
102
RTVSPropertyOp15
 70
     1
102
RTVSPropertyOp16
 70
     1
102
RTVSPropertyOp17
 70
     1
102
RTVSPropertyOp18
 70
     1
102
RTVSPropertyOp19
 70
     1
102
RTVSPropertyOp20
 70
     1
102
RTVSPropertyOp21
 70
     1
102
RTVSPropertyOp22
 70
     1
102
RTVSPropertyOp23
 70
     1
102
RTVSPropertyOp24
 70
     1
102
RTVSPropertyOp25
 70
     1
102
RTVSPropertyOp26
 70
     1
102
RTVSPropertyOp27
 70
     1
102
RTVSPropertyOp28
 70
     1
102
RTVSPropertyOp29
 70
     1
102
RTVSPropertyOp30
 70
     1
102
RTVSPropertyOp31
 70
     1
102
RTVSPropertyOp32
 70
     1
102
RTVSPropertyOp33
 70
     1
102
RTVSPropertyOp34
 70
     1
102
RTVSPropertyOp35
 70
     1
102
RTVSPropertyOp36
 70
     1
102
RTVSPropertyOp37
 70
     1
102
RTVSPropertyOp38
 70
     1
102
RTVSPropertyOp39
 70
     1
102
RTVSPropertyOp40
 70
     1
102
RTVSPropertyOp41
 70
     1
102
RTVSPropertyOp42
 70
     1
102
RTVSPropertyOp43
 70
     1
102
RTVSPropertyOp44
 70
     1
102
RTVSPropertyOp45
 70
     1
102
RTVSPropertyOp46
 70
     1
102
RTVSPropertyOp47
 70
     1
102
RTVSPropertyOp48
 70
     1
102
RTVSPropertyOp49
 70
     1
102
RTVSPropertyOp50
 70
     1
102
RTVSPropertyOp51
 70
     0
102
RTVSPropertyOp52
 70
     0
102
RTVSPropertyOp53
 70
     1
102
RTVSPropertyOp54
 70
     1
102
RTVSPropertyOp55
 70
     1
102
RTVSPropertyOp56
 70
     1
102
RTVSPropertyOp57
 70
     1
102
RTVSPropertyOp58
 70
     1
102
RTVSPropertyOp59
 70
     1
102
RTVSPropertyOp60
 70
     1
102
RTVSPropertyOp61
 70
     1
102
RTVSPropertyOp62
 70
     1
  0
XRECORD
  5
912
102
{ACAD_REACTORS
330
911
102
}
330
911
100
AcDbXrecord
280
     1
102
RTVSPost2010Prop28
280
     0
102
RTVSPost2010PropOp28
 70
     1
102
RTVSPost2010Prop29
280
     1
102
RTVSPost2010PropOp29
 70
     1
102
RTVSPost2010Prop30
280
     1
102
RTVSPost2010PropOp30
 70
     1
102
RTVSPost2010Prop31
280
     0
102
RTVSPost2010PropOp31
 70
     1
102
RTVSPost2010Prop32
280
     0
102
RTVSPost2010PropOp32
 70
     1
102
RTVSPost2010Prop33
280
     0
102
RTVSPost2010PropOp33
 70
     1
102
RTVSPost2010Prop34
280
     0
102
RTVSPost2010PropOp34
 70
     1
102
RTVSPost2010Prop35
280
     0
102
RTVSPost2010PropOp35
 70
     1
102
RTVSPost2010Prop36
280
     0
102
RTVSPost2010PropOp36
 70
     1
102
RTVSPost2010Prop37
 90
       50
102
RTVSPost2010PropOp37
 70
     1
102
RTVSPost2010Prop38
140
0.0
102
RTVSPost2010PropOp38
 70
     1
102
RTVSPost2010Prop39
140
1.0
102
RTVSPost2010PropOp39
 70
     1
102
RTVSPost2010Prop40
 90
        0
102
RTVSPost2010PropOp40
 70
     1
102
RTVSPost2010Prop41ColorIndex
 90
       18
102
RTVSPost2010Prop41ColorRGB
 90
        0
102
RTVSPost2010PropOp41
 70
     1
102
RTVSPost2010Prop42
 90
       50
102
RTVSPost2010PropOp42
 70
     1
102
RTVSPost2010Prop43
 90
        3
102
RTVSPost2010PropOp43
 70
     1
102
RTVSPost2010Prop44ColorIndex
 90
        5
102
RTVSPost2010Prop44ColorRGB
 90
      255
102
RTVSPost2010PropOp44
 70
     1
102
RTVSPost2010Prop45
280
     0
102
RTVSPost2010PropOp45
 70
     1
102
RTVSPost2010Prop46
 90
       50
102
RTVSPost2010PropOp46
 70
     1
102
RTVSPost2010Prop47
 90
       50
102
RTVSPost2010PropOp47
 70
     1
102
RTVSPost2010Prop48
 90
       50
102
RTVSPost2010PropOp48
 70
     1
102
RTVSPost2010Prop49
280
     0
102
RTVSPost2010PropOp49
 70
     1
102
RTVSPost2010Prop50
 90
       50
102
RTVSPost2010PropOp50
 70
     1
102
RTVSPost2010Prop51ColorIndex
 90
      256
102
RTVSPost2010Prop51ColorRGB
 90
-16777216
102
RTVSPost2010PropOp51
 70
     0
102
RTVSPost2010Prop52
140
1.0
102
RTVSPost2010PropOp52
 70
     0
102
RTVSPost2010Prop53
 90
        2
102
RTVSPost2010PropOp53
 70
     1
102
RTVSPost2010Prop54
  1
strokes_ogs.tif
102
RTVSPost2010PropOp54
 70
     1
102
RTVSPost2010Prop55
280
     0
102
RTVSPost2010PropOp55
 70
     1
102
RTVSPost2010Prop56
140
1.0
102
RTVSPost2010PropOp56
 70
     1
102
RTVSPost2010Prop57
140
1.0
102
RTVSPost2010PropOp57
 70
     1
102
RTVSPropertyOp0
 70
     1
102
RTVSPropertyOp1
 70
     1
102
RTVSPropertyOp2
 70
     1
102
RTVSPropertyOp3
 70
     1
102
RTVSPropertyOp4
 70
     1
102
RTVSPropertyOp5
 70
     1
102
RTVSPropertyOp6
 70
     1
102
RTVSPropertyOp7
 70
     1
102
RTVSPropertyOp8
 70
     1
102
RTVSPropertyOp9
 70
     1
102
RTVSPropertyOp10
 70
     1
102
RTVSPropertyOp11
 70
     1
102
RTVSPropertyOp12
 70
     1
102
RTVSPropertyOp13
 70
     1
102
RTVSPropertyOp14
 70
     1
102
RTVSPropertyOp15
 70
     1
102
RTVSPropertyOp16
 70
     1
102
RTVSPropertyOp17
 70
     1
102
RTVSPropertyOp18
 70
     1
102
RTVSPropertyOp19
 70
     1
102
RTVSPropertyOp20
 70
     1
102
RTVSPropertyOp21
 70
     1
102
RTVSPropertyOp22
 70
     1
102
RTVSPropertyOp23
 70
     1
102
RTVSPropertyOp24
 70
     1
102
RTVSPropertyOp25
 70
     1
102
RTVSPropertyOp26
 70
     1
102
RTVSPropertyOp27
 70
     1
102
RTVSPropertyOp28
 70
     1
102
RTVSPropertyOp29
 70
     1
102
RTVSPropertyOp30
 70
     1
102
RTVSPropertyOp31
 70
     1
102
RTVSPropertyOp32
 70
     1
102
RTVSPropertyOp33
 70
     1
102
RTVSPropertyOp34
 70
     1
102
RTVSPropertyOp35
 70
     1
102
RTVSPropertyOp36
 70
     1
102
RTVSPropertyOp37
 70
     1
102
RTVSPropertyOp38
 70
     1
102
RTVSPropertyOp39
 70
     1
102
RTVSPropertyOp40
 70
     1
102
RTVSPropertyOp41
 70
     1
102
RTVSPropertyOp42
 70
     1
102
RTVSPropertyOp43
 70
     1
102
RTVSPropertyOp44
 70
     1
102
RTVSPropertyOp45
 70
     1
102
RTVSPropertyOp46
 70
     1
102
RTVSPropertyOp47
 70
     1
102
RTVSPropertyOp48
 70
     1
102
RTVSPropertyOp49
 70
     1
102
RTVSPropertyOp50
 70
     1
102
RTVSPropertyOp51
 70
     0
102
RTVSPropertyOp52
 70
     0
102
RTVSPropertyOp53
 70
     1
102
RTVSPropertyOp54
 70
     1
102
RTVSPropertyOp55
 70
     1
102
RTVSPropertyOp56
 70
     1
102
RTVSPropertyOp57
 70
     1
102
RTVSPropertyOp58
 70
     1
102
RTVSPropertyOp59
 70
     1
102
RTVSPropertyOp60
 70
     1
102
RTVSPropertyOp61
 70
     1
102
RTVSPropertyOp62
 70
     1
  0
XRECORD
  5
908
102
{ACAD_REACTORS
330
907
102
}
330
907
100
AcDbXrecord
280
     1
102
RTVSPost2010Prop28
280
     0
102
RTVSPost2010PropOp28
 70
     1
102
RTVSPost2010Prop29
280
     1
102
RTVSPost2010PropOp29
 70
     1
102
RTVSPost2010Prop30
280
     1
102
RTVSPost2010PropOp30
 70
     1
102
RTVSPost2010Prop31
280
     0
102
RTVSPost2010PropOp31
 70
     1
102
RTVSPost2010Prop32
280
     0
102
RTVSPost2010PropOp32
 70
     1
102
RTVSPost2010Prop33
280
     0
102
RTVSPost2010PropOp33
 70
     1
102
RTVSPost2010Prop34
280
     0
102
RTVSPost2010PropOp34
 70
     1
102
RTVSPost2010Prop35
280
     0
102
RTVSPost2010PropOp35
 70
     1
102
RTVSPost2010Prop36
280
     0
102
RTVSPost2010PropOp36
 70
     1
102
RTVSPost2010Prop37
 90
       50
102
RTVSPost2010PropOp37
 70
     1
102
RTVSPost2010Prop38
140
0.0
102
RTVSPost2010PropOp38
 70
     1
102
RTVSPost2010Prop39
140
1.0
102
RTVSPost2010PropOp39
 70
     1
102
RTVSPost2010Prop40
 90
        0
102
RTVSPost2010PropOp40
 70
     1
102
RTVSPost2010Prop41ColorIndex
 90
       18
102
RTVSPost2010Prop41ColorRGB
 90
        0
102
RTVSPost2010PropOp41
 70
     1
102
RTVSPost2010Prop42
 90
       50
102
RTVSPost2010PropOp42
 70
     1
102
RTVSPost2010Prop43
 90
        3
102
RTVSPost2010PropOp43
 70
     1
102
RTVSPost2010Prop44ColorIndex
 90
        5
102
RTVSPost2010Prop44ColorRGB
 90
      255
102
RTVSPost2010PropOp44
 70
     1
102
RTVSPost2010Prop45
280
     0
102
RTVSPost2010PropOp45
 70
     1
102
RTVSPost2010Prop46
 90
       50
102
RTVSPost2010PropOp46
 70
     1
102
RTVSPost2010Prop47
 90
       50
102
RTVSPost2010PropOp47
 70
     1
102
RTVSPost2010Prop48
 90
       50
102
RTVSPost2010PropOp48
 70
     1
102
RTVSPost2010Prop49
280
     0
102
RTVSPost2010PropOp49
 70
     1
102
RTVSPost2010Prop50
 90
       50
102
RTVSPost2010PropOp50
 70
     1
102
RTVSPost2010Prop51ColorIndex
 90
      256
102
RTVSPost2010Prop51ColorRGB
 90
-16777216
102
RTVSPost2010PropOp51
 70
     0
102
RTVSPost2010Prop52
140
1.0
102
RTVSPost2010PropOp52
 70
     0
102
RTVSPost2010Prop53
 90
        2
102
RTVSPost2010PropOp53
 70
     1
102
RTVSPost2010Prop54
  1
strokes_ogs.tif
102
RTVSPost2010PropOp54
 70
     1
102
RTVSPost2010Prop55
280
     0
102
RTVSPost2010PropOp55
 70
     1
102
RTVSPost2010Prop56
140
1.0
102
RTVSPost2010PropOp56
 70
     1
102
RTVSPost2010Prop57
140
1.0
102
RTVSPost2010PropOp57
 70
     1
102
RTVSPropertyOp0
 70
     1
102
RTVSPropertyOp1
 70
     1
102
RTVSPropertyOp2
 70
     1
102
RTVSPropertyOp3
 70
     1
102
RTVSPropertyOp4
 70
     1
102
RTVSPropertyOp5
 70
     1
102
RTVSPropertyOp6
 70
     1
102
RTVSPropertyOp7
 70
     1
102
RTVSPropertyOp8
 70
     1
102
RTVSPropertyOp9
 70
     1
102
RTVSPropertyOp10
 70
     1
102
RTVSPropertyOp11
 70
     1
102
RTVSPropertyOp12
 70
     1
102
RTVSPropertyOp13
 70
     1
102
RTVSPropertyOp14
 70
     1
102
RTVSPropertyOp15
 70
     1
102
RTVSPropertyOp16
 70
     1
102
RTVSPropertyOp17
 70
     1
102
RTVSPropertyOp18
 70
     1
102
RTVSPropertyOp19
 70
     1
102
RTVSPropertyOp20
 70
     1
102
RTVSPropertyOp21
 70
     1
102
RTVSPropertyOp22
 70
     1
102
RTVSPropertyOp23
 70
     1
102
RTVSPropertyOp24
 70
     1
102
RTVSPropertyOp25
 70
     1
102
RTVSPropertyOp26
 70
     1
102
RTVSPropertyOp27
 70
     1
102
RTVSPropertyOp28
 70
     1
102
RTVSPropertyOp29
 70
     1
102
RTVSPropertyOp30
 70
     1
102
RTVSPropertyOp31
 70
     1
102
RTVSPropertyOp32
 70
     1
102
RTVSPropertyOp33
 70
     1
102
RTVSPropertyOp34
 70
     1
102
RTVSPropertyOp35
 70
     1
102
RTVSPropertyOp36
 70
     1
102
RTVSPropertyOp37
 70
     1
102
RTVSPropertyOp38
 70
     1
102
RTVSPropertyOp39
 70
     1
102
RTVSPropertyOp40
 70
     1
102
RTVSPropertyOp41
 70
     1
102
RTVSPropertyOp42
 70
     1
102
RTVSPropertyOp43
 70
     1
102
RTVSPropertyOp44
 70
     1
102
RTVSPropertyOp45
 70
     1
102
RTVSPropertyOp46
 70
     1
102
RTVSPropertyOp47
 70
     1
102
RTVSPropertyOp48
 70
     1
102
RTVSPropertyOp49
 70
     1
102
RTVSPropertyOp50
 70
     1
102
RTVSPropertyOp51
 70
     0
102
RTVSPropertyOp52
 70
     0
102
RTVSPropertyOp53
 70
     1
102
RTVSPropertyOp54
 70
     1
102
RTVSPropertyOp55
 70
     1
102
RTVSPropertyOp56
 70
     1
102
RTVSPropertyOp57
 70
     1
102
RTVSPropertyOp58
 70
     1
102
RTVSPropertyOp59
 70
     1
102
RTVSPropertyOp60
 70
     1
102
RTVSPropertyOp61
 70
     1
102
RTVSPropertyOp62
 70
     1
  0
XRECORD
  5
8FC
102
{ACAD_REACTORS
330
8FB
102
}
330
8FB
100
AcDbXrecord
280
     1
102
RTVSPost2010Prop28
280
     0
102
RTVSPost2010PropOp28
 70
     1
102
RTVSPost2010Prop29
280
     1
102
RTVSPost2010PropOp29
 70
     1
102
RTVSPost2010Prop30
280
     1
102
RTVSPost2010PropOp30
 70
     1
102
RTVSPost2010Prop31
280
     0
102
RTVSPost2010PropOp31
 70
     1
102
RTVSPost2010Prop32
280
     0
102
RTVSPost2010PropOp32
 70
     1
102
RTVSPost2010Prop33
280
     0
102
RTVSPost2010PropOp33
 70
     1
102
RTVSPost2010Prop34
280
     0
102
RTVSPost2010PropOp34
 70
     1
102
RTVSPost2010Prop35
280
     0
102
RTVSPost2010PropOp35
 70
     1
102
RTVSPost2010Prop36
280
     0
102
RTVSPost2010PropOp36
 70
     1
102
RTVSPost2010Prop37
 90
       50
102
RTVSPost2010PropOp37
 70
     1
102
RTVSPost2010Prop38
140
0.0
102
RTVSPost2010PropOp38
 70
     1
102
RTVSPost2010Prop39
140
1.0
102
RTVSPost2010PropOp39
 70
     1
102
RTVSPost2010Prop40
 90
        0
102
RTVSPost2010PropOp40
 70
     1
102
RTVSPost2010Prop41ColorIndex
 90
       18
102
RTVSPost2010Prop41ColorRGB
 90
        0
102
RTVSPost2010PropOp41
 70
     1
102
RTVSPost2010Prop42
 90
       50
102
RTVSPost2010PropOp42
 70
     1
102
RTVSPost2010Prop43
 90
        3
102
RTVSPost2010PropOp43
 70
     1
102
RTVSPost2010Prop44ColorIndex
 90
        5
102
RTVSPost2010Prop44ColorRGB
 90
      255
102
RTVSPost2010PropOp44
 70
     1
102
RTVSPost2010Prop45
280
     0
102
RTVSPost2010PropOp45
 70
     1
102
RTVSPost2010Prop46
 90
       50
102
RTVSPost2010PropOp46
 70
     1
102
RTVSPost2010Prop47
 90
       50
102
RTVSPost2010PropOp47
 70
     1
102
RTVSPost2010Prop48
 90
       50
102
RTVSPost2010PropOp48
 70
     1
102
RTVSPost2010Prop49
280
     0
102
RTVSPost2010PropOp49
 70
     1
102
RTVSPost2010Prop50
 90
       50
102
RTVSPost2010PropOp50
 70
     1
102
RTVSPost2010Prop51ColorIndex
 90
      256
102
RTVSPost2010Prop51ColorRGB
 90
-16777216
102
RTVSPost2010PropOp51
 70
     0
102
RTVSPost2010Prop52
140
1.0
102
RTVSPost2010PropOp52
 70
     0
102
RTVSPost2010Prop53
 90
        2
102
RTVSPost2010PropOp53
 70
     1
102
RTVSPost2010Prop54
  1
strokes_ogs.tif
102
RTVSPost2010PropOp54
 70
     1
102
RTVSPost2010Prop55
280
     0
102
RTVSPost2010PropOp55
 70
     1
102
RTVSPost2010Prop56
140
1.0
102
RTVSPost2010PropOp56
 70
     1
102
RTVSPost2010Prop57
140
1.0
102
RTVSPost2010PropOp57
 70
     1
102
RTVSPropertyOp0
 70
     1
102
RTVSPropertyOp1
 70
     1
102
RTVSPropertyOp2
 70
     1
102
RTVSPropertyOp3
 70
     1
102
RTVSPropertyOp4
 70
     1
102
RTVSPropertyOp5
 70
     1
102
RTVSPropertyOp6
 70
     1
102
RTVSPropertyOp7
 70
     1
102
RTVSPropertyOp8
 70
     1
102
RTVSPropertyOp9
 70
     1
102
RTVSPropertyOp10
 70
     1
102
RTVSPropertyOp11
 70
     1
102
RTVSPropertyOp12
 70
     1
102
RTVSPropertyOp13
 70
     1
102
RTVSPropertyOp14
 70
     1
102
RTVSPropertyOp15
 70
     1
102
RTVSPropertyOp16
 70
     1
102
RTVSPropertyOp17
 70
     1
102
RTVSPropertyOp18
 70
     1
102
RTVSPropertyOp19
 70
     1
102
RTVSPropertyOp20
 70
     1
102
RTVSPropertyOp21
 70
     1
102
RTVSPropertyOp22
 70
     1
102
RTVSPropertyOp23
 70
     1
102
RTVSPropertyOp24
 70
     1
102
RTVSPropertyOp25
 70
     1
102
RTVSPropertyOp26
 70
     1
102
RTVSPropertyOp27
 70
     1
102
RTVSPropertyOp28
 70
     1
102
RTVSPropertyOp29
 70
     1
102
RTVSPropertyOp30
 70
     1
102
RTVSPropertyOp31
 70
     1
102
RTVSPropertyOp32
 70
     1
102
RTVSPropertyOp33
 70
     1
102
RTVSPropertyOp34
 70
     1
102
RTVSPropertyOp35
 70
     1
102
RTVSPropertyOp36
 70
     1
102
RTVSPropertyOp37
 70
     1
102
RTVSPropertyOp38
 70
     1
102
RTVSPropertyOp39
 70
     1
102
RTVSPropertyOp40
 70
     1
102
RTVSPropertyOp41
 70
     1
102
RTVSPropertyOp42
 70
     1
102
RTVSPropertyOp43
 70
     1
102
RTVSPropertyOp44
 70
     1
102
RTVSPropertyOp45
 70
     1
102
RTVSPropertyOp46
 70
     1
102
RTVSPropertyOp47
 70
     1
102
RTVSPropertyOp48
 70
     1
102
RTVSPropertyOp49
 70
     1
102
RTVSPropertyOp50
 70
     1
102
RTVSPropertyOp51
 70
     0
102
RTVSPropertyOp52
 70
     0
102
RTVSPropertyOp53
 70
     1
102
RTVSPropertyOp54
 70
     1
102
RTVSPropertyOp55
 70
     1
102
RTVSPropertyOp56
 70
     1
102
RTVSPropertyOp57
 70
     1
102
RTVSPropertyOp58
 70
     1
102
RTVSPropertyOp59
 70
     1
102
RTVSPropertyOp60
 70
     1
102
RTVSPropertyOp61
 70
     1
102
RTVSPropertyOp62
 70
     1
  0
XRECORD
  5
914
102
{ACAD_REACTORS
330
913
102
}
330
913
100
AcDbXrecord
280
     1
102
RTVSPost2010Prop28
280
     0
102
RTVSPost2010PropOp28
 70
     1
102
RTVSPost2010Prop29
280
     1
102
RTVSPost2010PropOp29
 70
     1
102
RTVSPost2010Prop30
280
     1
102
RTVSPost2010PropOp30
 70
     1
102
RTVSPost2010Prop31
280
     0
102
RTVSPost2010PropOp31
 70
     1
102
RTVSPost2010Prop32
280
     0
102
RTVSPost2010PropOp32
 70
     1
102
RTVSPost2010Prop33
280
     0
102
RTVSPost2010PropOp33
 70
     1
102
RTVSPost2010Prop34
280
     0
102
RTVSPost2010PropOp34
 70
     1
102
RTVSPost2010Prop35
280
     0
102
RTVSPost2010PropOp35
 70
     1
102
RTVSPost2010Prop36
280
     0
102
RTVSPost2010PropOp36
 70
     1
102
RTVSPost2010Prop37
 90
       50
102
RTVSPost2010PropOp37
 70
     1
102
RTVSPost2010Prop38
140
0.0
102
RTVSPost2010PropOp38
 70
     1
102
RTVSPost2010Prop39
140
1.0
102
RTVSPost2010PropOp39
 70
     1
102
RTVSPost2010Prop40
 90
        0
102
RTVSPost2010PropOp40
 70
     1
102
RTVSPost2010Prop41ColorIndex
 90
       18
102
RTVSPost2010Prop41ColorRGB
 90
        0
102
RTVSPost2010PropOp41
 70
     1
102
RTVSPost2010Prop42
 90
       50
102
RTVSPost2010PropOp42
 70
     1
102
RTVSPost2010Prop43
 90
        3
102
RTVSPost2010PropOp43
 70
     1
102
RTVSPost2010Prop44ColorIndex
 90
        5
102
RTVSPost2010Prop44ColorRGB
 90
      255
102
RTVSPost2010PropOp44
 70
     1
102
RTVSPost2010Prop45
280
     0
102
RTVSPost2010PropOp45
 70
     1
102
RTVSPost2010Prop46
 90
       50
102
RTVSPost2010PropOp46
 70
     1
102
RTVSPost2010Prop47
 90
       50
102
RTVSPost2010PropOp47
 70
     1
102
RTVSPost2010Prop48
 90
       50
102
RTVSPost2010PropOp48
 70
     1
102
RTVSPost2010Prop49
280
     0
102
RTVSPost2010PropOp49
 70
     1
102
RTVSPost2010Prop50
 90
       50
102
RTVSPost2010PropOp50
 70
     1
102
RTVSPost2010Prop51ColorIndex
 90
      256
102
RTVSPost2010Prop51ColorRGB
 90
-16777216
102
RTVSPost2010PropOp51
 70
     0
102
RTVSPost2010Prop52
140
1.0
102
RTVSPost2010PropOp52
 70
     0
102
RTVSPost2010Prop53
 90
        2
102
RTVSPost2010PropOp53
 70
     1
102
RTVSPost2010Prop54
  1
strokes_ogs.tif
102
RTVSPost2010PropOp54
 70
     1
102
RTVSPost2010Prop55
280
     0
102
RTVSPost2010PropOp55
 70
     1
102
RTVSPost2010Prop56
140
1.0
102
RTVSPost2010PropOp56
 70
     1
102
RTVSPost2010Prop57
140
1.0
102
RTVSPost2010PropOp57
 70
     1
102
RTVSPropertyOp0
 70
     1
102
RTVSPropertyOp1
 70
     1
102
RTVSPropertyOp2
 70
     1
102
RTVSPropertyOp3
 70
     1
102
RTVSPropertyOp4
 70
     1
102
RTVSPropertyOp5
 70
     1
102
RTVSPropertyOp6
 70
     1
102
RTVSPropertyOp7
 70
     1
102
RTVSPropertyOp8
 70
     1
102
RTVSPropertyOp9
 70
     1
102
RTVSPropertyOp10
 70
     1
102
RTVSPropertyOp11
 70
     1
102
RTVSPropertyOp12
 70
     1
102
RTVSPropertyOp13
 70
     1
102
RTVSPropertyOp14
 70
     1
102
RTVSPropertyOp15
 70
     1
102
RTVSPropertyOp16
 70
     1
102
RTVSPropertyOp17
 70
     1
102
RTVSPropertyOp18
 70
     1
102
RTVSPropertyOp19
 70
     1
102
RTVSPropertyOp20
 70
     1
102
RTVSPropertyOp21
 70
     1
102
RTVSPropertyOp22
 70
     1
102
RTVSPropertyOp23
 70
     1
102
RTVSPropertyOp24
 70
     1
102
RTVSPropertyOp25
 70
     1
102
RTVSPropertyOp26
 70
     1
102
RTVSPropertyOp27
 70
     1
102
RTVSPropertyOp28
 70
     1
102
RTVSPropertyOp29
 70
     1
102
RTVSPropertyOp30
 70
     1
102
RTVSPropertyOp31
 70
     1
102
RTVSPropertyOp32
 70
     1
102
RTVSPropertyOp33
 70
     1
102
RTVSPropertyOp34
 70
     1
102
RTVSPropertyOp35
 70
     1
102
RTVSPropertyOp36
 70
     1
102
RTVSPropertyOp37
 70
     1
102
RTVSPropertyOp38
 70
     1
102
RTVSPropertyOp39
 70
     1
102
RTVSPropertyOp40
 70
     1
102
RTVSPropertyOp41
 70
     1
102
RTVSPropertyOp42
 70
     1
102
RTVSPropertyOp43
 70
     1
102
RTVSPropertyOp44
 70
     1
102
RTVSPropertyOp45
 70
     1
102
RTVSPropertyOp46
 70
     1
102
RTVSPropertyOp47
 70
     1
102
RTVSPropertyOp48
 70
     1
102
RTVSPropertyOp49
 70
     1
102
RTVSPropertyOp50
 70
     1
102
RTVSPropertyOp51
 70
     0
102
RTVSPropertyOp52
 70
     0
102
RTVSPropertyOp53
 70
     1
102
RTVSPropertyOp54
 70
     1
102
RTVSPropertyOp55
 70
     1
102
RTVSPropertyOp56
 70
     1
102
RTVSPropertyOp57
 70
     1
102
RTVSPropertyOp58
 70
     1
102
RTVSPropertyOp59
 70
     1
102
RTVSPropertyOp60
 70
     1
102
RTVSPropertyOp61
 70
     1
102
RTVSPropertyOp62
 70
     1
  0
ENDSEC
  0
EOF
