  0
SECTION
  2
HEADER
  9
$ACADVER
  1
AC1015
  9
$ACADMAINTVER
 70
    20
  9
$DWGCODEPAGE
  3
ANSI_932
  9
$INSBASE
 10
0.0
 20
0.0
 30
0.0
  9
$EXTMIN
 10
400.2166083519606
 20
-769.75810224438
 30
0.0
  9
$EXTMAX
 10
743.1556061631923
 20
254.8968764444669
 30
0.0
  9
$LIMMIN
 10
0.0
 20
0.0
  9
$LIMMAX
 10
420.0
 20
297.0
  9
$ORTHOMODE
 70
     0
  9
$REGENMODE
 70
     1
  9
$FILLMODE
 70
     1
  9
$QTEXTMODE
 70
     0
  9
$MIRRTEXT
 70
     1
  9
$LTSCALE
 40
1.0
  9
$ATTMODE
 70
     1
  9
$TEXTSIZE
 40
2.5
  9
$TRACEWID
 40
1.0
  9
$TEXTSTYLE
  7
KANJI
  9
$CLAYER
  8
2寸法線
  9
$CELTYPE
  6
ByLayer
  9
$CECOLOR
 62
   256
  9
$CELTSCALE
 40
1.0
  9
$DISPSILH
 70
     0
  9
$DIMSCALE
 40
0.0
  9
$DIMASZ
 40
1.8
  9
$DIMEXO
 40
1.0
  9
$DIMDLI
 40
0.0
  9
$DIMRND
 40
0.0
  9
$DIMDLE
 40
0.0
  9
$DIMEXE
 40
1.0
  9
$DIMTP
 40
0.0
  9
$DIMTM
 40
0.0
  9
$DIMTXT
 40
2.5
  9
$DIMCEN
 40
0.0
  9
$DIMTSZ
 40
0.0
  9
$DIMTOL
 70
     0
  9
$DIMLIM
 70
     0
  9
$DIMTIH
 70
     0
  9
$DIMTOH
 70
     0
  9
$DIMSE1
 70
     0
  9
$DIMSE2
 70
     0
  9
$DIMTAD
 70
     1
  9
$DIMZIN
 70
     8
  9
$DIMBLK
  1

  9
$DIMASO
 70
     1
  9
$DIMSHO
 70
     1
  9
$DIMPOST
  1

  9
$DIMAPOST
  1

  9
$DIMALT
 70
     0
  9
$DIMALTD
 70
     2
  9
$DIMALTF
 40
25.4
  9
$DIMLFAC
 40
1.0
  9
$DIMTOFL
 70
     1
  9
$DIMTVP
 40
0.0
  9
$DIMTIX
 70
     0
  9
$DIMSOXD
 70
     0
  9
$DIMSAH
 70
     1
  9
$DIMBLK1
  1
2
  9
$DIMBLK2
  1
2
  9
$DIMSTYLE
  2
M
  9
$DIMCLRD
 70
     0
  9
$DIMCLRE
 70
     0
  9
$DIMCLRT
 70
     0
  9
$DIMTFAC
 40
1.0
  9
$DIMGAP
 40
0.5
  9
$DIMJUST
 70
     0
  9
$DIMSD1
 70
     0
  9
$DIMSD2
 70
     0
  9
$DIMTOLJ
 70
     1
  9
$DIMTZIN
 70
     0
  9
$DIMALTZ
 70
     0
  9
$DIMALTTZ
 70
     0
  9
$DIMUPT
 70
     0
  9
$DIMDEC
 70
     4
  9
$DIMTDEC
 70
     4
  9
$DIMALTU
 70
     2
  9
$DIMALTTD
 70
     2
  9
$DIMTXSTY
  7
STANDARD
  9
$DIMAUNIT
 70
     0
  9
$DIMADEC
 70
     0
  9
$DIMALTRND
 40
0.0
  9
$DIMAZIN
 70
     0
  9
$DIMDSEP
 70
    46
  9
$DIMATFIT
 70
     3
  9
$DIMFRAC
 70
     0
  9
$DIMLDRBLK
  1
2
  9
$DIMLUNIT
 70
     2
  9
$DIMLWD
 70
    -2
  9
$DIMLWE
 70
    -2
  9
$DIMTMOVE
 70
     0
  9
$LUNITS
 70
     2
  9
$LUPREC
 70
     3
  9
$SKETCHINC
 40
1.0
  9
$FILLETRAD
 40
0.0
  9
$AUNITS
 70
     0
  9
$AUPREC
 70
     1
  9
$MENU
  1
.
  9
$ELEVATION
 40
0.0
  9
$PELEVATION
 40
0.0
  9
$THICKNESS
 40
0.0
  9
$LIMCHECK
 70
     0
  9
$CHAMFERA
 40
10.0
  9
$CHAMFERB
 40
10.0
  9
$CHAMFERC
 40
0.0
  9
$CHAMFERD
 40
0.0
  9
$SKPOLY
 70
     0
  9
$TDCREATE
 40
2453462.486793982
  9
$TDUCREATE
 40
2453462.111800301
  9
$TDUPDATE
 40
2459990.433321759
  9
$TDUUPDATE
 40
2459990.058321759
  9
$TDINDWG
 40
0.3634684144
  9
$TDUSRTIMER
 40
0.3633925810
  9
$USRTIMER
 70
     1
  9
$ANGBASE
 50
0.0
  9
$ANGDIR
 70
     0
  9
$PDMODE
 70
     0
  9
$PDSIZE
 40
0.0
  9
$PLINEWID
 40
0.0
  9
$SPLFRAME
 70
     0
  9
$SPLINETYPE
 70
     6
  9
$SPLINESEGS
 70
     8
  9
$HANDSEED
  5
55BE
  9
$SURFTAB1
 70
     6
  9
$SURFTAB2
 70
     6
  9
$SURFTYPE
 70
     6
  9
$SURFU
 70
     6
  9
$SURFV
 70
     6
  9
$UCSBASE
  2

  9
$UCSNAME
  2

  9
$UCSORG
 10
0.0
 20
0.0
 30
0.0
  9
$UCSXDIR
 10
1.0
 20
0.0
 30
0.0
  9
$UCSYDIR
 10
0.0
 20
1.0
 30
0.0
  9
$UCSORTHOREF
  2

  9
$UCSORTHOVIEW
 70
     0
  9
$UCSORGTOP
 10
0.0
 20
0.0
 30
0.0
  9
$UCSORGBOTTOM
 10
0.0
 20
0.0
 30
0.0
  9
$UCSORGLEFT
 10
0.0
 20
0.0
 30
0.0
  9
$UCSORGRIGHT
 10
0.0
 20
0.0
 30
0.0
  9
$UCSORGFRONT
 10
0.0
 20
0.0
 30
0.0
  9
$UCSORGBACK
 10
0.0
 20
0.0
 30
0.0
  9
$PUCSBASE
  2

  9
$PUCSNAME
  2

  9
$PUCSORG
 10
0.0
 20
0.0
 30
0.0
  9
$PUCSXDIR
 10
1.0
 20
0.0
 30
0.0
  9
$PUCSYDIR
 10
0.0
 20
1.0
 30
0.0
  9
$PUCSORTHOREF
  2

  9
$PUCSORTHOVIEW
 70
     0
  9
$PUCSORGTOP
 10
0.0
 20
0.0
 30
0.0
  9
$PUCSORGBOTTOM
 10
0.0
 20
0.0
 30
0.0
  9
$PUCSORGLEFT
 10
0.0
 20
0.0
 30
0.0
  9
$PUCSORGRIGHT
 10
0.0
 20
0.0
 30
0.0
  9
$PUCSORGFRONT
 10
0.0
 20
0.0
 30
0.0
  9
$PUCSORGBACK
 10
0.0
 20
0.0
 30
0.0
  9
$USERI1
 70
     0
  9
$USERI2
 70
     0
  9
$USERI3
 70
     0
  9
$USERI4
 70
     0
  9
$USERI5
 70
     0
  9
$USERR1
 40
0.0
  9
$USERR2
 40
0.0
  9
$USERR3
 40
0.0
  9
$USERR4
 40
0.0
  9
$USERR5
 40
0.0
  9
$WORLDVIEW
 70
     1
  9
$SHADEDGE
 70
     3
  9
$SHADEDIF
 70
    70
  9
$TILEMODE
 70
     1
  9
$MAXACTVP
 70
    48
  9
$PINSBASE
 10
0.0
 20
0.0
 30
0.0
  9
$PLIMCHECK
 70
     0
  9
$PEXTMIN
 10
1.000000000000000E+20
 20
1.000000000000000E+20
 30
1.000000000000000E+20
  9
$PEXTMAX
 10
-1.000000000000000E+20
 20
-1.000000000000000E+20
 30
-1.000000000000000E+20
  9
$PLIMMIN
 10
0.0
 20
0.0
  9
$PLIMMAX
 10
420.0
 20
297.0
  9
$UNITMODE
 70
     0
  9
$VISRETAIN
 70
     1
  9
$PLINEGEN
 70
     0
  9
$PSLTSCALE
 70
     1
  9
$TREEDEPTH
 70
  3020
  9
$CMLSTYLE
  2
Standard
  9
$CMLJUST
 70
     0
  9
$CMLSCALE
 40
1.0
  9
$PROXYGRAPHICS
 70
     1
  9
$MEASUREMENT
 70
     0
  9
$CELWEIGHT
370
    -1
  9
$ENDCAPS
280
     0
  9
$JOINSTYLE
280
     0
  9
$LWDISPLAY
290
     0
  9
$INSUNITS
 70
     0
  9
$HYPERLINKBASE
  1

  9
$STYLESHEET
  1
INABA-CAD-CANON.CTB
  9
$XEDIT
290
     1
  9
$CEPSNTYPE
380
     0
  9
$PSTYLEMODE
290
     1
  9
$FINGERPRINTGUID
  2
{1A2E6D33-5A93-49EA-8BEF-0164C03B4062}
  9
$VERSIONGUID
  2
{5F770C8A-4770-6242-9E9A-D974434A07EC}
  9
$EXTNAMES
290
     1
  9
$PSVPSCALE
 40
0.0
  9
$OLESTARTUP
290
     0
  0
ENDSEC
  0
SECTION
  2
CLASSES
  0
CLASS
  1
ACDBDICTIONARYWDFLT
  2
AcDbDictionaryWithDefault
  3
ObjectDBX Classes
 90
        0
280
     0
281
     0
  0
CLASS
  1
ACDBPLACEHOLDER
  2
AcDbPlaceHolder
  3
ObjectDBX Classes
 90
        0
280
     0
281
     0
  0
CLASS
  1
LAYOUT
  2
AcDbLayout
  3
ObjectDBX Classes
 90
        0
280
     0
281
     0
  0
CLASS
  1
DICTIONARYVAR
  2
AcDbDictionaryVar
  3
ObjectDBX Classes
 90
        0
280
     0
281
     0
  0
CLASS
  1
TABLESTYLE
  2
AcDbTableStyle
  3
ObjectDBX Classes
 90
     4095
280
     0
281
     0
  0
CLASS
  1
SORTENTSTABLE
  2
AcDbSortentsTable
  3
ObjectDBX Classes
 90
        0
280
     0
281
     0
  0
CLASS
  1
MATERIAL
  2
AcDbMaterial
  3
ObjectDBX Classes
 90
     1153
280
     0
281
     0
  0
CLASS
  1
VISUALSTYLE
  2
AcDbVisualStyle
  3
ObjectDBX Classes
 90
     4095
280
     0
281
     0
  0
CLASS
  1
SCALE
  2
AcDbScale
  3
ObjectDBX Classes
 90
     1153
280
     0
281
     0
  0
CLASS
  1
MLEADERSTYLE
  2
AcDbMLeaderStyle
  3
ACDB_MLEADERSTYLE_CLASS
 90
     4095
280
     0
281
     0
  0
CLASS
  1
ACDBSECTIONVIEWSTYLE
  2
AcDbSectionViewStyle
  3
ObjectDBX Classes
 90
     1025
280
     0
281
     0
  0
CLASS
  1
ACDBDETAILVIEWSTYLE
  2
AcDbDetailViewStyle
  3
ObjectDBX Classes
 90
     1025
280
     0
281
     0
  0
CLASS
  1
CELLSTYLEMAP
  2
AcDbCellStyleMap
  3
ObjectDBX Classes
 90
     1152
280
     0
281
     0
  0
ENDSEC
  0
SECTION
  2
TABLES
  0
TABLE
  2
VPORT
  5
2CA
330
0
100
AcDbSymbolTable
 70
     1
  0
VPORT
  5
50B1
330
2CA
100
AcDbSymbolTableRecord
100
AcDbViewportTableRecord
  2
*Active
 70
     0
 10
0.0
 20
0.0
 11
1.0
 21
1.0
 12
420.3919402411449
 22
-294.3387256333083
 13
0.0
 23
0.0
 14
10.0
 24
10.0
 15
10.0
 25
10.0
 16
0.0
 26
0.0
 36
1.0
 17
0.0
 27
0.0
 37
0.0
 40
1490.12902982036
 41
2.209439528023598
 42
50.0
 43
0.0
 44
0.0
 50
0.0
 51
0.0
 71
     0
 72
   100
 73
     1
 74
     1
 75
     0
 76
     0
 77
     0
 78
     0
281
     0
 65
     1
110
0.0
120
0.0
130
0.0
111
1.0
121
0.0
131
0.0
112
0.0
122
1.0
132
0.0
 79
     0
146
0.0
1001
ACAD_NAV_VCDISPLAY
1070
     3
  0
ENDTAB
  0
TABLE
  2
LTYPE
  5
2C7
330
0
100
AcDbSymbolTable
 70
     1
  0
LTYPE
  5
2D5
330
2C7
100
AcDbSymbolTableRecord
100
AcDbLinetypeTableRecord
  2
ByBlock
 70
     0
  3

 72
    65
 73
     0
 40
0.0
  0
LTYPE
  5
2D6
330
2C7
100
AcDbSymbolTableRecord
100
AcDbLinetypeTableRecord
  2
ByLayer
 70
     0
  3

 72
    65
 73
     0
 40
0.0
  0
LTYPE
  5
2D7
330
2C7
100
AcDbSymbolTableRecord
100
AcDbLinetypeTableRecord
  2
CONTINUOUS
 70
     0
  3
Solid line
 72
    65
 73
     0
 40
0.0
  0
ENDTAB
  0
TABLE
  2
LAYER
  5
2C4
102
{ACAD_XDICTIONARY
360
F3C
102
}
330
0
100
AcDbSymbolTable
 70
     6
  0
LAYER
  5
2D2
102
{ACAD_XDICTIONARY
360
5106
102
}
330
2C4
100
AcDbSymbolTableRecord
100
AcDbLayerTableRecord
  2
0
 70
     0
 62
     7
  6
CONTINUOUS
370
    -3
390
2D1
  0
LAYER
  5
2E4
102
{ACAD_XDICTIONARY
360
5108
102
}
330
2C4
100
AcDbSymbolTableRecord
100
AcDbLayerTableRecord
  2
2寸法線
 70
     0
 62
     2
  6
CONTINUOUS
370
    -3
390
2D1
  0
LAYER
  5
2EA
102
{ACAD_XDICTIONARY
360
510A
102
}
330
2C4
100
AcDbSymbolTableRecord
100
AcDbLayerTableRecord
  2
1外形線
 70
     0
 62
     3
  6
CONTINUOUS
370
    -3
390
2D1
  0
LAYER
  5
2EF
330
2C4
100
AcDbSymbolTableRecord
100
AcDbLayerTableRecord
  2
DEFPOINTS
 70
     0
 62
     7
  6
CONTINUOUS
290
     0
370
    -3
390
2D1
  0
LAYER
  5
2F0
102
{ACAD_XDICTIONARY
360
510C
102
}
330
2C4
100
AcDbSymbolTableRecord
100
AcDbLayerTableRecord
  2
C4
 70
     0
 62
     3
  6
CONTINUOUS
370
    -3
390
2D1
  0
LAYER
  5
51F4
102
{ACAD_XDICTIONARY
360
51F5
102
}
330
2C4
100
AcDbSymbolTableRecord
100
AcDbLayerTableRecord
  2
3補助線
 70
     0
 62
     4
  6
CONTINUOUS
370
    -3
390
2D1
  0
ENDTAB
  0
TABLE
  2
STYLE
  5
2C5
330
0
100
AcDbSymbolTable
 70
     2
  0
STYLE
  5
2D3
330
2C5
100
AcDbSymbolTableRecord
100
AcDbTextStyleTableRecord
  2
STANDARD
 70
     0
 40
0.0
 41
1.0
 50
0.0
 71
     0
 42
2.5
  3
txt
  4

  0
STYLE
  5
2E5
330
2C5
100
AcDbSymbolTableRecord
100
AcDbTextStyleTableRecord
  2
KANJI
 70
     0
 40
0.0
 41
1.0
 50
0.0
 71
     0
 42
2.5
  3
simplex.shx
  4
bigfont.shx
  0
ENDTAB
  0
TABLE
  2
VIEW
  5
2C8
330
0
100
AcDbSymbolTable
 70
     0
  0
ENDTAB
  0
TABLE
  2
UCS
  5
2C9
330
0
100
AcDbSymbolTable
 70
     0
  0
ENDTAB
  0
TABLE
  2
APPID
  5
2CB
330
0
100
AcDbSymbolTable
 70
     4
  0
APPID
  5
2D4
330
2CB
100
AcDbSymbolTableRecord
100
AcDbRegAppTableRecord
  2
ACAD
 70
     0
  0
APPID
  5
F3B
330
2CB
100
AcDbSymbolTableRecord
100
AcDbRegAppTableRecord
  2
ACAD_PSEXT
 70
     0
  0
APPID
  5
5115
330
2CB
100
AcDbSymbolTableRecord
100
AcDbRegAppTableRecord
  2
ACAD_NAV_VCDISPLAY
 70
     0
  0
APPID
  5
5152
330
2CB
100
AcDbSymbolTableRecord
100
AcDbRegAppTableRecord
  2
ACAD_MLEADERVER
 70
     0
  0
ENDTAB
  0
TABLE
  2
DIMSTYLE
  5
2CC
330
0
100
AcDbSymbolTable
 70
     3
100
AcDbDimStyleTable
 71
     1
340
2F4
  0
DIMSTYLE
105
2F2
330
2CC
100
AcDbSymbolTableRecord
100
AcDbDimStyleTableRecord
  2
STANDARD
 70
     0
 73
     0
 74
     0
172
     1
271
     3
272
     3
279
     2
284
     8
285
     8
286
     8
340
2E5
  0
DIMSTYLE
105
2F4
330
2CC
100
AcDbSymbolTableRecord
100
AcDbDimStyleTableRecord
  2
M
 70
     0
 40
0.0
 41
2.0
 42
1.0
 43
0.0
 44
1.0
 73
     0
 74
     0
 77
     1
 78
     8
140
2.5
141
0.0
147
0.5
172
     1
173
     1
271
     3
272
     3
279
     2
284
     8
285
     8
286
     8
340
2E5
  0
DIMSTYLE
105
51F6
330
2CC
100
AcDbSymbolTableRecord
100
AcDbDimStyleTableRecord
  2
M$4
 70
     0
 40
0.0
 41
2.0
 42
1.0
 43
0.0
 44
1.0
 73
     0
 77
     1
 78
     8
140
2.5
141
0.0
147
0.5
173
     1
284
     8
340
2E5
341
2FF
343
2FF
344
2FF
  0
ENDTAB
  0
TABLE
  2
BLOCK_RECORD
  5
2C3
330
0
100
AcDbSymbolTable
 70
    32
  0
BLOCK_RECORD
  5
2E0
102
{ACAD_XDICTIONARY
360
4FED
102
}
330
2C3
100
AcDbSymbolTableRecord
100
AcDbBlockTableRecord
  2
*Model_Space
340
2E3
  0
BLOCK_RECORD
  5
2DC
330
2C3
100
AcDbSymbolTableRecord
100
AcDbBlockTableRecord
  2
*Paper_Space
340
2DF
  0
BLOCK_RECORD
  5
2FF
330
2C3
100
AcDbSymbolTableRecord
100
AcDbBlockTableRecord
  2
2
340
0
102
{BLKREFS
331
51F0
331
5161
331
5162
331
516D
331
516E
331
517A
331
517B
331
5186
331
5187
331
5192
331
5193
331
5465
331
519E
331
519F
331
51AA
331
51AB
331
51B7
331
51B8
331
51C3
331
51C4
331
51CF
331
51D0
331
51DB
331
51DC
331
51E7
331
5512
331
5513
331
551B
331
551C
331
5524
331
5525
331
552D
331
552E
331
546B
102
}
  0
BLOCK_RECORD
  5
301
330
2C3
100
AcDbSymbolTableRecord
100
AcDbBlockTableRecord
  2
*U1
340
0
102
{BLKREFS
331
131
102
}
  0
BLOCK_RECORD
  5
515C
330
2C3
100
AcDbSymbolTableRecord
100
AcDbBlockTableRecord
  2
*D2
340
0
  0
BLOCK_RECORD
  5
5168
330
2C3
100
AcDbSymbolTableRecord
100
AcDbBlockTableRecord
  2
*D3
340
0
  0
BLOCK_RECORD
  5
5174
330
2C3
100
AcDbSymbolTableRecord
100
AcDbBlockTableRecord
  2
*D4
340
0
  0
BLOCK_RECORD
  5
5181
330
2C3
100
AcDbSymbolTableRecord
100
AcDbBlockTableRecord
  2
*D5
340
0
  0
BLOCK_RECORD
  5
518D
330
2C3
100
AcDbSymbolTableRecord
100
AcDbBlockTableRecord
  2
*D6
340
0
  0
BLOCK_RECORD
  5
5199
330
2C3
100
AcDbSymbolTableRecord
100
AcDbBlockTableRecord
  2
*D7
340
0
  0
BLOCK_RECORD
  5
51A5
330
2C3
100
AcDbSymbolTableRecord
100
AcDbBlockTableRecord
  2
*D8
340
0
  0
BLOCK_RECORD
  5
51B1
330
2C3
100
AcDbSymbolTableRecord
100
AcDbBlockTableRecord
  2
*D9
340
0
  0
BLOCK_RECORD
  5
51BE
330
2C3
100
AcDbSymbolTableRecord
100
AcDbBlockTableRecord
  2
*D10
340
0
  0
BLOCK_RECORD
  5
51CA
330
2C3
100
AcDbSymbolTableRecord
100
AcDbBlockTableRecord
  2
*D11
340
0
  0
BLOCK_RECORD
  5
51D6
330
2C3
100
AcDbSymbolTableRecord
100
AcDbBlockTableRecord
  2
*D12
340
0
  0
BLOCK_RECORD
  5
51E2
330
2C3
100
AcDbSymbolTableRecord
100
AcDbBlockTableRecord
  2
*D13
340
0
  0
BLOCK_RECORD
  5
51EB
330
2C3
100
AcDbSymbolTableRecord
100
AcDbBlockTableRecord
  2
*D14
340
0
  0
BLOCK_RECORD
  5
5385
330
2C3
100
AcDbSymbolTableRecord
100
AcDbBlockTableRecord
  2
*D15
340
0
  0
BLOCK_RECORD
  5
5392
330
2C3
100
AcDbSymbolTableRecord
100
AcDbBlockTableRecord
  2
*D16
340
0
  0
BLOCK_RECORD
  5
539E
330
2C3
100
AcDbSymbolTableRecord
100
AcDbBlockTableRecord
  2
*D17
340
0
  0
BLOCK_RECORD
  5
53AB
330
2C3
100
AcDbSymbolTableRecord
100
AcDbBlockTableRecord
  2
*D18
340
0
  0
BLOCK_RECORD
  5
53B7
330
2C3
100
AcDbSymbolTableRecord
100
AcDbBlockTableRecord
  2
*D19
340
0
  0
BLOCK_RECORD
  5
53C4
330
2C3
100
AcDbSymbolTableRecord
100
AcDbBlockTableRecord
  2
*D20
340
0
  0
BLOCK_RECORD
  5
53D0
330
2C3
100
AcDbSymbolTableRecord
100
AcDbBlockTableRecord
  2
*D21
340
0
  0
BLOCK_RECORD
  5
53DD
330
2C3
100
AcDbSymbolTableRecord
100
AcDbBlockTableRecord
  2
*D22
340
0
  0
BLOCK_RECORD
  5
53E6
330
2C3
100
AcDbSymbolTableRecord
100
AcDbBlockTableRecord
  2
*D23
340
0
  0
BLOCK_RECORD
  5
53EF
330
2C3
100
AcDbSymbolTableRecord
100
AcDbBlockTableRecord
  2
*D24
340
0
  0
BLOCK_RECORD
  5
53FB
330
2C3
100
AcDbSymbolTableRecord
100
AcDbBlockTableRecord
  2
*D25
340
0
  0
BLOCK_RECORD
  5
5407
330
2C3
100
AcDbSymbolTableRecord
100
AcDbBlockTableRecord
  2
*D26
340
0
  0
BLOCK_RECORD
  5
5413
330
2C3
100
AcDbSymbolTableRecord
100
AcDbBlockTableRecord
  2
*D27
340
0
  0
BLOCK_RECORD
  5
5493
330
2C3
100
AcDbSymbolTableRecord
100
AcDbBlockTableRecord
  2
*D28
340
0
  0
BLOCK_RECORD
  5
54A0
330
2C3
100
AcDbSymbolTableRecord
100
AcDbBlockTableRecord
  2
*D29
340
0
  0
BLOCK_RECORD
  5
54AD
330
2C3
100
AcDbSymbolTableRecord
100
AcDbBlockTableRecord
  2
*D30
340
0
  0
BLOCK_RECORD
  5
54BA
330
2C3
100
AcDbSymbolTableRecord
100
AcDbBlockTableRecord
  2
*D31
340
0
  0
ENDTAB
  0
ENDSEC
  0
SECTION
  2
BLOCKS
  0
BLOCK
  5
2E1
330
2E0
100
AcDbEntity
  8
0
100
AcDbBlockBegin
  2
*Model_Space
 70
     0
 10
0.0
 20
0.0
 30
0.0
  3
*Model_Space
  1

  0
ENDBLK
  5
2E2
330
2E0
100
AcDbEntity
  8
0
100
AcDbBlockEnd
  0
BLOCK
  5
2DD
330
2DC
100
AcDbEntity
 67
     1
  8
0
100
AcDbBlockBegin
  2
*Paper_Space
 70
     0
 10
0.0
 20
0.0
 30
0.0
  3
*Paper_Space
  1

  0
ENDBLK
  5
2DE
330
2DC
100
AcDbEntity
 67
     1
  8
0
100
AcDbBlockEnd
  0
BLOCK
  5
300
330
2FF
100
AcDbEntity
  8
0
100
AcDbBlockBegin
  2
2
 70
     0
 10
0.0
 20
0.0
 30
0.0
  3
2
  1

  0
INSERT
  5
131
330
2FF
100
AcDbEntity
  8
0
  6
Continuous
 62
     0
100
AcDbBlockReference
  2
*U1
 10
0.0
 20
0.0
 30
0.0
1001
ACAD
1002
{
1000
R14_HATCH_DATA
1000
131
1011
1.0
1021
0.0
1031
0.0
1011
0.0
1021
1.0
1031
0.0
1011
0.0
1021
0.0
1031
1.0
1040
0.0
1010
0.0
1020
0.0
1030
1.0
1000
SOLID
1070
     1
1070
     0
1071
        1
1071
        1
1071
        3
1070
     1
1040
-0.9999999999983517
1040
0.2679491924306774
1040
0.0
1040
0.0
1070
     1
1040
0.0
1040
0.0
1040
-0.9999999999983517
1040
-0.2679491924306765
1070
     1
1040
-0.9999999999983524
1040
-0.267949192430676
1040
-0.9999999999983524
1040
0.2679491924306774
1071
        0
1070
     0
1070
     1
1071
        1
1040
2.995745117231336
1040
-4.124946096263201
1040
0.0
1002
}
  0
ENDBLK
  5
132
330
2FF
100
AcDbEntity
  8
0
100
AcDbBlockEnd
  0
BLOCK
  5
309
330
301
100
AcDbEntity
  8
0
100
AcDbBlockBegin
  2
*U1
 70
     1
 10
0.0
 20
0.0
 30
0.0
  3
*U1
  1

  0
SOLID
  5
209
330
301
100
AcDbEntity
  8
0
  6
Continuous
 62
     0
100
AcDbTrace
 10
0.666666666665568
 20
0.0000000000000004
 30
0.0
 11
0.9999999999983517
 21
0.2679491924306774
 31
0.0
 12
0.0
 22
0.0
 32
0.0
 13
0.0
 23
0.0
 33
0.0
210
0.0
220
0.0
230
-1.0
  0
SOLID
  5
20A
330
301
100
AcDbEntity
  8
0
  6
Continuous
 62
     0
100
AcDbTrace
 10
0.666666666665568
 20
0.0000000000000004
 30
0.0
 11
0.0
 21
0.0
 31
0.0
 12
0.9999999999983524
 22
-0.267949192430676
 32
0.0
 13
0.9999999999983524
 23
-0.267949192430676
 33
0.0
210
0.0
220
0.0
230
-1.0
  0
SOLID
  5
20B
330
301
100
AcDbEntity
  8
0
  6
Continuous
 62
     0
100
AcDbTrace
 10
0.666666666665568
 20
0.0000000000000004
 30
0.0
 11
0.9999999999983524
 21
-0.267949192430676
 31
0.0
 12
0.9999999999983517
 22
0.2679491924306774
 32
0.0
 13
0.9999999999983517
 23
0.2679491924306774
 33
0.0
210
0.0
220
0.0
230
-1.0
  0
ENDBLK
  5
20D
330
301
100
AcDbEntity
  8
0
100
AcDbBlockEnd
  0
BLOCK
  5
515D
330
515C
100
AcDbEntity
  8
0
 48
3.0
100
AcDbBlockBegin
  2
*D2
 70
     1
 10
0.0
 20
0.0
 30
0.0
  3
*D2
  1

  0
LINE
  5
515E
330
515C
100
AcDbEntity
  8
2寸法線
 62
     0
 48
3.0
370
    -2
100
AcDbLine
 10
91.86824995608764
 20
-352.0795021244244
 30
0.0
 11
91.86824995608764
 21
-364.1621463373864
 31
0.0
  0
LINE
  5
515F
330
515C
100
AcDbEntity
  8
2寸法線
 62
     0
 48
3.0
370
    -2
100
AcDbLine
 10
131.6685850777845
 20
-352.0795021244244
 30
0.0
 11
131.6685850777845
 21
-364.1621463373864
 31
0.0
  0
LINE
  5
5160
330
515C
100
AcDbEntity
  8
2寸法線
 62
     0
 48
3.0
370
    -2
100
AcDbLine
 10
93.66824995608764
 20
-363.1621463373864
 30
0.0
 11
129.8685850777845
 21
-363.1621463373864
 31
0.0
  0
INSERT
  5
5161
330
515C
100
AcDbEntity
  8
2寸法線
 62
     0
 48
3.0
370
    -2
100
AcDbBlockReference
  2
2
 10
91.86824995608764
 20
-363.1621463373864
 30
0.0
 41
1.8
 42
1.8
 43
1.8
 50
180.0
  0
INSERT
  5
5162
330
515C
100
AcDbEntity
  8
2寸法線
 62
     0
 48
3.0
370
    -2
100
AcDbBlockReference
  2
2
 10
131.6685850777845
 20
-363.1621463373864
 30
0.0
 41
1.8
 42
1.8
 43
1.8
  0
MTEXT
  5
5163
330
515C
100
AcDbEntity
  8
2寸法線
 62
     0
 48
3.0
100
AcDbMText
 10
111.7684175169361
 20
-360.6621463373864
 30
0.0
 40
4.0
 41
0.0
 71
     5
 72
     1
  1
\A1;A
  7
KANJI
 73
     1
 44
1.0
1001
ACAD
1000
MTEXTBEGIN
1070
    73
1070
     1
1070
    44
1040
1.0
1070
    74
1070
     0
1000
MTEXTEND
  0
POINT
  5
5164
330
515C
100
AcDbEntity
  8
DEFPOINTS
 62
     0
 48
3.0
100
AcDbPoint
 10
91.86824995608764
 20
-351.0795021244244
 30
0.0
  0
POINT
  5
5165
330
515C
100
AcDbEntity
  8
DEFPOINTS
 62
     0
 48
3.0
100
AcDbPoint
 10
131.6685850777845
 20
-351.0795021244244
 30
0.0
  0
POINT
  5
5166
330
515C
100
AcDbEntity
  8
DEFPOINTS
 62
     0
 48
3.0
100
AcDbPoint
 10
131.6685850777845
 20
-363.1621463373864
 30
0.0
  0
ENDBLK
  5
5167
330
515C
100
AcDbEntity
  8
0
 48
3.0
100
AcDbBlockEnd
  0
BLOCK
  5
5169
330
5168
100
AcDbEntity
  8
0
 48
3.0
100
AcDbBlockBegin
  2
*D3
 70
     1
 10
0.0
 20
0.0
 30
0.0
  3
*D3
  1

  0
LINE
  5
516A
330
5168
100
AcDbEntity
  8
2寸法線
 62
     0
 48
3.0
370
    -2
100
AcDbLine
 10
144.2684175169364
 20
-351.0795021244244
 30
0.0
 11
157.8752588007825
 21
-351.0795021244244
 31
0.0
  0
LINE
  5
516B
330
5168
100
AcDbEntity
  8
2寸法線
 62
     0
 48
3.0
370
    -2
100
AcDbLine
 10
125.0301777410708
 20
-316.1795021244243
 30
0.0
 11
157.8752588007825
 21
-316.1795021244243
 31
0.0
  0
LINE
  5
516C
330
5168
100
AcDbEntity
  8
2寸法線
 62
     0
 48
3.0
370
    -2
100
AcDbLine
 10
156.8752588007825
 20
-349.2795021244244
 30
0.0
 11
156.8752588007825
 21
-317.9795021244244
 31
0.0
  0
INSERT
  5
516D
330
5168
100
AcDbEntity
  8
2寸法線
 62
     0
 48
3.0
370
    -2
100
AcDbBlockReference
  2
2
 10
156.8752588007825
 20
-351.0795021244244
 30
0.0
 41
1.8
 42
1.8
 43
1.8
 50
270.0
  0
INSERT
  5
516E
330
5168
100
AcDbEntity
  8
2寸法線
 62
     0
 48
3.0
370
    -2
100
AcDbBlockReference
  2
2
 10
156.8752588007825
 20
-316.1795021244243
 30
0.0
 41
1.8
 42
1.8
 43
1.8
 50
90.0
  0
MTEXT
  5
516F
330
5168
100
AcDbEntity
  8
2寸法線
 62
     0
 48
3.0
100
AcDbMText
 10
154.3752588007825
 20
-333.6295021244243
 30
0.0
 40
4.0
 41
0.0
 71
     5
 72
     1
  1
\A1;B
  7
KANJI
 11
0.0000000000000001
 21
1.0
 31
0.0
 73
     1
 44
1.0
1001
ACAD
1000
MTEXTBEGIN
1070
    73
1070
     1
1070
    44
1040
1.0
1070
    74
1070
     0
1000
MTEXTEND
  0
POINT
  5
5170
330
5168
100
AcDbEntity
  8
DEFPOINTS
 62
     0
 48
3.0
100
AcDbPoint
 10
143.2684175169364
 20
-351.0795021244244
 30
0.0
  0
POINT
  5
5171
330
5168
100
AcDbEntity
  8
DEFPOINTS
 62
     0
 48
3.0
100
AcDbPoint
 10
124.0301777410708
 20
-316.1795021244243
 30
0.0
  0
POINT
  5
5172
330
5168
100
AcDbEntity
  8
DEFPOINTS
 62
     0
 48
3.0
100
AcDbPoint
 10
156.8752588007825
 20
-316.1795021244243
 30
0.0
  0
ENDBLK
  5
5173
330
5168
100
AcDbEntity
  8
0
 48
3.0
100
AcDbBlockEnd
  0
BLOCK
  5
5175
330
5174
100
AcDbEntity
  8
0
 48
3.0
100
AcDbBlockBegin
  2
*D4
 70
     1
 10
0.0
 20
0.0
 30
0.0
  3
*D4
  1

  0
LINE
  5
5176
330
5174
100
AcDbEntity
  8
2寸法線
 62
     0
 48
3.0
370
    -2
100
AcDbLine
 10
230.404211355963
 20
-278.8990039928609
 30
0.0
 11
243.8095968480679
 21
-278.8990039928609
 31
0.0
  0
LINE
  5
5177
330
5174
100
AcDbEntity
  8
2寸法線
 62
     0
 48
3.0
370
    -2
100
AcDbLine
 10
230.404211355963
 20
-271.399003992861
 30
0.0
 11
243.8095968480679
 21
-271.399003992861
 31
0.0
  0
LINE
  5
5178
330
5174
100
AcDbEntity
  8
2寸法線
 62
     0
 48
3.0
370
    -2
100
AcDbLine
 10
242.8095968480679
 20
-273.199003992861
 30
0.0
 11
242.8095968480679
 21
-277.0990039928609
 31
0.0
  0
LINE
  5
5179
330
5174
100
AcDbEntity
  8
2寸法線
 62
     0
 48
3.0
370
    -2
100
AcDbLine
 10
242.8095968480679
 20
-278.8990039928609
 30
0.0
 11
242.8095968480679
 21
-290.7268080545394
 31
0.0
  0
INSERT
  5
517A
330
5174
100
AcDbEntity
  8
2寸法線
 62
     0
 48
3.0
370
    -2
100
AcDbBlockReference
  2
2
 10
242.8095968480679
 20
-271.399003992861
 30
0.0
 41
1.8
 42
1.8
 43
1.8
 50
90.0
  0
INSERT
  5
517B
330
5174
100
AcDbEntity
  8
2寸法線
 62
     0
 48
3.0
370
    -2
100
AcDbBlockReference
  2
2
 10
242.8095968480679
 20
-278.8990039928609
 30
0.0
 41
1.8
 42
1.8
 43
1.8
 50
270.0
  0
MTEXT
  5
517C
330
5174
100
AcDbEntity
  8
2寸法線
 62
     0
 48
3.0
100
AcDbMText
 10
240.3095968480679
 20
-287.3696651973964
 30
0.0
 40
4.0
 41
0.0
 71
     5
 72
     1
  1
\A1;15
  7
KANJI
 11
0.0000000000000001
 21
1.0
 31
0.0
 73
     1
 44
1.0
1001
ACAD
1000
MTEXTBEGIN
1070
    73
1070
     1
1070
    44
1040
1.0
1070
    74
1070
     0
1000
MTEXTEND
  0
POINT
  5
517D
330
5174
100
AcDbEntity
  8
DEFPOINTS
 62
     0
 48
3.0
100
AcDbPoint
 10
229.404211355963
 20
-278.8990039928609
 30
0.0
  0
POINT
  5
517E
330
5174
100
AcDbEntity
  8
DEFPOINTS
 62
     0
 48
3.0
100
AcDbPoint
 10
229.404211355963
 20
-271.399003992861
 30
0.0
  0
POINT
  5
517F
330
5174
100
AcDbEntity
  8
DEFPOINTS
 62
     0
 48
3.0
100
AcDbPoint
 10
242.8095968480679
 20
-271.399003992861
 30
0.0
  0
ENDBLK
  5
5180
330
5174
100
AcDbEntity
  8
0
 48
3.0
100
AcDbBlockEnd
  0
BLOCK
  5
5182
330
5181
100
AcDbEntity
  8
0
 48
3.0
100
AcDbBlockBegin
  2
*D5
 70
     1
 10
0.0
 20
0.0
 30
0.0
  3
*D5
  1

  0
LINE
  5
5183
330
5181
100
AcDbEntity
  8
2寸法線
 62
     0
 48
3.0
370
    -2
100
AcDbLine
 10
310.4085468281788
 20
-268.8990039928606
 30
0.0
 11
358.4239403139116
 21
-268.8990039928606
 31
0.0
  0
LINE
  5
5184
330
5181
100
AcDbEntity
  8
2寸法線
 62
     0
 48
3.0
370
    -2
100
AcDbLine
 10
310.4085468281788
 20
-204.899003992861
 30
0.0
 11
358.4239403139116
 21
-204.8990039928611
 31
0.0
  0
LINE
  5
5185
330
5181
100
AcDbEntity
  8
2寸法線
 62
     0
 48
3.0
370
    -2
100
AcDbLine
 10
357.4239403139117
 20
-267.0990039928605
 30
0.0
 11
357.4239403139117
 21
-206.6990039928611
 31
0.0
  0
INSERT
  5
5186
330
5181
100
AcDbEntity
  8
2寸法線
 62
     0
 48
3.0
370
    -2
100
AcDbBlockReference
  2
2
 10
357.4239403139117
 20
-268.8990039928606
 30
0.0
 41
1.8
 42
1.8
 43
1.8
 50
270.0
  0
INSERT
  5
5187
330
5181
100
AcDbEntity
  8
2寸法線
 62
     0
 48
3.0
370
    -2
100
AcDbBlockReference
  2
2
 10
357.4239403139117
 20
-204.8990039928611
 30
0.0
 41
1.8
 42
1.8
 43
1.8
 50
90.0
  0
MTEXT
  5
5188
330
5181
100
AcDbEntity
  8
2寸法線
 62
     0
 48
3.0
100
AcDbMText
 10
354.9239403139117
 20
-236.8990039928608
 30
0.0
 40
4.0
 41
0.0
 71
     5
 72
     1
  1
\A1;I
  7
KANJI
 11
0.0000000000000001
 21
1.0
 31
0.0
 73
     1
 44
1.0
1001
ACAD
1000
MTEXTBEGIN
1070
    73
1070
     1
1070
    44
1040
1.0
1070
    74
1070
     0
1000
MTEXTEND
  0
POINT
  5
5189
330
5181
100
AcDbEntity
  8
DEFPOINTS
 62
     0
 48
3.0
100
AcDbPoint
 10
309.4085468281788
 20
-268.8990039928606
 30
0.0
  0
POINT
  5
518A
330
5181
100
AcDbEntity
  8
DEFPOINTS
 62
     0
 48
3.0
100
AcDbPoint
 10
309.4085468281788
 20
-204.899003992861
 30
0.0
  0
POINT
  5
518B
330
5181
100
AcDbEntity
  8
DEFPOINTS
 62
     0
 48
3.0
100
AcDbPoint
 10
357.4239403139117
 20
-204.8990039928611
 30
0.0
  0
ENDBLK
  5
518C
330
5181
100
AcDbEntity
  8
0
 48
3.0
100
AcDbBlockEnd
  0
BLOCK
  5
518E
330
518D
100
AcDbEntity
  8
0
 48
3.0
100
AcDbBlockBegin
  2
*D6
 70
     1
 10
0.0
 20
0.0
 30
0.0
  3
*D6
  1

  0
LINE
  5
518F
330
518D
100
AcDbEntity
  8
2寸法線
 62
     0
 48
3.0
370
    -2
100
AcDbLine
 10
80.26841751693643
 20
-232.3990039928609
 30
0.0
 11
80.26841751693643
 21
-188.047018426716
 31
0.0
  0
LINE
  5
5190
330
518D
100
AcDbEntity
  8
2寸法線
 62
     0
 48
3.0
370
    -2
100
AcDbLine
 10
143.2684175169364
 20
-232.3990039928609
 30
0.0
 11
143.2684175169364
 21
-188.047018426716
 31
0.0
  0
LINE
  5
5191
330
518D
100
AcDbEntity
  8
2寸法線
 62
     0
 48
3.0
370
    -2
100
AcDbLine
 10
82.06841751693643
 20
-189.047018426716
 30
0.0
 11
141.4684175169364
 21
-189.047018426716
 31
0.0
  0
INSERT
  5
5192
330
518D
100
AcDbEntity
  8
2寸法線
 62
     0
 48
3.0
370
    -2
100
AcDbBlockReference
  2
2
 10
80.26841751693643
 20
-189.047018426716
 30
0.0
 41
1.8
 42
1.8
 43
1.8
 50
180.0
  0
INSERT
  5
5193
330
518D
100
AcDbEntity
  8
2寸法線
 62
     0
 48
3.0
370
    -2
100
AcDbBlockReference
  2
2
 10
143.2684175169364
 20
-189.047018426716
 30
0.0
 41
1.8
 42
1.8
 43
1.8
  0
MTEXT
  5
5194
330
518D
100
AcDbEntity
  8
2寸法線
 62
     0
 48
3.0
100
AcDbMText
 10
111.7684175169364
 20
-186.547018426716
 30
0.0
 40
4.0
 41
0.0
 71
     5
 72
     1
  1
\A1;C
  7
KANJI
 73
     1
 44
1.0
1001
ACAD
1000
MTEXTBEGIN
1070
    73
1070
     1
1070
    44
1040
1.0
1070
    74
1070
     0
1000
MTEXTEND
  0
POINT
  5
5195
330
518D
100
AcDbEntity
  8
DEFPOINTS
 62
     0
 48
3.0
100
AcDbPoint
 10
80.26841751693643
 20
-233.3990039928609
 30
0.0
  0
POINT
  5
5196
330
518D
100
AcDbEntity
  8
DEFPOINTS
 62
     0
 48
3.0
100
AcDbPoint
 10
143.2684175169364
 20
-233.3990039928609
 30
0.0
  0
POINT
  5
5197
330
518D
100
AcDbEntity
  8
DEFPOINTS
 62
     0
 48
3.0
100
AcDbPoint
 10
143.2684175169364
 20
-189.047018426716
 30
0.0
  0
ENDBLK
  5
5198
330
518D
100
AcDbEntity
  8
0
 48
3.0
100
AcDbBlockEnd
  0
BLOCK
  5
519A
330
5199
100
AcDbEntity
  8
0
 48
3.0
100
AcDbBlockBegin
  2
*D7
 70
     1
 10
0.0
 20
0.0
 30
0.0
  3
*D7
  1

  0
LINE
  5
519B
330
5199
100
AcDbEntity
  8
2寸法線
 62
     0
 48
3.0
370
    -2
100
AcDbLine
 10
112.7684175169364
 20
-201.8990039928609
 30
0.0
 11
157.7013768376575
 21
-201.8990039928609
 31
0.0
  0
LINE
  5
519C
330
5199
100
AcDbEntity
  8
2寸法線
 62
     0
 48
3.0
370
    -2
100
AcDbLine
 10
132.2684175169364
 20
-278.8990039928609
 30
0.0
 11
157.7013768376575
 21
-278.8990039928609
 31
0.0
  0
LINE
  5
519D
330
5199
100
AcDbEntity
  8
2寸法線
 62
     0
 48
3.0
370
    -2
100
AcDbLine
 10
156.7013768376575
 20
-203.699003992861
 30
0.0
 11
156.7013768376575
 21
-277.0990039928609
 31
0.0
  0
INSERT
  5
519E
330
5199
100
AcDbEntity
  8
2寸法線
 62
     0
 48
3.0
370
    -2
100
AcDbBlockReference
  2
2
 10
156.7013768376575
 20
-201.8990039928609
 30
0.0
 41
1.8
 42
1.8
 43
1.8
 50
90.0
  0
INSERT
  5
519F
330
5199
100
AcDbEntity
  8
2寸法線
 62
     0
 48
3.0
370
    -2
100
AcDbBlockReference
  2
2
 10
156.7013768376575
 20
-278.8990039928609
 30
0.0
 41
1.8
 42
1.8
 43
1.8
 50
270.0
  0
MTEXT
  5
51A0
330
5199
100
AcDbEntity
  8
2寸法線
 62
     0
 48
3.0
100
AcDbMText
 10
154.2013768376575
 20
-240.3990039928609
 30
0.0
 40
4.0
 41
0.0
 71
     5
 72
     1
  1
\A1;D
  7
KANJI
 11
0.0000000000000001
 21
1.0
 31
0.0
 73
     1
 44
1.0
1001
ACAD
1000
MTEXTBEGIN
1070
    73
1070
     1
1070
    44
1040
1.0
1070
    74
1070
     0
1000
MTEXTEND
  0
POINT
  5
51A1
330
5199
100
AcDbEntity
  8
DEFPOINTS
 62
     0
 48
3.0
100
AcDbPoint
 10
111.7684175169364
 20
-201.8990039928609
 30
0.0
  0
POINT
  5
51A2
330
5199
100
AcDbEntity
  8
DEFPOINTS
 62
     0
 48
3.0
100
AcDbPoint
 10
131.2684175169364
 20
-278.8990039928609
 30
0.0
  0
POINT
  5
51A3
330
5199
100
AcDbEntity
  8
DEFPOINTS
 62
     0
 48
3.0
100
AcDbPoint
 10
156.7013768376575
 20
-278.8990039928609
 30
0.0
  0
ENDBLK
  5
51A4
330
5199
100
AcDbEntity
  8
0
 48
3.0
100
AcDbBlockEnd
  0
BLOCK
  5
51A6
330
51A5
100
AcDbEntity
  8
0
 48
3.0
100
AcDbBlockBegin
  2
*D8
 70
     1
 10
0.0
 20
0.0
 30
0.0
  3
*D8
  1

  0
LINE
  5
51A7
330
51A5
100
AcDbEntity
  8
2寸法線
 62
     0
 48
3.0
370
    -2
100
AcDbLine
 10
192.654211355963
 20
-233.1529578287977
 30
0.0
 11
192.654211355963
 21
-188.0725938046037
 31
0.0
  0
LINE
  5
51A8
330
51A5
100
AcDbEntity
  8
2寸法線
 62
     0
 48
3.0
370
    -2
100
AcDbLine
 10
229.4042113559628
 20
-200.899003992861
 30
0.0
 11
229.4042113559628
 21
-188.0725938046037
 31
0.0
  0
LINE
  5
51A9
330
51A5
100
AcDbEntity
  8
2寸法線
 62
     0
 48
3.0
370
    -2
100
AcDbLine
 10
194.4542113559629
 20
-189.0725938046037
 30
0.0
 11
227.6042113559628
 21
-189.0725938046037
 31
0.0
  0
INSERT
  5
51AA
330
51A5
100
AcDbEntity
  8
2寸法線
 62
     0
 48
3.0
370
    -2
100
AcDbBlockReference
  2
2
 10
192.654211355963
 20
-189.0725938046037
 30
0.0
 41
1.8
 42
1.8
 43
1.8
 50
180.0
  0
INSERT
  5
51AB
330
51A5
100
AcDbEntity
  8
2寸法線
 62
     0
 48
3.0
370
    -2
100
AcDbBlockReference
  2
2
 10
229.4042113559628
 20
-189.0725938046037
 30
0.0
 41
1.8
 42
1.8
 43
1.8
  0
MTEXT
  5
51AC
330
51A5
100
AcDbEntity
  8
2寸法線
 62
     0
 48
3.0
100
AcDbMText
 10
211.0292113559629
 20
-186.5725938046037
 30
0.0
 40
4.0
 41
0.0
 71
     5
 72
     1
  1
\A1;E
  7
KANJI
 73
     1
 44
1.0
1001
ACAD
1000
MTEXTBEGIN
1070
    73
1070
     1
1070
    44
1040
1.0
1070
    74
1070
     0
1000
MTEXTEND
  0
POINT
  5
51AD
330
51A5
100
AcDbEntity
  8
DEFPOINTS
 62
     0
 48
3.0
100
AcDbPoint
 10
192.654211355963
 20
-234.1529578287977
 30
0.0
  0
POINT
  5
51AE
330
51A5
100
AcDbEntity
  8
DEFPOINTS
 62
     0
 48
3.0
100
AcDbPoint
 10
229.4042113559628
 20
-201.8990039928611
 30
0.0
  0
POINT
  5
51AF
330
51A5
100
AcDbEntity
  8
DEFPOINTS
 62
     0
 48
3.0
100
AcDbPoint
 10
229.4042113559628
 20
-189.0725938046037
 30
0.0
  0
ENDBLK
  5
51B0
330
51A5
100
AcDbEntity
  8
0
 48
3.0
100
AcDbBlockEnd
  0
BLOCK
  5
51B2
330
51B1
100
AcDbEntity
  8
0
 48
3.0
100
AcDbBlockBegin
  2
*D9
 70
     1
 10
0.0
 20
0.0
 30
0.0
  3
*D9
  1

  0
LINE
  5
51B3
330
51B1
100
AcDbEntity
  8
2寸法線
 62
     0
 48
3.0
370
    -2
100
AcDbLine
 10
329.9085468281786
 20
-278.899003992861
 30
0.0
 11
358.4239403139115
 21
-278.899003992861
 31
0.0
  0
LINE
  5
51B4
330
51B1
100
AcDbEntity
  8
2寸法線
 62
     0
 48
3.0
370
    -2
100
AcDbLine
 10
310.4085468281787
 20
-268.8990039928609
 30
0.0
 11
358.4239403139115
 21
-268.8990039928609
 31
0.0
  0
LINE
  5
51B5
330
51B1
100
AcDbEntity
  8
2寸法線
 62
     0
 48
3.0
370
    -2
100
AcDbLine
 10
357.4239403139115
 20
-270.6990039928609
 30
0.0
 11
357.4239403139115
 21
-277.099003992861
 31
0.0
  0
LINE
  5
51B6
330
51B1
100
AcDbEntity
  8
2寸法線
 62
     0
 48
3.0
370
    -2
100
AcDbLine
 10
357.4239403139115
 20
-278.899003992861
 30
0.0
 11
357.4239403139115
 21
-291.4433551378039
 31
0.0
  0
INSERT
  5
51B7
330
51B1
100
AcDbEntity
  8
2寸法線
 62
     0
 48
3.0
370
    -2
100
AcDbBlockReference
  2
2
 10
357.4239403139115
 20
-268.8990039928609
 30
0.0
 41
1.8
 42
1.8
 43
1.8
 50
90.0
  0
INSERT
  5
51B8
330
51B1
100
AcDbEntity
  8
2寸法線
 62
     0
 48
3.0
370
    -2
100
AcDbBlockReference
  2
2
 10
357.4239403139115
 20
-278.899003992861
 30
0.0
 41
1.8
 42
1.8
 43
1.8
 50
270.0
  0
MTEXT
  5
51B9
330
51B1
100
AcDbEntity
  8
2寸法線
 62
     0
 48
3.0
100
AcDbMText
 10
354.9239403139115
 20
-287.7052598997086
 30
0.0
 40
4.0
 41
0.0
 71
     5
 72
     1
  1
\A1;20
  7
KANJI
 11
0.0000000000000001
 21
1.0
 31
0.0
 73
     1
 44
1.0
1001
ACAD
1000
MTEXTBEGIN
1070
    73
1070
     1
1070
    44
1040
1.0
1070
    74
1070
     0
1000
MTEXTEND
  0
POINT
  5
51BA
330
51B1
100
AcDbEntity
  8
DEFPOINTS
 62
     0
 48
3.0
100
AcDbPoint
 10
328.9085468281787
 20
-278.899003992861
 30
0.0
  0
POINT
  5
51BB
330
51B1
100
AcDbEntity
  8
DEFPOINTS
 62
     0
 48
3.0
100
AcDbPoint
 10
309.4085468281786
 20
-268.8990039928609
 30
0.0
  0
POINT
  5
51BC
330
51B1
100
AcDbEntity
  8
DEFPOINTS
 62
     0
 48
3.0
100
AcDbPoint
 10
357.4239403139115
 20
-268.8990039928609
 30
0.0
  0
ENDBLK
  5
51BD
330
51B1
100
AcDbEntity
  8
0
 48
3.0
100
AcDbBlockEnd
  0
BLOCK
  5
51BF
330
51BE
100
AcDbEntity
  8
0
 48
3.0
100
AcDbBlockBegin
  2
*D10
 70
     1
 10
0.0
 20
0.0
 30
0.0
  3
*D10
  1

  0
LINE
  5
51C0
330
51BE
100
AcDbEntity
  8
2寸法線
 62
     0
 48
3.0
370
    -2
100
AcDbLine
 10
290.4085468281786
 20
-232.3990039928609
 30
0.0
 11
290.4085468281786
 21
-188.131502070722
 31
0.0
  0
LINE
  5
51C1
330
51BE
100
AcDbEntity
  8
2寸法線
 62
     0
 48
3.0
370
    -2
100
AcDbLine
 10
328.4085468281787
 20
-232.3990039928609
 30
0.0
 11
328.4085468281787
 21
-188.131502070722
 31
0.0
  0
LINE
  5
51C2
330
51BE
100
AcDbEntity
  8
2寸法線
 62
     0
 48
3.0
370
    -2
100
AcDbLine
 10
292.2085468281786
 20
-189.131502070722
 30
0.0
 11
326.6085468281787
 21
-189.131502070722
 31
0.0
  0
INSERT
  5
51C3
330
51BE
100
AcDbEntity
  8
2寸法線
 62
     0
 48
3.0
370
    -2
100
AcDbBlockReference
  2
2
 10
290.4085468281786
 20
-189.131502070722
 30
0.0
 41
1.8
 42
1.8
 43
1.8
 50
180.0
  0
INSERT
  5
51C4
330
51BE
100
AcDbEntity
  8
2寸法線
 62
     0
 48
3.0
370
    -2
100
AcDbBlockReference
  2
2
 10
328.4085468281787
 20
-189.131502070722
 30
0.0
 41
1.8
 42
1.8
 43
1.8
  0
MTEXT
  5
51C5
330
51BE
100
AcDbEntity
  8
2寸法線
 62
     0
 48
3.0
100
AcDbMText
 10
309.4085468281786
 20
-186.631502070722
 30
0.0
 40
4.0
 41
0.0
 71
     5
 72
     1
  1
\A1;H
  7
KANJI
 73
     1
 44
1.0
1001
ACAD
1000
MTEXTBEGIN
1070
    73
1070
     1
1070
    44
1040
1.0
1070
    74
1070
     0
1000
MTEXTEND
  0
POINT
  5
51C6
330
51BE
100
AcDbEntity
  8
DEFPOINTS
 62
     0
 48
3.0
100
AcDbPoint
 10
290.4085468281786
 20
-233.3990039928609
 30
0.0
  0
POINT
  5
51C7
330
51BE
100
AcDbEntity
  8
DEFPOINTS
 62
     0
 48
3.0
100
AcDbPoint
 10
328.4085468281787
 20
-233.3990039928609
 30
0.0
  0
POINT
  5
51C8
330
51BE
100
AcDbEntity
  8
DEFPOINTS
 62
     0
 48
3.0
100
AcDbPoint
 10
328.4085468281787
 20
-189.131502070722
 30
0.0
  0
ENDBLK
  5
51C9
330
51BE
100
AcDbEntity
  8
0
 48
3.0
100
AcDbBlockEnd
  0
BLOCK
  5
51CB
330
51CA
100
AcDbEntity
  8
0
 48
3.0
100
AcDbBlockBegin
  2
*D11
 70
     1
 10
0.0
 20
0.0
 30
0.0
  3
*D11
  1

  0
LINE
  5
51CC
330
51CA
100
AcDbEntity
  8
2寸法線
 62
     0
 48
3.0
370
    -2
100
AcDbLine
 10
308.4085468281787
 20
-214.3990039928609
 30
0.0
 11
263.827349262188
 21
-214.3990039928609
 31
0.0
  0
LINE
  5
51CD
330
51CA
100
AcDbEntity
  8
2寸法線
 62
     0
 48
3.0
370
    -2
100
AcDbLine
 10
308.4085468281787
 20
-265.7990039928608
 30
0.0
 11
263.827349262188
 21
-265.7990039928608
 31
0.0
  0
LINE
  5
51CE
330
51CA
100
AcDbEntity
  8
2寸法線
 62
     0
 48
3.0
370
    -2
100
AcDbLine
 10
264.827349262188
 20
-216.199003992861
 30
0.0
 11
264.827349262188
 21
-263.9990039928608
 31
0.0
  0
INSERT
  5
51CF
330
51CA
100
AcDbEntity
  8
2寸法線
 62
     0
 48
3.0
370
    -2
100
AcDbBlockReference
  2
2
 10
264.827349262188
 20
-214.3990039928609
 30
0.0
 41
1.8
 42
1.8
 43
1.8
 50
90.0
  0
INSERT
  5
51D0
330
51CA
100
AcDbEntity
  8
2寸法線
 62
     0
 48
3.0
370
    -2
100
AcDbBlockReference
  2
2
 10
264.827349262188
 20
-265.7990039928608
 30
0.0
 41
1.8
 42
1.8
 43
1.8
 50
270.0
  0
MTEXT
  5
51D1
330
51CA
100
AcDbEntity
  8
2寸法線
 62
     0
 48
3.0
100
AcDbMText
 10
262.3273492621881
 20
-240.0990039928608
 30
0.0
 40
4.0
 41
0.0
 71
     5
 72
     1
  1
\A1;G
  7
KANJI
 11
0.0000000000000001
 21
1.0
 31
0.0
 73
     1
 44
1.0
1001
ACAD
1000
MTEXTBEGIN
1070
    73
1070
     1
1070
    44
1040
1.0
1070
    74
1070
     0
1000
MTEXTEND
  0
POINT
  5
51D2
330
51CA
100
AcDbEntity
  8
DEFPOINTS
 62
     0
 48
3.0
100
AcDbPoint
 10
309.4085468281786
 20
-214.3990039928609
 30
0.0
  0
POINT
  5
51D3
330
51CA
100
AcDbEntity
  8
DEFPOINTS
 62
     0
 48
3.0
100
AcDbPoint
 10
309.4085468281786
 20
-265.7990039928608
 30
0.0
  0
POINT
  5
51D4
330
51CA
100
AcDbEntity
  8
DEFPOINTS
 62
     0
 48
3.0
100
AcDbPoint
 10
264.827349262188
 20
-265.7990039928608
 30
0.0
  0
ENDBLK
  5
51D5
330
51CA
100
AcDbEntity
  8
0
 48
3.0
100
AcDbBlockEnd
  0
BLOCK
  5
51D7
330
51D6
100
AcDbEntity
  8
0
 48
3.0
100
AcDbBlockBegin
  2
*D12
 70
     1
 10
0.0
 20
0.0
 30
0.0
  3
*D12
  1

  0
LINE
  5
51D8
330
51D6
100
AcDbEntity
  8
2寸法線
 62
     0
 48
3.0
370
    -2
100
AcDbLine
 10
288.9085468281787
 20
-278.8990039928609
 30
0.0
 11
263.8273492621879
 21
-278.8990039928609
 31
0.0
  0
LINE
  5
51D9
330
51D6
100
AcDbEntity
  8
2寸法線
 62
     0
 48
3.0
370
    -2
100
AcDbLine
 10
308.4085468281787
 20
-265.7990039928608
 30
0.0
 11
263.8273492621879
 21
-265.7990039928608
 31
0.0
  0
LINE
  5
51DA
330
51D6
100
AcDbEntity
  8
2寸法線
 62
     0
 48
3.0
370
    -2
100
AcDbLine
 10
264.8273492621878
 20
-277.0990039928609
 30
0.0
 11
264.8273492621878
 21
-267.5990039928608
 31
0.0
  0
INSERT
  5
51DB
330
51D6
100
AcDbEntity
  8
2寸法線
 62
     0
 48
3.0
370
    -2
100
AcDbBlockReference
  2
2
 10
264.8273492621878
 20
-278.8990039928609
 30
0.0
 41
1.8
 42
1.8
 43
1.8
 50
270.0
  0
INSERT
  5
51DC
330
51D6
100
AcDbEntity
  8
2寸法線
 62
     0
 48
3.0
370
    -2
100
AcDbBlockReference
  2
2
 10
264.8273492621878
 20
-265.7990039928608
 30
0.0
 41
1.8
 42
1.8
 43
1.8
 50
90.0
  0
MTEXT
  5
51DD
330
51D6
100
AcDbEntity
  8
2寸法線
 62
     0
 48
3.0
100
AcDbMText
 10
262.3273492621879
 20
-272.3490039928608
 30
0.0
 40
4.0
 41
0.0
 71
     5
 72
     1
  1
\A1;F
  7
KANJI
 11
0.0000000000000001
 21
1.0
 31
0.0
 73
     1
 44
1.0
1001
ACAD
1000
MTEXTBEGIN
1070
    73
1070
     1
1070
    44
1040
1.0
1070
    74
1070
     0
1000
MTEXTEND
  0
POINT
  5
51DE
330
51D6
100
AcDbEntity
  8
DEFPOINTS
 62
     0
 48
3.0
100
AcDbPoint
 10
289.9085468281787
 20
-278.8990039928609
 30
0.0
  0
POINT
  5
51DF
330
51D6
100
AcDbEntity
  8
DEFPOINTS
 62
     0
 48
3.0
100
AcDbPoint
 10
309.4085468281786
 20
-265.7990039928608
 30
0.0
  0
POINT
  5
51E0
330
51D6
100
AcDbEntity
  8
DEFPOINTS
 62
     0
 48
3.0
100
AcDbPoint
 10
264.8273492621878
 20
-265.7990039928608
 30
0.0
  0
ENDBLK
  5
51E1
330
51D6
100
AcDbEntity
  8
0
 48
3.0
100
AcDbBlockEnd
  0
BLOCK
  5
51E3
330
51E2
100
AcDbEntity
  8
0
 48
3.0
100
AcDbBlockBegin
  2
*D13
 70
     1
 10
0.0
 20
0.0
 30
0.0
  3
*D13
  1

  0
LINE
  5
51E4
330
51E2
100
AcDbEntity
  8
2寸法線
 62
     0
 48
3.0
370
    -2
100
AcDbLine
 10
342.2411706129585
 20
-293.596507272356
 30
0.0
 11
329.7411706129578
 21
-293.5965072723561
 31
0.0
  0
LINE
  5
51E5
330
51E2
100
AcDbEntity
  8
2寸法線
 62
     0
 48
3.0
370
    -2
100
AcDbLine
 10
329.7411706129578
 20
-293.5965072723561
 30
0.0
 11
311.219967598422
 21
-271.0992891546368
 31
0.0
  0
MTEXT
  5
51E6
330
51E2
100
AcDbEntity
  8
2寸法線
 62
     0
 48
3.0
100
AcDbMText
 10
336.2411706129585
 20
-291.0965072723561
 30
0.0
 40
4.0
 41
0.0
 71
     5
 72
     1
  1
\A1;%%c4.2
  7
KANJI
 73
     1
 44
1.0
1001
ACAD
1000
MTEXTBEGIN
1070
    73
1070
     1
1070
    44
1040
1.0
1070
    74
1070
     0
1000
MTEXTEND
  0
INSERT
  5
51E7
330
51E2
100
AcDbEntity
  8
2寸法線
 62
     0
 48
3.0
370
    -2
100
AcDbBlockReference
  2
2
 10
310.0759123751107
 20
-269.7096353682519
 30
0.0
 41
1.8
 42
1.8
 43
1.8
 50
129.4634780065413
  0
POINT
  5
51E8
330
51E2
100
AcDbEntity
  8
DEFPOINTS
 62
     0
 48
3.0
100
AcDbPoint
 10
310.0759123751107
 20
-269.7096353682519
 30
0.0
  0
POINT
  5
51E9
330
51E2
100
AcDbEntity
  8
DEFPOINTS
 62
     0
 48
3.0
100
AcDbPoint
 10
309.4085468281788
 20
-268.8990039928605
 30
0.0
  0
ENDBLK
  5
51EA
330
51E2
100
AcDbEntity
  8
0
 48
3.0
100
AcDbBlockEnd
  0
BLOCK
  5
51EC
330
51EB
100
AcDbEntity
  8
0
 48
3.0
100
AcDbBlockBegin
  2
*D14
 70
     1
 10
0.0
 20
0.0
 30
0.0
  3
*D14
  1

  0
LINE
  5
51ED
330
51EB
100
AcDbEntity
  8
2寸法線
 62
     0
 48
3.0
370
    -2
100
AcDbLine
 10
347.9763538630939
 20
-196.2059579549141
 30
0.0
 11
335.4763538630938
 21
-196.2059579549141
 31
0.0
  0
LINE
  5
51EE
330
51EB
100
AcDbEntity
  8
2寸法線
 62
     0
 48
3.0
370
    -2
100
AcDbLine
 10
335.4763538630938
 20
-196.2059579549141
 30
0.0
 11
312.1121766840362
 21
-203.9974023055746
 31
0.0
  0
MTEXT
  5
51EF
330
51EB
100
AcDbEntity
  8
2寸法線
 62
     0
 48
3.0
100
AcDbMText
 10
341.9763538630939
 20
-193.7059579549141
 30
0.0
 40
4.0
 41
0.0
 71
     5
 72
     1
  1
\A1;%%c4.2
  7
KANJI
 73
     1
 44
1.0
1001
ACAD
1000
MTEXTBEGIN
1070
    73
1070
     1
1070
    44
1040
1.0
1070
    74
1070
     0
1000
MTEXTEND
  0
INSERT
  5
51F0
330
51EB
100
AcDbEntity
  8
2寸法線
 62
     0
 48
3.0
370
    -2
100
AcDbBlockReference
  2
2
 10
310.4046209856001
 20
-204.5668349501764
 30
0.0
 41
1.8
 42
1.8
 43
1.8
 50
198.4424200472126
  0
POINT
  5
51F1
330
51EB
100
AcDbEntity
  8
DEFPOINTS
 62
     0
 48
3.0
100
AcDbPoint
 10
310.4046209856001
 20
-204.5668349501764
 30
0.0
  0
POINT
  5
51F2
330
51EB
100
AcDbEntity
  8
DEFPOINTS
 62
     0
 48
3.0
100
AcDbPoint
 10
309.4085468281788
 20
-204.899003992861
 30
0.0
  0
ENDBLK
  5
51F3
330
51EB
100
AcDbEntity
  8
0
 48
3.0
100
AcDbBlockEnd
  0
BLOCK
  5
5386
330
5385
100
AcDbEntity
  8
0
100
AcDbBlockBegin
  2
*D15
 70
     1
 10
0.0
 20
0.0
 30
0.0
  3
*D15
  1

  0
LINE
  5
541F
330
5385
100
AcDbEntity
  8
2寸法線
 62
     0
 48
3.0
370
    -2
100
AcDbLine
 10
854.346264217578
 20
121.0842669917859
 30
0.0
 11
854.346264217578
 21
165.4362525579308
 31
0.0
  0
LINE
  5
5420
330
5385
100
AcDbEntity
  8
2寸法線
 62
     0
 48
3.0
370
    -2
100
AcDbLine
 10
917.3462642175779
 20
121.0842669917859
 30
0.0
 11
917.3462642175779
 21
165.4362525579308
 31
0.0
  0
LINE
  5
5421
330
5385
100
AcDbEntity
  8
2寸法線
 62
     0
 48
3.0
370
    -2
100
AcDbLine
 10
856.1462642175781
 20
164.4362525579308
 30
0.0
 11
883.9176927890067
 21
164.4362525579308
 31
0.0
  0
LINE
  5
5422
330
5385
100
AcDbEntity
  8
2寸法線
 62
     0
 48
3.0
370
    -2
100
AcDbLine
 10
915.546264217578
 20
164.4362525579308
 30
0.0
 11
887.7748356461493
 21
164.4362525579308
 31
0.0
  0
MTEXT
  5
5423
330
5385
100
AcDbEntity
  8
2寸法線
 62
     0
 48
3.0
100
AcDbMText
 10
885.846264217578
 20
164.4362525579308
 30
0.0
 40
4.0
 41
0.0
 71
     5
 72
     1
  1
\A1;C
  7
KANJI
 73
     1
 44
1.0
1001
ACAD
1000
MTEXTBEGIN
1070
    73
1070
     1
1070
    44
1040
1.0
1070
    74
1070
     0
1000
MTEXTEND
  0
SOLID
  5
5424
330
5385
100
AcDbEntity
  8
2寸法線
 62
     0
 48
3.0
100
AcDbTrace
 10
856.1462642175781
 20
164.7362525579308
 30
0.0
 11
856.1462642175781
 21
164.1362525579308
 31
0.0
 12
854.346264217578
 22
164.4362525579308
 32
0.0
 13
854.346264217578
 23
164.4362525579308
 33
0.0
  0
SOLID
  5
5425
330
5385
100
AcDbEntity
  8
2寸法線
 62
     0
 48
3.0
100
AcDbTrace
 10
915.546264217578
 20
164.7362525579308
 30
0.0
 11
915.546264217578
 21
164.1362525579308
 31
0.0
 12
917.3462642175779
 22
164.4362525579308
 32
0.0
 13
917.3462642175779
 23
164.4362525579308
 33
0.0
  0
POINT
  5
5426
330
5385
100
AcDbEntity
  8
DEFPOINTS
 62
     0
 48
3.0
100
AcDbPoint
 10
854.346264217578
 20
120.0842669917859
 30
0.0
  0
POINT
  5
5427
330
5385
100
AcDbEntity
  8
DEFPOINTS
 62
     0
 48
3.0
100
AcDbPoint
 10
917.3462642175779
 20
120.0842669917859
 30
0.0
  0
POINT
  5
5428
330
5385
100
AcDbEntity
  8
DEFPOINTS
 62
     0
 48
3.0
100
AcDbPoint
 10
917.3462642175779
 20
164.4362525579308
 30
0.0
  0
ENDBLK
  5
5387
330
5385
100
AcDbEntity
  8
0
100
AcDbBlockEnd
  0
BLOCK
  5
5393
330
5392
100
AcDbEntity
  8
0
100
AcDbBlockBegin
  2
*D16
 70
     1
 10
0.0
 20
0.0
 30
0.0
  3
*D16
  1

  0
LINE
  5
5429
330
5392
100
AcDbEntity
  8
2寸法線
 62
     0
 48
3.0
370
    -2
100
AcDbLine
 10
886.8462642175783
 20
151.584266991786
 30
0.0
 11
931.7792235382995
 21
151.584266991786
 31
0.0
  0
LINE
  5
542A
330
5392
100
AcDbEntity
  8
2寸法線
 62
     0
 48
3.0
370
    -2
100
AcDbLine
 10
906.3462642175784
 20
74.58426699178598
 30
0.0
 11
931.7792235382995
 21
74.58426699178601
 31
0.0
  0
LINE
  5
542B
330
5392
100
AcDbEntity
  8
2寸法線
 62
     0
 48
3.0
370
    -2
100
AcDbLine
 10
930.7792235382995
 20
149.784266991786
 30
0.0
 11
930.7792235382995
 21
76.38426699178601
 31
0.0
  0
SOLID
  5
542C
330
5392
100
AcDbEntity
  8
2寸法線
 62
     0
 48
3.0
100
AcDbTrace
 10
930.4792235382995
 20
149.784266991786
 30
0.0
 11
931.0792235382995
 21
149.784266991786
 31
0.0
 12
930.7792235382995
 22
151.584266991786
 32
0.0
 13
930.7792235382995
 23
151.584266991786
 33
0.0
  0
SOLID
  5
542D
330
5392
100
AcDbEntity
  8
2寸法線
 62
     0
 48
3.0
100
AcDbTrace
 10
930.4792235382995
 20
76.38426699178601
 30
0.0
 11
931.0792235382995
 21
76.38426699178601
 31
0.0
 12
930.7792235382995
 22
74.58426699178601
 32
0.0
 13
930.7792235382995
 23
74.58426699178601
 33
0.0
  0
MTEXT
  5
542E
330
5392
100
AcDbEntity
  8
2寸法線
 62
     0
 48
3.0
100
AcDbMText
 10
928.2792235382995
 20
113.0842669917857
 30
0.0
 40
4.0
 41
0.0
 71
     5
 72
     1
  1
\A1;D
  7
KANJI
 11
0.0000000000000001
 21
1.0
 31
0.0
 73
     1
 44
1.0
1001
ACAD
1000
MTEXTBEGIN
1070
    73
1070
     1
1070
    44
1040
1.0
1070
    74
1070
     0
1000
MTEXTEND
  0
POINT
  5
542F
330
5392
100
AcDbEntity
  8
DEFPOINTS
 62
     0
 48
3.0
100
AcDbPoint
 10
885.8462642175783
 20
151.584266991786
 30
0.0
  0
POINT
  5
5430
330
5392
100
AcDbEntity
  8
DEFPOINTS
 62
     0
 48
3.0
100
AcDbPoint
 10
905.3462642175786
 20
74.58426699178598
 30
0.0
  0
POINT
  5
5431
330
5392
100
AcDbEntity
  8
DEFPOINTS
 62
     0
 48
3.0
100
AcDbPoint
 10
930.7792235382995
 20
74.58426699178601
 30
0.0
  0
ENDBLK
  5
5394
330
5392
100
AcDbEntity
  8
0
100
AcDbBlockEnd
  0
BLOCK
  5
539F
330
539E
100
AcDbEntity
  8
0
100
AcDbBlockBegin
  2
*D17
 70
     1
 10
0.0
 20
0.0
 30
0.0
  3
*D17
  1

  0
LINE
  5
5432
330
539E
100
AcDbEntity
  8
2寸法線
 62
     0
 48
3.0
370
    -2
100
AcDbLine
 10
966.7320580566046
 20
120.3303131558492
 30
0.0
 11
966.7320580566046
 21
165.4106771800431
 31
0.0
  0
LINE
  5
5433
330
539E
100
AcDbEntity
  8
2寸法線
 62
     0
 48
3.0
370
    -2
100
AcDbLine
 10
1003.482058056604
 20
152.5842669917858
 30
0.0
 11
1003.482058056604
 21
165.4106771800431
 31
0.0
  0
LINE
  5
5434
330
539E
100
AcDbEntity
  8
2寸法線
 62
     0
 48
3.0
370
    -2
100
AcDbLine
 10
968.5320580566047
 20
164.410677180043
 30
0.0
 11
983.3689628185092
 21
164.410677180043
 31
0.0
  0
LINE
  5
5435
330
539E
100
AcDbEntity
  8
2寸法線
 62
     0
 48
3.0
370
    -2
100
AcDbLine
 10
1001.682058056604
 20
164.410677180043
 30
0.0
 11
986.8451532946997
 21
164.410677180043
 31
0.0
  0
MTEXT
  5
5436
330
539E
100
AcDbEntity
  8
2寸法線
 62
     0
 48
3.0
100
AcDbMText
 10
985.1070580566046
 20
164.410677180043
 30
0.0
 40
4.0
 41
0.0
 71
     5
 72
     1
  1
\A1;E
  7
KANJI
 73
     1
 44
1.0
1001
ACAD
1000
MTEXTBEGIN
1070
    73
1070
     1
1070
    44
1040
1.0
1070
    74
1070
     0
1000
MTEXTEND
  0
SOLID
  5
5437
330
539E
100
AcDbEntity
  8
2寸法線
 62
     0
 48
3.0
100
AcDbTrace
 10
968.5320580566047
 20
164.7106771800431
 30
0.0
 11
968.5320580566047
 21
164.1106771800431
 31
0.0
 12
966.7320580566046
 22
164.410677180043
 32
0.0
 13
966.7320580566046
 23
164.410677180043
 33
0.0
  0
SOLID
  5
5438
330
539E
100
AcDbEntity
  8
2寸法線
 62
     0
 48
3.0
100
AcDbTrace
 10
1001.682058056604
 20
164.7106771800431
 30
0.0
 11
1001.682058056604
 21
164.1106771800431
 31
0.0
 12
1003.482058056604
 22
164.410677180043
 32
0.0
 13
1003.482058056604
 23
164.410677180043
 33
0.0
  0
POINT
  5
5439
330
539E
100
AcDbEntity
  8
DEFPOINTS
 62
     0
 48
3.0
100
AcDbPoint
 10
966.7320580566046
 20
119.3303131558492
 30
0.0
  0
POINT
  5
543A
330
539E
100
AcDbEntity
  8
DEFPOINTS
 62
     0
 48
3.0
100
AcDbPoint
 10
1003.482058056604
 20
151.5842669917858
 30
0.0
  0
POINT
  5
543B
330
539E
100
AcDbEntity
  8
DEFPOINTS
 62
     0
 48
3.0
100
AcDbPoint
 10
1003.482058056604
 20
164.410677180043
 30
0.0
  0
ENDBLK
  5
53A0
330
539E
100
AcDbEntity
  8
0
100
AcDbBlockEnd
  0
BLOCK
  5
53AC
330
53AB
100
AcDbEntity
  8
0
100
AcDbBlockBegin
  2
*D18
 70
     1
 10
0.0
 20
0.0
 30
0.0
  3
*D18
  1

  0
LINE
  5
543C
330
53AB
100
AcDbEntity
  8
2寸法線
 62
     0
 48
3.0
370
    -2
100
AcDbLine
 10
1103.98639352882
 20
74.58426699178594
 30
0.0
 11
1132.501787014554
 21
74.58426699178595
 31
0.0
  0
LINE
  5
543D
330
53AB
100
AcDbEntity
  8
2寸法線
 62
     0
 48
3.0
370
    -2
100
AcDbLine
 10
1084.486393528821
 20
84.584266991786
 30
0.0
 11
1132.501787014554
 21
84.584266991786
 31
0.0
  0
LINE
  5
543E
330
53AB
100
AcDbEntity
  8
2寸法線
 62
     0
 48
3.0
370
    -2
100
AcDbLine
 10
1131.501787014554
 20
76.38426699178594
 30
0.0
 11
1131.501787014554
 21
82.784266991786
 31
0.0
  0
MTEXT
  5
543F
330
53AB
100
AcDbEntity
  8
2寸法線
 62
     0
 48
3.0
100
AcDbMText
 10
1131.501787014553
 20
65.77801108493829
 30
0.0
 40
4.0
 41
0.0
 71
     5
 72
     1
  1
\A1;20
  7
KANJI
 11
0.0000000000000001
 21
1.0
 31
0.0
 73
     1
 44
1.0
1001
ACAD
1000
MTEXTBEGIN
1070
    73
1070
     1
1070
    44
1040
1.0
1070
    74
1070
     0
1000
MTEXTEND
  0
SOLID
  5
5440
330
53AB
100
AcDbEntity
  8
2寸法線
 62
     0
 48
3.0
100
AcDbTrace
 10
1131.201787014554
 20
76.38426699178594
 30
0.0
 11
1131.801787014554
 21
76.38426699178594
 31
0.0
 12
1131.501787014554
 22
74.58426699178595
 32
0.0
 13
1131.501787014554
 23
74.58426699178595
 33
0.0
  0
SOLID
  5
5441
330
53AB
100
AcDbEntity
  8
2寸法線
 62
     0
 48
3.0
100
AcDbTrace
 10
1131.201787014554
 20
82.784266991786
 30
0.0
 11
1131.801787014554
 21
82.784266991786
 31
0.0
 12
1131.501787014554
 22
84.584266991786
 32
0.0
 13
1131.501787014554
 23
84.584266991786
 33
0.0
  0
POINT
  5
5442
330
53AB
100
AcDbEntity
  8
DEFPOINTS
 62
     0
 48
3.0
100
AcDbPoint
 10
1102.986393528821
 20
74.58426699178594
 30
0.0
  0
POINT
  5
5443
330
53AB
100
AcDbEntity
  8
DEFPOINTS
 62
     0
 48
3.0
100
AcDbPoint
 10
1083.486393528821
 20
84.584266991786
 30
0.0
  0
POINT
  5
5444
330
53AB
100
AcDbEntity
  8
DEFPOINTS
 62
     0
 48
3.0
100
AcDbPoint
 10
1131.501787014554
 20
84.584266991786
 30
0.0
  0
ENDBLK
  5
53AD
330
53AB
100
AcDbEntity
  8
0
100
AcDbBlockEnd
  0
BLOCK
  5
53B8
330
53B7
100
AcDbEntity
  8
0
100
AcDbBlockBegin
  2
*D19
 70
     1
 10
0.0
 20
0.0
 30
0.0
  3
*D19
  1

  0
LINE
  5
5445
330
53B7
100
AcDbEntity
  8
2寸法線
 62
     0
 48
3.0
370
    -2
100
AcDbLine
 10
1064.48639352882
 20
121.0842669917859
 30
0.0
 11
1064.48639352882
 21
165.3517689139248
 31
0.0
  0
LINE
  5
5446
330
53B7
100
AcDbEntity
  8
2寸法線
 62
     0
 48
3.0
370
    -2
100
AcDbLine
 10
1102.48639352882
 20
121.0842669917859
 30
0.0
 11
1102.48639352882
 21
165.3517689139248
 31
0.0
  0
LINE
  5
5447
330
53B7
100
AcDbEntity
  8
2寸法線
 62
     0
 48
3.0
370
    -2
100
AcDbLine
 10
1066.28639352882
 20
164.3517689139248
 30
0.0
 11
1081.653060195487
 21
164.3517689139248
 31
0.0
  0
LINE
  5
5448
330
53B7
100
AcDbEntity
  8
2寸法線
 62
     0
 48
3.0
370
    -2
100
AcDbLine
 10
1100.68639352882
 20
164.3517689139248
 30
0.0
 11
1085.319726862153
 21
164.3517689139248
 31
0.0
  0
MTEXT
  5
5449
330
53B7
100
AcDbEntity
  8
2寸法線
 62
     0
 48
3.0
100
AcDbMText
 10
1083.48639352882
 20
164.3517689139248
 30
0.0
 40
4.0
 41
0.0
 71
     5
 72
     1
  1
\A1;H
  7
KANJI
 73
     1
 44
1.0
1001
ACAD
1000
MTEXTBEGIN
1070
    73
1070
     1
1070
    44
1040
1.0
1070
    74
1070
     0
1000
MTEXTEND
  0
SOLID
  5
544A
330
53B7
100
AcDbEntity
  8
2寸法線
 62
     0
 48
3.0
100
AcDbTrace
 10
1066.28639352882
 20
164.6517689139248
 30
0.0
 11
1066.28639352882
 21
164.0517689139248
 31
0.0
 12
1064.48639352882
 22
164.3517689139248
 32
0.0
 13
1064.48639352882
 23
164.3517689139248
 33
0.0
  0
SOLID
  5
544B
330
53B7
100
AcDbEntity
  8
2寸法線
 62
     0
 48
3.0
100
AcDbTrace
 10
1100.68639352882
 20
164.6517689139248
 30
0.0
 11
1100.68639352882
 21
164.0517689139248
 31
0.0
 12
1102.48639352882
 22
164.3517689139248
 32
0.0
 13
1102.48639352882
 23
164.3517689139248
 33
0.0
  0
POINT
  5
544C
330
53B7
100
AcDbEntity
  8
DEFPOINTS
 62
     0
 48
3.0
100
AcDbPoint
 10
1064.48639352882
 20
120.0842669917859
 30
0.0
  0
POINT
  5
544D
330
53B7
100
AcDbEntity
  8
DEFPOINTS
 62
     0
 48
3.0
100
AcDbPoint
 10
1102.48639352882
 20
120.0842669917859
 30
0.0
  0
POINT
  5
544E
330
53B7
100
AcDbEntity
  8
DEFPOINTS
 62
     0
 48
3.0
100
AcDbPoint
 10
1102.48639352882
 20
164.3517689139248
 30
0.0
  0
ENDBLK
  5
53B9
330
53B7
100
AcDbEntity
  8
0
100
AcDbBlockEnd
  0
BLOCK
  5
53C5
330
53C4
100
AcDbEntity
  8
0
100
AcDbBlockBegin
  2
*D20
 70
     1
 10
0.0
 20
0.0
 30
0.0
  3
*D20
  1

  0
LINE
  5
544F
330
53C4
100
AcDbEntity
  8
2寸法線
 62
     0
 48
3.0
370
    -2
100
AcDbLine
 10
1082.486393528821
 20
139.084266991786
 30
0.0
 11
1037.90519596283
 21
139.084266991786
 31
0.0
  0
LINE
  5
5450
330
53C4
100
AcDbEntity
  8
2寸法線
 62
     0
 48
3.0
370
    -2
100
AcDbLine
 10
1082.486393528821
 20
87.68426699178611
 30
0.0
 11
1037.90519596283
 21
87.68426699178611
 31
0.0
  0
LINE
  5
5451
330
53C4
100
AcDbEntity
  8
2寸法線
 62
     0
 48
3.0
370
    -2
100
AcDbLine
 10
1038.90519596283
 20
137.284266991786
 30
0.0
 11
1038.90519596283
 21
89.48426699178611
 31
0.0
  0
SOLID
  5
5452
330
53C4
100
AcDbEntity
  8
2寸法線
 62
     0
 48
3.0
100
AcDbTrace
 10
1038.60519596283
 20
137.284266991786
 30
0.0
 11
1039.20519596283
 21
137.284266991786
 31
0.0
 12
1038.90519596283
 22
139.084266991786
 32
0.0
 13
1038.90519596283
 23
139.084266991786
 33
0.0
  0
SOLID
  5
5453
330
53C4
100
AcDbEntity
  8
2寸法線
 62
     0
 48
3.0
100
AcDbTrace
 10
1038.60519596283
 20
89.48426699178611
 30
0.0
 11
1039.20519596283
 21
89.48426699178611
 31
0.0
 12
1038.90519596283
 22
87.68426699178611
 32
0.0
 13
1038.90519596283
 23
87.68426699178611
 33
0.0
  0
MTEXT
  5
5454
330
53C4
100
AcDbEntity
  8
2寸法線
 62
     0
 48
3.0
100
AcDbMText
 10
1036.40519596283
 20
113.3842669917857
 30
0.0
 40
4.0
 41
0.0
 71
     5
 72
     1
  1
\A1;G
  7
KANJI
 11
0.0000000000000001
 21
1.0
 31
0.0
 73
     1
 44
1.0
1001
ACAD
1000
MTEXTBEGIN
1070
    73
1070
     1
1070
    44
1040
1.0
1070
    74
1070
     0
1000
MTEXTEND
  0
POINT
  5
5455
330
53C4
100
AcDbEntity
  8
DEFPOINTS
 62
     0
 48
3.0
100
AcDbPoint
 10
1083.486393528821
 20
139.084266991786
 30
0.0
  0
POINT
  5
5456
330
53C4
100
AcDbEntity
  8
DEFPOINTS
 62
     0
 48
3.0
100
AcDbPoint
 10
1083.486393528821
 20
87.68426699178611
 30
0.0
  0
POINT
  5
5457
330
53C4
100
AcDbEntity
  8
DEFPOINTS
 62
     0
 48
3.0
100
AcDbPoint
 10
1038.90519596283
 20
87.68426699178611
 30
0.0
  0
ENDBLK
  5
53C6
330
53C4
100
AcDbEntity
  8
0
100
AcDbBlockEnd
  0
BLOCK
  5
53D1
330
53D0
100
AcDbEntity
  8
0
100
AcDbBlockBegin
  2
*D21
 70
     1
 10
0.0
 20
0.0
 30
0.0
  3
*D21
  1

  0
LINE
  5
5458
330
53D0
100
AcDbEntity
  8
2寸法線
 62
     0
 48
3.0
370
    -2
100
AcDbLine
 10
1062.986393528821
 20
74.58426699178598
 30
0.0
 11
1037.90519596283
 21
74.58426699178598
 31
0.0
  0
LINE
  5
5459
330
53D0
100
AcDbEntity
  8
2寸法線
 62
     0
 48
3.0
370
    -2
100
AcDbLine
 10
1082.486393528821
 20
87.68426699178611
 30
0.0
 11
1037.90519596283
 21
87.68426699178611
 31
0.0
  0
LINE
  5
545A
330
53D0
100
AcDbEntity
  8
2寸法線
 62
     0
 48
3.0
370
    -2
100
AcDbLine
 10
1038.90519596283
 20
76.38426699178598
 30
0.0
 11
1038.90519596283
 21
79.39617175369109
 31
0.0
  0
LINE
  5
545B
330
53D0
100
AcDbEntity
  8
2寸法線
 62
     0
 48
3.0
370
    -2
100
AcDbLine
 10
1038.90519596283
 20
85.88426699178612
 30
0.0
 11
1038.90519596283
 21
82.87236222988155
 31
0.0
  0
MTEXT
  5
545C
330
53D0
100
AcDbEntity
  8
2寸法線
 62
     0
 48
3.0
100
AcDbMText
 10
1038.905195962829
 20
81.13426699178603
 30
0.0
 40
4.0
 41
0.0
 71
     5
 72
     1
  1
\A1;F
  7
KANJI
 11
0.0000000000000001
 21
1.0
 31
0.0
 73
     1
 44
1.0
1001
ACAD
1000
MTEXTBEGIN
1070
    73
1070
     1
1070
    44
1040
1.0
1070
    74
1070
     0
1000
MTEXTEND
  0
SOLID
  5
545D
330
53D0
100
AcDbEntity
  8
2寸法線
 62
     0
 48
3.0
100
AcDbTrace
 10
1038.60519596283
 20
76.38426699178598
 30
0.0
 11
1039.20519596283
 21
76.38426699178598
 31
0.0
 12
1038.90519596283
 22
74.58426699178598
 32
0.0
 13
1038.90519596283
 23
74.58426699178598
 33
0.0
  0
SOLID
  5
545E
330
53D0
100
AcDbEntity
  8
2寸法線
 62
     0
 48
3.0
100
AcDbTrace
 10
1038.60519596283
 20
85.88426699178612
 30
0.0
 11
1039.20519596283
 21
85.88426699178612
 31
0.0
 12
1038.90519596283
 22
87.68426699178611
 32
0.0
 13
1038.90519596283
 23
87.68426699178611
 33
0.0
  0
POINT
  5
545F
330
53D0
100
AcDbEntity
  8
DEFPOINTS
 62
     0
 48
3.0
100
AcDbPoint
 10
1063.98639352882
 20
74.58426699178598
 30
0.0
  0
POINT
  5
5460
330
53D0
100
AcDbEntity
  8
DEFPOINTS
 62
     0
 48
3.0
100
AcDbPoint
 10
1083.486393528821
 20
87.68426699178611
 30
0.0
  0
POINT
  5
5461
330
53D0
100
AcDbEntity
  8
DEFPOINTS
 62
     0
 48
3.0
100
AcDbPoint
 10
1038.90519596283
 20
87.68426699178611
 30
0.0
  0
ENDBLK
  5
53D2
330
53D0
100
AcDbEntity
  8
0
100
AcDbBlockEnd
  0
BLOCK
  5
53DE
330
53DD
100
AcDbEntity
  8
0
100
AcDbBlockBegin
  2
*D22
 70
     1
 10
0.0
 20
0.0
 30
0.0
  3
*D22
  1

  0
LINE
  5
5462
330
53DD
100
AcDbEntity
  8
2寸法線
 62
     0
 48
3.0
370
    -2
100
AcDbLine
 10
1116.319017313601
 20
59.88676371229075
 30
0.0
 11
1103.819017313601
 21
59.88676371229071
 31
0.0
  0
LINE
  5
5463
330
53DD
100
AcDbEntity
  8
2寸法線
 62
     0
 48
3.0
370
    -2
100
AcDbLine
 10
1103.819017313601
 20
59.88676371229071
 30
0.0
 11
1085.297814299063
 21
82.38398183001015
 31
0.0
  0
MTEXT
  5
5464
330
53DD
100
AcDbEntity
  8
2寸法線
 62
     0
 48
3.0
100
AcDbMText
 10
1110.319017313601
 20
62.38676371229082
 30
0.0
 40
4.0
 41
0.0
 71
     5
 72
     1
  1
\A1;%%c4.2
  7
KANJI
 73
     1
 44
1.0
1001
ACAD
1000
MTEXTBEGIN
1070
    73
1070
     1
1070
    44
1040
1.0
1070
    74
1070
     0
1000
MTEXTEND
  0
INSERT
  5
5465
330
53DD
100
AcDbEntity
  8
2寸法線
 62
     0
 48
3.0
370
    -2
100
AcDbBlockReference
  2
2
 10
1084.153759075752
 20
83.77363561639494
 30
0.0
 41
1.8
 42
1.8
 43
1.8
 50
129.4634780065441
  0
POINT
  5
5466
330
53DD
100
AcDbEntity
  8
DEFPOINTS
 62
     0
 48
3.0
100
AcDbPoint
 10
1084.153759075752
 20
83.77363561639494
 30
0.0
  0
POINT
  5
5467
330
53DD
100
AcDbEntity
  8
DEFPOINTS
 62
     0
 48
3.0
100
AcDbPoint
 10
1083.48639352882
 20
84.58426699178643
 30
0.0
  0
ENDBLK
  5
53DF
330
53DD
100
AcDbEntity
  8
0
100
AcDbBlockEnd
  0
BLOCK
  5
53E7
330
53E6
100
AcDbEntity
  8
0
100
AcDbBlockBegin
  2
*D23
 70
     1
 10
0.0
 20
0.0
 30
0.0
  3
*D23
  1

  0
LINE
  5
5468
330
53E6
100
AcDbEntity
  8
2寸法線
 62
     0
 48
3.0
370
    -2
100
AcDbLine
 10
1122.054200563735
 20
157.2773130297328
 30
0.0
 11
1109.554200563732
 21
157.2773130297328
 31
0.0
  0
LINE
  5
5469
330
53E6
100
AcDbEntity
  8
2寸法線
 62
     0
 48
3.0
370
    -2
100
AcDbLine
 10
1109.554200563732
 20
157.2773130297328
 30
0.0
 11
1086.190023384677
 21
149.4858686790723
 31
0.0
  0
MTEXT
  5
546A
330
53E6
100
AcDbEntity
  8
2寸法線
 62
     0
 48
3.0
100
AcDbMText
 10
1116.054200563736
 20
159.7773130297328
 30
0.0
 40
4.0
 41
0.0
 71
     5
 72
     1
  1
\A1;%%c4.2
  7
KANJI
 73
     1
 44
1.0
1001
ACAD
1000
MTEXTBEGIN
1070
    73
1070
     1
1070
    44
1040
1.0
1070
    74
1070
     0
1000
MTEXTEND
  0
INSERT
  5
546B
330
53E6
100
AcDbEntity
  8
2寸法線
 62
     0
 48
3.0
370
    -2
100
AcDbBlockReference
  2
2
 10
1084.482467686242
 20
148.9164360344704
 30
0.0
 41
1.8
 42
1.8
 43
1.8
 50
198.4424200472151
  0
POINT
  5
546C
330
53E6
100
AcDbEntity
  8
DEFPOINTS
 62
     0
 48
3.0
100
AcDbPoint
 10
1084.482467686242
 20
148.9164360344704
 30
0.0
  0
POINT
  5
546D
330
53E6
100
AcDbEntity
  8
DEFPOINTS
 62
     0
 48
3.0
100
AcDbPoint
 10
1083.48639352882
 20
148.5842669917859
 30
0.0
  0
ENDBLK
  5
53E8
330
53E6
100
AcDbEntity
  8
0
100
AcDbBlockEnd
  0
BLOCK
  5
53F0
330
53EF
100
AcDbEntity
  8
0
100
AcDbBlockBegin
  2
*D24
 70
     1
 10
0.0
 20
0.0
 30
0.0
  3
*D24
  1

  0
LINE
  5
546E
330
53EF
100
AcDbEntity
  8
2寸法線
 62
     0
 48
3.0
370
    -2
100
AcDbLine
 10
865.9460966567293
 20
1.403768860222498
 30
0.0
 11
865.9460966567293
 21
-10.67887535273951
 31
0.0
  0
LINE
  5
546F
330
53EF
100
AcDbEntity
  8
2寸法線
 62
     0
 48
3.0
370
    -2
100
AcDbLine
 10
905.7464317784262
 20
1.403768860222498
 30
0.0
 11
905.7464317784262
 21
-10.67887535273951
 31
0.0
  0
LINE
  5
5470
330
53EF
100
AcDbEntity
  8
2寸法線
 62
     0
 48
3.0
370
    -2
100
AcDbLine
 10
867.7460966567293
 20
-9.67887535273951
 30
0.0
 11
903.9464317784263
 21
-9.67887535273951
 31
0.0
  0
SOLID
  5
5471
330
53EF
100
AcDbEntity
  8
2寸法線
 62
     0
 48
3.0
100
AcDbTrace
 10
867.7460966567293
 20
-9.378875352739507
 30
0.0
 11
867.7460966567293
 21
-9.978875352739509
 31
0.0
 12
865.9460966567293
 22
-9.67887535273951
 32
0.0
 13
865.9460966567293
 23
-9.67887535273951
 33
0.0
  0
SOLID
  5
5472
330
53EF
100
AcDbEntity
  8
2寸法線
 62
     0
 48
3.0
100
AcDbTrace
 10
903.9464317784263
 20
-9.378875352739507
 30
0.0
 11
903.9464317784263
 21
-9.978875352739509
 31
0.0
 12
905.7464317784262
 22
-9.67887535273951
 32
0.0
 13
905.7464317784262
 23
-9.67887535273951
 33
0.0
  0
MTEXT
  5
5473
330
53EF
100
AcDbEntity
  8
2寸法線
 62
     0
 48
3.0
100
AcDbMText
 10
885.8462642175778
 20
-7.178875352739509
 30
0.0
 40
4.0
 41
0.0
 71
     5
 72
     1
  1
\A1;A
  7
KANJI
 73
     1
 44
1.0
1001
ACAD
1000
MTEXTBEGIN
1070
    73
1070
     1
1070
    44
1040
1.0
1070
    74
1070
     0
1000
MTEXTEND
  0
POINT
  5
5474
330
53EF
100
AcDbEntity
  8
DEFPOINTS
 62
     0
 48
3.0
100
AcDbPoint
 10
865.9460966567293
 20
2.403768860222498
 30
0.0
  0
POINT
  5
5475
330
53EF
100
AcDbEntity
  8
DEFPOINTS
 62
     0
 48
3.0
100
AcDbPoint
 10
905.7464317784262
 20
2.403768860222498
 30
0.0
  0
POINT
  5
5476
330
53EF
100
AcDbEntity
  8
DEFPOINTS
 62
     0
 48
3.0
100
AcDbPoint
 10
905.7464317784262
 20
-9.67887535273951
 30
0.0
  0
ENDBLK
  5
53F1
330
53EF
100
AcDbEntity
  8
0
100
AcDbBlockEnd
  0
BLOCK
  5
53FC
330
53FB
100
AcDbEntity
  8
0
100
AcDbBlockBegin
  2
*D25
 70
     1
 10
0.0
 20
0.0
 30
0.0
  3
*D25
  1

  0
LINE
  5
5477
330
53FB
100
AcDbEntity
  8
2寸法線
 62
     0
 48
3.0
370
    -2
100
AcDbLine
 10
918.3462642175785
 20
2.403768860222498
 30
0.0
 11
931.9531055014246
 21
2.403768860222502
 31
0.0
  0
LINE
  5
5478
330
53FB
100
AcDbEntity
  8
2寸法線
 62
     0
 48
3.0
370
    -2
100
AcDbLine
 10
899.108024441713
 20
37.30376886022261
 30
0.0
 11
931.9531055014246
 21
37.30376886022261
 31
0.0
  0
LINE
  5
5479
330
53FB
100
AcDbEntity
  8
2寸法線
 62
     0
 48
3.0
370
    -2
100
AcDbLine
 10
930.9531055014247
 20
4.203768860222501
 30
0.0
 11
930.9531055014247
 21
35.50376886022262
 31
0.0
  0
SOLID
  5
547A
330
53FB
100
AcDbEntity
  8
2寸法線
 62
     0
 48
3.0
100
AcDbTrace
 10
930.6531055014247
 20
4.203768860222501
 30
0.0
 11
931.2531055014247
 21
4.203768860222501
 31
0.0
 12
930.9531055014247
 22
2.4037688602225
 32
0.0
 13
930.9531055014247
 23
2.4037688602225
 33
0.0
  0
SOLID
  5
547B
330
53FB
100
AcDbEntity
  8
2寸法線
 62
     0
 48
3.0
100
AcDbTrace
 10
930.6531055014247
 20
35.50376886022262
 30
0.0
 11
931.2531055014247
 21
35.50376886022262
 31
0.0
 12
930.9531055014247
 22
37.30376886022261
 32
0.0
 13
930.9531055014247
 23
37.30376886022261
 33
0.0
  0
MTEXT
  5
547C
330
53FB
100
AcDbEntity
  8
2寸法線
 62
     0
 48
3.0
100
AcDbMText
 10
928.4531055014243
 20
19.85376886022229
 30
0.0
 40
4.0
 41
0.0
 71
     5
 72
     1
  1
\A1;B
  7
KANJI
 11
0.0000000000000001
 21
1.0
 31
0.0
 73
     1
 44
1.0
1001
ACAD
1000
MTEXTBEGIN
1070
    73
1070
     1
1070
    44
1040
1.0
1070
    74
1070
     0
1000
MTEXTEND
  0
POINT
  5
547D
330
53FB
100
AcDbEntity
  8
DEFPOINTS
 62
     0
 48
3.0
100
AcDbPoint
 10
917.3462642175785
 20
2.403768860222498
 30
0.0
  0
POINT
  5
547E
330
53FB
100
AcDbEntity
  8
DEFPOINTS
 62
     0
 48
3.0
100
AcDbPoint
 10
898.1080244417128
 20
37.30376886022261
 30
0.0
  0
POINT
  5
547F
330
53FB
100
AcDbEntity
  8
DEFPOINTS
 62
     0
 48
3.0
100
AcDbPoint
 10
930.9531055014247
 20
37.30376886022261
 30
0.0
  0
ENDBLK
  5
53FD
330
53FB
100
AcDbEntity
  8
0
100
AcDbBlockEnd
  0
BLOCK
  5
5408
330
5407
100
AcDbEntity
  8
0
100
AcDbBlockBegin
  2
*D26
 70
     1
 10
0.0
 20
0.0
 30
0.0
  3
*D26
  1

  0
LINE
  5
5480
330
5407
100
AcDbEntity
  8
2寸法線
 62
     0
 48
3.0
370
    -2
100
AcDbLine
 10
1004.482058056605
 20
74.58426699178598
 30
0.0
 11
1017.88744354871
 21
74.58426699178598
 31
0.0
  0
LINE
  5
5481
330
5407
100
AcDbEntity
  8
2寸法線
 62
     0
 48
3.0
370
    -2
100
AcDbLine
 10
1004.482058056605
 20
82.08426699178588
 30
0.0
 11
1017.88744354871
 21
82.08426699178588
 31
0.0
  0
LINE
  5
5482
330
5407
100
AcDbEntity
  8
2寸法線
 62
     0
 48
3.0
370
    -2
100
AcDbLine
 10
1016.88744354871
 20
76.38426699178598
 30
0.0
 11
1016.88744354871
 21
80.28426699178588
 31
0.0
  0
MTEXT
  5
5483
330
5407
100
AcDbEntity
  8
2寸法線
 62
     0
 48
3.0
100
AcDbMText
 10
1016.887443548709
 20
66.11360578725044
 30
0.0
 40
4.0
 41
0.0
 71
     5
 72
     1
  1
\A1;15
  7
KANJI
 11
0.0000000000000001
 21
1.0
 31
0.0
 73
     1
 44
1.0
1001
ACAD
1000
MTEXTBEGIN
1070
    73
1070
     1
1070
    44
1040
1.0
1070
    74
1070
     0
1000
MTEXTEND
  0
SOLID
  5
5484
330
5407
100
AcDbEntity
  8
2寸法線
 62
     0
 48
3.0
100
AcDbTrace
 10
1016.58744354871
 20
76.38426699178598
 30
0.0
 11
1017.18744354871
 21
76.38426699178598
 31
0.0
 12
1016.88744354871
 22
74.58426699178598
 32
0.0
 13
1016.88744354871
 23
74.58426699178598
 33
0.0
  0
SOLID
  5
5485
330
5407
100
AcDbEntity
  8
2寸法線
 62
     0
 48
3.0
100
AcDbTrace
 10
1016.58744354871
 20
80.28426699178588
 30
0.0
 11
1017.18744354871
 21
80.28426699178588
 31
0.0
 12
1016.88744354871
 22
82.08426699178588
 32
0.0
 13
1016.88744354871
 23
82.08426699178588
 33
0.0
  0
POINT
  5
5486
330
5407
100
AcDbEntity
  8
DEFPOINTS
 62
     0
 48
3.0
100
AcDbPoint
 10
1003.482058056605
 20
74.58426699178598
 30
0.0
  0
POINT
  5
5487
330
5407
100
AcDbEntity
  8
DEFPOINTS
 62
     0
 48
3.0
100
AcDbPoint
 10
1003.482058056605
 20
82.08426699178588
 30
0.0
  0
POINT
  5
5488
330
5407
100
AcDbEntity
  8
DEFPOINTS
 62
     0
 48
3.0
100
AcDbPoint
 10
1016.88744354871
 20
82.08426699178588
 30
0.0
  0
ENDBLK
  5
5409
330
5407
100
AcDbEntity
  8
0
100
AcDbBlockEnd
  0
BLOCK
  5
5414
330
5413
100
AcDbEntity
  8
0
100
AcDbBlockBegin
  2
*D27
 70
     1
 10
0.0
 20
0.0
 30
0.0
  3
*D27
  1

  0
LINE
  5
5489
330
5413
100
AcDbEntity
  8
2寸法線
 62
     0
 48
3.0
370
    -2
100
AcDbLine
 10
1084.486393528821
 20
84.58426699178636
 30
0.0
 11
1132.501787014554
 21
84.58426699178636
 31
0.0
  0
LINE
  5
548A
330
5413
100
AcDbEntity
  8
2寸法線
 62
     0
 48
3.0
370
    -2
100
AcDbLine
 10
1084.486393528821
 20
148.5842669917859
 30
0.0
 11
1132.501787014554
 21
148.5842669917859
 31
0.0
  0
LINE
  5
548B
330
5413
100
AcDbEntity
  8
2寸法線
 62
     0
 48
3.0
370
    -2
100
AcDbLine
 10
1131.501787014554
 20
86.38426699178635
 30
0.0
 11
1131.501787014554
 21
146.7842669917859
 31
0.0
  0
SOLID
  5
548C
330
5413
100
AcDbEntity
  8
2寸法線
 62
     0
 48
3.0
100
AcDbTrace
 10
1131.201787014554
 20
86.38426699178635
 30
0.0
 11
1131.801787014554
 21
86.38426699178635
 31
0.0
 12
1131.501787014554
 22
84.58426699178636
 32
0.0
 13
1131.501787014554
 23
84.58426699178636
 33
0.0
  0
SOLID
  5
548D
330
5413
100
AcDbEntity
  8
2寸法線
 62
     0
 48
3.0
100
AcDbTrace
 10
1131.201787014554
 20
146.7842669917859
 30
0.0
 11
1131.801787014554
 21
146.7842669917859
 31
0.0
 12
1131.501787014554
 22
148.5842669917859
 32
0.0
 13
1131.501787014554
 23
148.5842669917859
 33
0.0
  0
MTEXT
  5
548E
330
5413
100
AcDbEntity
  8
2寸法線
 62
     0
 48
3.0
100
AcDbMText
 10
1129.001787014553
 20
116.5842669917858
 30
0.0
 40
4.0
 41
0.0
 71
     5
 72
     1
  1
\A1;I
  7
KANJI
 11
0.0000000000000001
 21
1.0
 31
0.0
 73
     1
 44
1.0
1001
ACAD
1000
MTEXTBEGIN
1070
    73
1070
     1
1070
    44
1040
1.0
1070
    74
1070
     0
1000
MTEXTEND
  0
POINT
  5
548F
330
5413
100
AcDbEntity
  8
DEFPOINTS
 62
     0
 48
3.0
100
AcDbPoint
 10
1083.486393528821
 20
84.58426699178636
 30
0.0
  0
POINT
  5
5490
330
5413
100
AcDbEntity
  8
DEFPOINTS
 62
     0
 48
3.0
100
AcDbPoint
 10
1083.486393528821
 20
148.5842669917859
 30
0.0
  0
POINT
  5
5491
330
5413
100
AcDbEntity
  8
DEFPOINTS
 62
     0
 48
3.0
100
AcDbPoint
 10
1131.501787014554
 20
148.5842669917859
 30
0.0
  0
ENDBLK
  5
5415
330
5413
100
AcDbEntity
  8
0
100
AcDbBlockEnd
  0
BLOCK
  5
5494
330
5493
100
AcDbEntity
  8
0
100
AcDbBlockBegin
  2
*D28
 70
     1
 10
0.0
 20
0.0
 30
0.0
  3
*D28
  1

  0
LINE
  5
550F
330
5493
100
AcDbEntity
  8
2寸法線
 62
     0
370
    -2
100
AcDbLine
 10
615.1890072765767
 20
139.091300785524
 30
0.0
 11
615.1890072765767
 21
231.8108011116546
 31
0.0
  0
LINE
  5
5510
330
5493
100
AcDbEntity
  8
2寸法線
 62
     0
370
    -2
100
AcDbLine
 10
686.689007276577
 20
203.5992084573974
 30
0.0
 11
686.689007276577
 21
231.8108011116546
 31
0.0
  0
LINE
  5
5511
330
5493
100
AcDbEntity
  8
2寸法線
 62
     0
370
    -2
100
AcDbLine
 10
616.9890072765768
 20
230.8108011116547
 30
0.0
 11
684.889007276577
 21
230.8108011116547
 31
0.0
  0
INSERT
  5
5512
330
5493
100
AcDbEntity
  8
2寸法線
 62
     0
370
    -2
100
AcDbBlockReference
  2
2
 10
615.1890072765767
 20
230.8108011116547
 30
0.0
 41
1.8
 42
1.8
 43
1.8
 50
180.0
  0
INSERT
  5
5513
330
5493
100
AcDbEntity
  8
2寸法線
 62
     0
370
    -2
100
AcDbBlockReference
  2
2
 10
686.689007276577
 20
230.8108011116547
 30
0.0
 41
1.8
 42
1.8
 43
1.8
  0
MTEXT
  5
5514
330
5493
100
AcDbEntity
  8
2寸法線
 62
     0
100
AcDbMText
 10
650.9390072765767
 20
232.5608011116547
 30
0.0
 40
2.5
 41
0.0
 71
     5
 72
     1
  1
\A1;71.5
 73
     1
 44
1.0
1001
ACAD
1000
MTEXTBEGIN
1070
    73
1070
     1
1070
    44
1040
1.0
1070
    74
1070
     0
1000
MTEXTEND
  0
POINT
  5
5515
330
5493
100
AcDbEntity
  8
DEFPOINTS
 62
     0
100
AcDbPoint
 10
615.1890072765767
 20
138.091300785524
 30
0.0
  0
POINT
  5
5516
330
5493
100
AcDbEntity
  8
DEFPOINTS
 62
     0
100
AcDbPoint
 10
686.689007276577
 20
202.5992084573974
 30
0.0
  0
POINT
  5
5517
330
5493
100
AcDbEntity
  8
DEFPOINTS
 62
     0
100
AcDbPoint
 10
686.689007276577
 20
230.8108011116547
 30
0.0
  0
ENDBLK
  5
5495
330
5493
100
AcDbEntity
  8
0
100
AcDbBlockEnd
  0
BLOCK
  5
54A1
330
54A0
100
AcDbEntity
  8
0
100
AcDbBlockBegin
  2
*D29
 70
     1
 10
0.0
 20
0.0
 30
0.0
  3
*D29
  1

  0
LINE
  5
5518
330
54A0
100
AcDbEntity
  8
2寸法線
 62
     0
370
    -2
100
AcDbLine
 10
619.1890072765767
 20
54.59920845739753
 30
0.0
 11
619.1890072765767
 21
35.39164928476839
 31
0.0
  0
LINE
  5
5519
330
54A0
100
AcDbEntity
  8
2寸法線
 62
     0
370
    -2
100
AcDbLine
 10
686.689007276577
 20
51.59920845739753
 30
0.0
 11
686.689007276577
 21
35.39164928476839
 31
0.0
  0
LINE
  5
551A
330
54A0
100
AcDbEntity
  8
2寸法線
 62
     0
370
    -2
100
AcDbLine
 10
620.9890072765765
 20
36.39164928476839
 30
0.0
 11
684.889007276577
 21
36.39164928476839
 31
0.0
  0
INSERT
  5
551B
330
54A0
100
AcDbEntity
  8
2寸法線
 62
     0
370
    -2
100
AcDbBlockReference
  2
2
 10
619.1890072765767
 20
36.39164928476839
 30
0.0
 41
1.8
 42
1.8
 43
1.8
 50
180.0
  0
INSERT
  5
551C
330
54A0
100
AcDbEntity
  8
2寸法線
 62
     0
370
    -2
100
AcDbBlockReference
  2
2
 10
686.689007276577
 20
36.39164928476839
 30
0.0
 41
1.8
 42
1.8
 43
1.8
  0
MTEXT
  5
551D
330
54A0
100
AcDbEntity
  8
2寸法線
 62
     0
100
AcDbMText
 10
652.9390072765766
 20
38.14164928476839
 30
0.0
 40
2.5
 41
0.0
 71
     5
 72
     1
  1
\A1;67.5
 73
     1
 44
1.0
1001
ACAD
1000
MTEXTBEGIN
1070
    73
1070
     1
1070
    44
1040
1.0
1070
    74
1070
     0
1000
MTEXTEND
  0
POINT
  5
551E
330
54A0
100
AcDbEntity
  8
DEFPOINTS
 62
     0
100
AcDbPoint
 10
619.1890072765767
 20
55.59920845739753
 30
0.0
  0
POINT
  5
551F
330
54A0
100
AcDbEntity
  8
DEFPOINTS
 62
     0
100
AcDbPoint
 10
686.689007276577
 20
52.59920845739753
 30
0.0
  0
POINT
  5
5520
330
54A0
100
AcDbEntity
  8
DEFPOINTS
 62
     0
100
AcDbPoint
 10
686.689007276577
 20
36.39164928476839
 30
0.0
  0
ENDBLK
  5
54A2
330
54A0
100
AcDbEntity
  8
0
100
AcDbBlockEnd
  0
BLOCK
  5
54AE
330
54AD
100
AcDbEntity
  8
0
100
AcDbBlockBegin
  2
*D30
 70
     1
 10
0.0
 20
0.0
 30
0.0
  3
*D30
  1

  0
LINE
  5
5521
330
54AD
100
AcDbEntity
  8
2寸法線
 62
     0
370
    -2
100
AcDbLine
 10
620.7320400293257
 20
-188.9437395365663
 30
0.0
 11
620.7320400293257
 21
-100.708547232045
 31
0.0
  0
LINE
  5
5522
330
54AD
100
AcDbEntity
  8
2寸法線
 62
     0
370
    -2
100
AcDbLine
 10
692.2320400293259
 20
-114.1361669863922
 30
0.0
 11
692.2320400293259
 21
-100.708547232045
 31
0.0
  0
LINE
  5
5523
330
54AD
100
AcDbEntity
  8
2寸法線
 62
     0
370
    -2
100
AcDbLine
 10
622.5320400293257
 20
-101.708547232045
 30
0.0
 11
690.4320400293259
 21
-101.708547232045
 31
0.0
  0
INSERT
  5
5524
330
54AD
100
AcDbEntity
  8
2寸法線
 62
     0
370
    -2
100
AcDbBlockReference
  2
2
 10
620.7320400293257
 20
-101.708547232045
 30
0.0
 41
1.8
 42
1.8
 43
1.8
 50
180.0
  0
INSERT
  5
5525
330
54AD
100
AcDbEntity
  8
2寸法線
 62
     0
370
    -2
100
AcDbBlockReference
  2
2
 10
692.2320400293259
 20
-101.708547232045
 30
0.0
 41
1.8
 42
1.8
 43
1.8
  0
MTEXT
  5
5526
330
54AD
100
AcDbEntity
  8
2寸法線
 62
     0
100
AcDbMText
 10
656.4820400293257
 20
-99.95854723204502
 30
0.0
 40
2.5
 41
0.0
 71
     5
 72
     1
  1
\A1;71.5
 73
     1
 44
1.0
1001
ACAD
1000
MTEXTBEGIN
1070
    73
1070
     1
1070
    44
1040
1.0
1070
    74
1070
     0
1000
MTEXTEND
  0
POINT
  5
5527
330
54AD
100
AcDbEntity
  8
DEFPOINTS
 62
     0
100
AcDbPoint
 10
620.7320400293257
 20
-189.9437395365663
 30
0.0
  0
POINT
  5
5528
330
54AD
100
AcDbEntity
  8
DEFPOINTS
 62
     0
100
AcDbPoint
 10
692.2320400293259
 20
-115.1361669863922
 30
0.0
  0
POINT
  5
5529
330
54AD
100
AcDbEntity
  8
DEFPOINTS
 62
     0
100
AcDbPoint
 10
692.2320400293259
 20
-101.708547232045
 30
0.0
  0
ENDBLK
  5
54AF
330
54AD
100
AcDbEntity
  8
0
100
AcDbBlockEnd
  0
BLOCK
  5
54BB
330
54BA
100
AcDbEntity
  8
0
100
AcDbBlockBegin
  2
*D31
 70
     1
 10
0.0
 20
0.0
 30
0.0
  3
*D31
  1

  0
LINE
  5
552A
330
54BA
100
AcDbEntity
  8
2寸法線
 62
     0
370
    -2
100
AcDbLine
 10
624.7320400293253
 20
-284.1361669863913
 30
0.0
 11
624.7320400293253
 21
-299.8947373650985
 31
0.0
  0
LINE
  5
552B
330
54BA
100
AcDbEntity
  8
2寸法線
 62
     0
370
    -2
100
AcDbLine
 10
692.2320400293259
 20
-287.1361669863915
 30
0.0
 11
692.2320400293259
 21
-299.8947373650985
 31
0.0
  0
LINE
  5
552C
330
54BA
100
AcDbEntity
  8
2寸法線
 62
     0
370
    -2
100
AcDbLine
 10
626.5320400293254
 20
-298.8947373650985
 30
0.0
 11
690.4320400293259
 21
-298.8947373650985
 31
0.0
  0
INSERT
  5
552D
330
54BA
100
AcDbEntity
  8
2寸法線
 62
     0
370
    -2
100
AcDbBlockReference
  2
2
 10
624.7320400293253
 20
-298.8947373650985
 30
0.0
 41
1.8
 42
1.8
 43
1.8
 50
180.0
  0
INSERT
  5
552E
330
54BA
100
AcDbEntity
  8
2寸法線
 62
     0
370
    -2
100
AcDbBlockReference
  2
2
 10
692.2320400293259
 20
-298.8947373650985
 30
0.0
 41
1.8
 42
1.8
 43
1.8
  0
MTEXT
  5
552F
330
54BA
100
AcDbEntity
  8
2寸法線
 62
     0
100
AcDbMText
 10
658.4820400293255
 20
-297.1447373650985
 30
0.0
 40
2.5
 41
0.0
 71
     5
 72
     1
  1
\A1;67.5
 73
     1
 44
1.0
1001
ACAD
1000
MTEXTBEGIN
1070
    73
1070
     1
1070
    44
1040
1.0
1070
    74
1070
     0
1000
MTEXTEND
  0
POINT
  5
5530
330
54BA
100
AcDbEntity
  8
DEFPOINTS
 62
     0
100
AcDbPoint
 10
624.7320400293253
 20
-283.1361669863913
 30
0.0
  0
POINT
  5
5531
330
54BA
100
AcDbEntity
  8
DEFPOINTS
 62
     0
100
AcDbPoint
 10
692.2320400293259
 20
-286.1361669863915
 30
0.0
  0
POINT
  5
5532
330
54BA
100
AcDbEntity
  8
DEFPOINTS
 62
     0
100
AcDbPoint
 10
692.2320400293259
 20
-298.8947373650985
 30
0.0
  0
ENDBLK
  5
54BC
330
54BA
100
AcDbEntity
  8
0
100
AcDbBlockEnd
  0
ENDSEC
  0
SECTION
  2
ENTITIES
  0
LINE
  5
1B5
330
2E0
100
AcDbEntity
  8
1外形線
100
AcDbLine
 10
460.4051938199388
 20
139.5992084573975
 30
0.0
 11
460.4051938199388
 21
55.59920845739711
 31
0.0
  0
LINE
  5
1B6
330
2E0
100
AcDbEntity
  8
1外形線
100
AcDbLine
 10
472.7055289416346
 20
52.59920845739753
 30
0.0
 11
472.7055289416346
 21
110.8274049720533
 31
0.0
  0
LINE
  5
1B7
330
2E0
100
AcDbEntity
  8
1外形線
100
AcDbLine
 10
540.0058640633301
 20
139.5992084573975
 30
0.0
 11
540.0058640633301
 21
55.59920845739661
 31
0.0
  0
LINE
  5
1B8
330
2E0
100
AcDbEntity
  8
1外形線
100
AcDbLine
 10
527.7055289416344
 20
52.59920845739753
 30
0.0
 11
527.7055289416344
 21
110.8274049720538
 31
0.0
  0
ARC
  5
1B9
330
2E0
100
AcDbEntity
  8
1外形線
100
AcDbCircle
 10
500.2055289416345
 20
139.5992084573975
 30
0.0
 40
63.0
100
AcDbArc
 50
309.4140983561603
 51
230.5859016438393
  0
ARC
  5
1BA
330
2E0
100
AcDbEntity
  8
1外形線
100
AcDbCircle
 10
467.7055289416345
 20
6.175567355417682
 30
0.0
 40
5.0
100
AcDbArc
 50
134.9999999999996
 51
180.0
  0
LINE
  5
1BB
330
2E0
100
AcDbEntity
  8
1外形線
100
AcDbLine
 10
469.8268492851941
 20
18.19638263558896
 30
0.0
 11
462.7557814733286
 21
11.12531482372349
 31
0.0
  0
ARC
  5
1BC
330
2E0
100
AcDbEntity
  8
1外形線
  6
ByBlock
100
AcDbCircle
 10
473.2055289416344
 20
9.792451611631911
 30
0.0
 40
12.5
100
AcDbArc
 50
98.2793756981048
 51
180.0
  0
LINE
  5
1BD
330
2E0
100
AcDbEntity
  8
1外形線
100
AcDbLine
 10
500.2055289416345
 20
-47.25336483271689
 30
0.0
 11
437.2055289416342
 21
-47.25336483271689
 31
0.0
  0
LINE
  5
1BE
330
2E0
100
AcDbEntity
  8
1外形線
100
AcDbLine
 10
500.2055289416345
 20
-44.75336483271689
 30
0.0
 11
462.7055289416346
 21
-44.75336483271689
 31
0.0
  0
LINE
  5
1BF
330
2E0
100
AcDbEntity
  8
1外形線
100
AcDbLine
 10
539.0058640633319
 20
52.59920845739753
 30
0.0
 11
461.4051938199388
 21
52.59920845739753
 31
0.0
  0
LINE
  5
1C0
330
2E0
100
AcDbEntity
  8
1外形線
100
AcDbLine
 10
460.4051938199388
 20
55.59920845739753
 30
0.0
 11
540.0058640633301
 21
55.59920845739661
 31
0.0
  0
LINE
  5
1C1
330
2E0
100
AcDbEntity
  8
1外形線
  6
ByBlock
100
AcDbLine
 10
460.7055289416345
 20
9.792451611631911
 30
0.0
 11
460.7055289416345
 21
-47.25336483271689
 31
0.0
  0
LINE
  5
1C2
330
2E0
100
AcDbEntity
  8
1外形線
  6
ByBlock
100
AcDbLine
 10
462.7055289416345
 20
6.175567355417682
 30
0.0
 11
462.7055289416345
 21
-47.25336483271689
 31
0.0
  0
LINE
  5
1C3
330
2E0
100
AcDbEntity
  8
C4
100
AcDbLine
 10
460.7055289416345
 20
-34.01526959462234
 30
0.0
 11
441.7314834784933
 21
-35.82232154349208
 31
0.0
  0
LINE
  5
1C4
330
2E0
100
AcDbEntity
  8
C4
100
AcDbLine
 10
437.2055289416342
 20
-40.79979890646177
 30
0.0
 11
437.2055289416342
 21
-47.25336483271689
 31
0.0
  0
ARC
  5
1C5
330
2E0
100
AcDbEntity
  8
C4
100
AcDbCircle
 10
442.2055289416345
 20
-40.79979890646177
 30
0.0
 40
5.0
100
AcDbArc
 50
95.44033203099907
 51
180.0
  0
ARC
  5
1C6
330
2E0
100
AcDbEntity
  8
1外形線
100
AcDbCircle
 10
467.7055289416345
 20
6.175567355417682
 30
0.0
 40
7.0
100
AcDbArc
 50
135.0000000000002
 51
180.0
  0
LINE
  5
1C7
330
2E0
100
AcDbEntity
  8
1外形線
100
AcDbLine
 10
462.7055289416345
 20
8.2466351672831
 30
0.0
 11
462.7055289416345
 21
8.2466351672831
 31
0.0
  0
POINT
  5
1C8
330
2E0
100
AcDbEntity
  8
2寸法線
100
AcDbPoint
 10
461.4051938199388
 20
52.59920845739753
 30
0.0
  0
LINE
  5
1C9
330
2E0
100
AcDbEntity
  8
1外形線
100
AcDbLine
 10
460.4051938199388
 20
55.59920845739711
 30
0.0
 11
461.4051938199388
 21
52.59920845739753
 31
0.0
  0
LINE
  5
1CA
330
2E0
100
AcDbEntity
  8
1外形線
  6
ByBlock
100
AcDbLine
 10
539.7055289416345
 20
9.792451611631911
 30
0.0
 11
539.7055289416345
 21
-47.25336483271689
 31
0.0
  0
LINE
  5
1CB
330
2E0
100
AcDbEntity
  8
1外形線
  6
ByBlock
100
AcDbLine
 10
537.7055289416345
 20
6.175567355417682
 30
0.0
 11
537.7055289416345
 21
-47.25336483271689
 31
0.0
  0
LINE
  5
1CC
330
2E0
100
AcDbEntity
  8
1外形線
100
AcDbLine
 10
500.2055289416345
 20
-44.75336483271689
 30
0.0
 11
537.7055289416342
 21
-44.75336483271689
 31
0.0
  0
LINE
  5
1CD
330
2E0
100
AcDbEntity
  8
1外形線
100
AcDbLine
 10
500.2055289416345
 20
-47.25336483271689
 30
0.0
 11
563.2055289416345
 21
-47.25336483271689
 31
0.0
  0
ARC
  5
1CE
330
2E0
100
AcDbEntity
  8
C4
100
AcDbCircle
 10
558.2055289416342
 20
-40.79979890646177
 30
0.0
 40
5.0
100
AcDbArc
 50
0.0
 51
84.5596679690009
  0
LINE
  5
1CF
330
2E0
100
AcDbEntity
  8
C4
100
AcDbLine
 10
539.7055289416344
 20
-34.01526959462234
 30
0.0
 11
558.6795744047755
 21
-35.82232154349208
 31
0.0
  0
LINE
  5
1D0
330
2E0
100
AcDbEntity
  8
C4
100
AcDbLine
 10
563.2055289416345
 20
-40.79979890646177
 30
0.0
 11
563.2055289416345
 21
-47.25336483271689
 31
0.0
  0
ARC
  5
1D1
330
2E0
100
AcDbEntity
  8
1外形線
100
AcDbCircle
 10
525.6344611297691
 20
13.2466351672831
 30
0.0
 40
7.0
100
AcDbArc
 50
45.0
 51
90.0
  0
ARC
  5
1D2
330
2E0
100
AcDbEntity
  8
1外形線
100
AcDbCircle
 10
525.6344611297691
 20
13.2466351672831
 30
0.0
 40
5.0
100
AcDbArc
 50
45.00000000000057
 51
90.0
  0
ARC
  5
1D3
330
2E0
100
AcDbEntity
  8
1外形線
  6
ByBlock
100
AcDbCircle
 10
500.2055289416345
 20
-175.7533648327169
 30
0.0
 40
200.0
100
AcDbArc
 50
81.72062430189562
 51
90.0
  0
LINE
  5
1D4
330
2E0
100
AcDbEntity
  8
1外形線
  6
ByBlock
100
AcDbLine
 10
500.2055289416345
 20
20.2466351672831
 30
0.0
 11
474.7765967534999
 21
20.2466351672831
 31
0.0
  0
LINE
  5
1D5
330
2E0
100
AcDbEntity
  8
1外形線
  6
ByBlock
100
AcDbLine
 10
500.2055289416345
 20
18.2466351672831
 30
0.0
 11
474.7765967534999
 21
18.2466351672831
 31
0.0
  0
ARC
  5
1D6
330
2E0
100
AcDbEntity
  8
1外形線
100
AcDbCircle
 10
474.7765967534999
 20
13.2466351672831
 30
0.0
 40
5.0
100
AcDbArc
 50
90.0
 51
134.9999999999994
  0
ARC
  5
1D7
330
2E0
100
AcDbEntity
  8
1外形線
100
AcDbCircle
 10
474.7765967534999
 20
13.2466351672831
 30
0.0
 40
7.0
100
AcDbArc
 50
90.0
 51
135.0
  0
LINE
  5
1D8
330
2E0
100
AcDbEntity
  8
1外形線
100
AcDbLine
 10
471.2410628475672
 20
16.78216907321585
 30
0.0
 11
464.1699950357017
 21
9.711101261350419
 31
0.0
  0
LINE
  5
1D9
330
2E0
100
AcDbEntity
  8
1外形線
  6
ByBlock
100
AcDbLine
 10
500.2055289416345
 20
20.2466351672831
 30
0.0
 11
525.6344611297691
 21
20.2466351672831
 31
0.0
  0
LINE
  5
1DA
330
2E0
100
AcDbEntity
  8
1外形線
  6
ByBlock
100
AcDbLine
 10
500.2055289416345
 20
18.2466351672831
 30
0.0
 11
525.6344611297691
 21
18.2466351672831
 31
0.0
  0
ARC
  5
1DB
330
2E0
100
AcDbEntity
  8
1外形線
  6
ByBlock
100
AcDbCircle
 10
500.2055289416345
 20
-175.7533648327169
 30
0.0
 40
200.0
100
AcDbArc
 50
90.0
 51
98.2793756981044
  0
ARC
  5
1DC
330
2E0
100
AcDbEntity
  8
1外形線
  6
ByBlock
100
AcDbCircle
 10
527.2055289416345
 20
9.792451611631911
 30
0.0
 40
12.5
100
AcDbArc
 50
0.0
 51
81.72062430189525
  0
ARC
  5
1DD
330
2E0
100
AcDbEntity
  8
1外形線
100
AcDbCircle
 10
532.7055289416342
 20
6.175567355417682
 30
0.0
 40
7.0
100
AcDbArc
 50
0.0
 51
44.9999999999997
  0
ARC
  5
1DE
330
2E0
100
AcDbEntity
  8
1外形線
100
AcDbCircle
 10
532.7055289416342
 20
6.175567355417682
 30
0.0
 40
5.0
100
AcDbArc
 50
0.0
 51
45.00000000000027
  0
LINE
  5
1DF
330
2E0
100
AcDbEntity
  8
1外形線
100
AcDbLine
 10
537.7055289416345
 20
8.2466351672831
 30
0.0
 11
537.7055289416345
 21
8.2466351672831
 31
0.0
  0
LINE
  5
1E0
330
2E0
100
AcDbEntity
  8
1外形線
100
AcDbLine
 10
530.5842085980748
 20
18.19638263558896
 30
0.0
 11
537.6552764099403
 21
11.12531482372349
 31
0.0
  0
LINE
  5
1E1
330
2E0
100
AcDbEntity
  8
1外形線
100
AcDbLine
 10
529.1699950357017
 20
16.78216907321585
 30
0.0
 11
536.2410628475672
 21
9.711101261350419
 31
0.0
  0
LINE
  5
1E2
330
2E0
100
AcDbEntity
  8
1外形線
100
AcDbLine
 10
540.0058640633301
 20
55.59920845739661
 30
0.0
 11
539.0058640633319
 21
52.59920845739753
 31
0.0
  0
ARC
  5
1E3
330
2E0
100
AcDbEntity
  8
1外形線
100
AcDbCircle
 10
500.2055289416345
 20
139.5992084573975
 30
0.0
 40
39.80033512169553
100
AcDbArc
 50
0.0
 51
180.0
  0
TEXT
  5
1E4
330
2E0
100
AcDbEntity
  8
1外形線
100
AcDbText
 10
442.0209443522848
 20
228.562189935626
 30
0.0
 40
10.0
  1
MWM-75-S
  7
KANJI
100
AcDbText
  0
ARC
  5
1E5
330
2E0
100
AcDbEntity
  8
1外形線
100
AcDbCircle
 10
500.2055289416345
 20
139.5992084573975
 30
0.0
 40
39.80033512169553
100
AcDbArc
 50
226.2947260261568
 51
313.705273973843
  0
ARC
  5
1E6
330
2E0
100
AcDbEntity
  8
1外形線
100
AcDbCircle
 10
500.2055289416345
 20
196.5992084573974
 30
0.0
 40
5.5
100
AcDbArc
 50
180.0
 51
0.0
  0
LINE
  5
1E7
330
2E0
100
AcDbEntity
  8
1外形線
100
AcDbLine
 10
494.7055289416343
 20
196.5992084573974
 30
0.0
 11
494.7055289416343
 21
202.3586698954949
 31
0.0
  0
LINE
  5
1E9
330
2E0
100
AcDbEntity
  8
1外形線
100
AcDbLine
 10
505.7055289416346
 20
196.5992084573974
 30
0.0
 11
505.7055289416353
 21
202.3586698954949
 31
0.0
  0
LINE
  5
1EA
330
2E0
100
AcDbEntity
  8
1外形線
100
AcDbLine
 10
619.1890072765767
 20
55.59920845739753
 30
0.0
 11
619.1890072765767
 21
98.29180330126042
 31
0.0
  0
LINE
  5
1EB
330
2E0
100
AcDbEntity
  8
1外形線
100
AcDbLine
 10
630.0654051206372
 20
52.59920845739753
 30
0.0
 11
630.0272027700981
 21
110.2138127566325
 31
0.0
  0
LINE
  5
1EC
330
2E0
100
AcDbEntity
  8
C4
100
AcDbLine
 10
686.689007276577
 20
202.5992084573974
 30
0.0
 11
686.689007276577
 21
52.59920845739753
 31
0.0
  0
LINE
  5
1ED
330
2E0
100
AcDbEntity
  8
1外形線
  6
ByBlock
100
AcDbLine
 10
619.1890072765767
 20
55.59920845739753
 30
0.0
 11
686.689007276577
 21
55.59920845739753
 31
0.0
  0
LINE
  5
1EE
330
2E0
100
AcDbEntity
  8
1外形線
100
AcDbLine
 10
686.689007276577
 20
52.59920845739753
 30
0.0
 11
619.6890072765766
 21
52.59920845739753
 31
0.0
  0
LINE
  5
1EF
330
2E0
100
AcDbEntity
  8
1外形線
100
AcDbLine
 10
619.1890072765767
 20
55.59920845739753
 30
0.0
 11
619.6890072765766
 21
52.59920845739753
 31
0.0
  0
LINE
  5
1F0
330
2E0
100
AcDbEntity
  8
C4
100
AcDbLine
 10
673.560882046546
 20
180.2538935420655
 30
0.0
 11
675.2579639873535
 21
198.0732539205376
 31
0.0
  0
LINE
  5
1F1
330
2E0
100
AcDbEntity
  8
1外形線
100
AcDbLine
 10
672.5828389803893
 20
179.3488549395374
 30
0.0
 11
645.0054021719412
 21
178.832578859636
 31
0.0
  0
ARC
  5
1F2
330
2E0
100
AcDbEntity
  8
1外形線
100
AcDbCircle
 10
815.1890072765766
 20
138.091300785524
 30
0.0
 40
200.0
100
AcDbArc
 50
176.3758679826549
 51
191.4783409545329
  0
POLYLINE
  5
221
330
2E0
100
AcDbEntity
  8
1外形線
100
AcDb3dPolyline
 66
     1
 10
0.0
 20
0.0
 30
0.0
 70
     8
  0
VERTEX
  5
222
330
221
100
AcDbEntity
  8
1外形線
100
AcDbVertex
100
AcDb3dPolylineVertex
 10
619.1889028653386
 20
98.29149653364233
 30
0.0
 70
    32
  0
VERTEX
  5
223
330
221
100
AcDbEntity
  8
1外形線
100
AcDbVertex
100
AcDb3dPolylineVertex
 10
619.2689028653387
 20
98.34749653364234
 30
0.0
 70
    32
  0
VERTEX
  5
224
330
221
100
AcDbEntity
  8
1外形線
100
AcDbVertex
100
AcDb3dPolylineVertex
 10
619.3499028653388
 20
98.40349653364231
 30
0.0
 70
    32
  0
VERTEX
  5
225
330
221
100
AcDbEntity
  8
1外形線
100
AcDbVertex
100
AcDb3dPolylineVertex
 10
619.4299028653382
 20
98.45949653364231
 30
0.0
 70
    32
  0
VERTEX
  5
226
330
221
100
AcDbEntity
  8
1外形線
100
AcDbVertex
100
AcDb3dPolylineVertex
 10
619.5109028653387
 20
98.5154965336423
 30
0.0
 70
    32
  0
VERTEX
  5
227
330
221
100
AcDbEntity
  8
1外形線
100
AcDbVertex
100
AcDb3dPolylineVertex
 10
619.5929028653387
 20
98.57249653364231
 30
0.0
 70
    32
  0
VERTEX
  5
228
330
221
100
AcDbEntity
  8
1外形線
100
AcDbVertex
100
AcDb3dPolylineVertex
 10
619.6739028653387
 20
98.62949653364232
 30
0.0
 70
    32
  0
VERTEX
  5
229
330
221
100
AcDbEntity
  8
1外形線
100
AcDbVertex
100
AcDb3dPolylineVertex
 10
619.7559028653387
 20
98.68649653364231
 30
0.0
 70
    32
  0
VERTEX
  5
22A
330
221
100
AcDbEntity
  8
1外形線
100
AcDbVertex
100
AcDb3dPolylineVertex
 10
619.8369028653387
 20
98.74349653364232
 30
0.0
 70
    32
  0
VERTEX
  5
22B
330
221
100
AcDbEntity
  8
1外形線
100
AcDbVertex
100
AcDb3dPolylineVertex
 10
619.9189028653387
 20
98.80149653364231
 30
0.0
 70
    32
  0
VERTEX
  5
22C
330
221
100
AcDbEntity
  8
1外形線
100
AcDbVertex
100
AcDb3dPolylineVertex
 10
620.0019028653386
 20
98.85849653364232
 30
0.0
 70
    32
  0
VERTEX
  5
22D
330
221
100
AcDbEntity
  8
1外形線
100
AcDbVertex
100
AcDb3dPolylineVertex
 10
620.0839028653384
 20
98.91749653364231
 30
0.0
 70
    32
  0
VERTEX
  5
22E
330
221
100
AcDbEntity
  8
1外形線
100
AcDbVertex
100
AcDb3dPolylineVertex
 10
620.1659028653387
 20
98.97549653364231
 30
0.0
 70
    32
  0
VERTEX
  5
22F
330
221
100
AcDbEntity
  8
1外形線
100
AcDbVertex
100
AcDb3dPolylineVertex
 10
620.2489028653388
 20
99.0334965336423
 30
0.0
 70
    32
  0
VERTEX
  5
230
330
221
100
AcDbEntity
  8
1外形線
100
AcDbVertex
100
AcDb3dPolylineVertex
 10
620.3319028653387
 20
99.09249653364234
 30
0.0
 70
    32
  0
VERTEX
  5
231
330
221
100
AcDbEntity
  8
1外形線
100
AcDbVertex
100
AcDb3dPolylineVertex
 10
620.4149028653386
 20
99.15149653364231
 30
0.0
 70
    32
  0
VERTEX
  5
232
330
221
100
AcDbEntity
  8
1外形線
100
AcDbVertex
100
AcDb3dPolylineVertex
 10
620.4979028653387
 20
99.21149653364231
 30
0.0
 70
    32
  0
VERTEX
  5
233
330
221
100
AcDbEntity
  8
1外形線
100
AcDbVertex
100
AcDb3dPolylineVertex
 10
620.5809028653387
 20
99.27049653364237
 30
0.0
 70
    32
  0
VERTEX
  5
234
330
221
100
AcDbEntity
  8
1外形線
100
AcDbVertex
100
AcDb3dPolylineVertex
 10
620.6639028653387
 20
99.33049653364228
 30
0.0
 70
    32
  0
VERTEX
  5
235
330
221
100
AcDbEntity
  8
1外形線
100
AcDbVertex
100
AcDb3dPolylineVertex
 10
620.7479028653388
 20
99.39049653364229
 30
0.0
 70
    32
  0
VERTEX
  5
236
330
221
100
AcDbEntity
  8
1外形線
100
AcDbVertex
100
AcDb3dPolylineVertex
 10
620.8309028653387
 20
99.45149653364232
 30
0.0
 70
    32
  0
VERTEX
  5
237
330
221
100
AcDbEntity
  8
1外形線
100
AcDbVertex
100
AcDb3dPolylineVertex
 10
620.9149028653387
 20
99.51149653364232
 30
0.0
 70
    32
  0
VERTEX
  5
238
330
221
100
AcDbEntity
  8
1外形線
100
AcDbVertex
100
AcDb3dPolylineVertex
 10
620.9979028653387
 20
99.57249653364231
 30
0.0
 70
    32
  0
VERTEX
  5
239
330
221
100
AcDbEntity
  8
1外形線
100
AcDbVertex
100
AcDb3dPolylineVertex
 10
621.0819028653387
 20
99.63449653364229
 30
0.0
 70
    32
  0
VERTEX
  5
23A
330
221
100
AcDbEntity
  8
1外形線
100
AcDbVertex
100
AcDb3dPolylineVertex
 10
621.1659028653383
 20
99.69549653364232
 30
0.0
 70
    32
  0
VERTEX
  5
23B
330
221
100
AcDbEntity
  8
1外形線
100
AcDbVertex
100
AcDb3dPolylineVertex
 10
621.2499028653387
 20
99.75749653364232
 30
0.0
 70
    32
  0
VERTEX
  5
23C
330
221
100
AcDbEntity
  8
1外形線
100
AcDbVertex
100
AcDb3dPolylineVertex
 10
621.3329028653387
 20
99.81949653364237
 30
0.0
 70
    32
  0
VERTEX
  5
23D
330
221
100
AcDbEntity
  8
1外形線
100
AcDbVertex
100
AcDb3dPolylineVertex
 10
621.4169028653388
 20
99.8814965336423
 30
0.0
 70
    32
  0
VERTEX
  5
23E
330
221
100
AcDbEntity
  8
1外形線
100
AcDbVertex
100
AcDb3dPolylineVertex
 10
621.5009028653387
 20
99.94349653364231
 30
0.0
 70
    32
  0
VERTEX
  5
23F
330
221
100
AcDbEntity
  8
1外形線
100
AcDbVertex
100
AcDb3dPolylineVertex
 10
621.5849028653387
 20
100.0064965336421
 30
0.0
 70
    32
  0
VERTEX
  5
240
330
221
100
AcDbEntity
  8
1外形線
100
AcDbVertex
100
AcDb3dPolylineVertex
 10
621.6689028653387
 20
100.0694965336422
 30
0.0
 70
    32
  0
VERTEX
  5
241
330
221
100
AcDbEntity
  8
1外形線
100
AcDbVertex
100
AcDb3dPolylineVertex
 10
621.7519028653384
 20
100.1324965336422
 30
0.0
 70
    32
  0
VERTEX
  5
242
330
221
100
AcDbEntity
  8
1外形線
100
AcDbVertex
100
AcDb3dPolylineVertex
 10
621.8359028653387
 20
100.1964965336421
 30
0.0
 70
    32
  0
VERTEX
  5
243
330
221
100
AcDbEntity
  8
1外形線
100
AcDbVertex
100
AcDb3dPolylineVertex
 10
621.9199028653386
 20
100.2594965336423
 30
0.0
 70
    32
  0
VERTEX
  5
244
330
221
100
AcDbEntity
  8
1外形線
100
AcDbVertex
100
AcDb3dPolylineVertex
 10
622.0029028653388
 20
100.3234965336422
 30
0.0
 70
    32
  0
VERTEX
  5
245
330
221
100
AcDbEntity
  8
1外形線
100
AcDbVertex
100
AcDb3dPolylineVertex
 10
622.0869028653387
 20
100.3884965336423
 30
0.0
 70
    32
  0
VERTEX
  5
246
330
221
100
AcDbEntity
  8
1外形線
100
AcDbVertex
100
AcDb3dPolylineVertex
 10
622.1699028653383
 20
100.4524965336422
 30
0.0
 70
    32
  0
VERTEX
  5
247
330
221
100
AcDbEntity
  8
1外形線
100
AcDbVertex
100
AcDb3dPolylineVertex
 10
622.2539028653387
 20
100.5174965336422
 30
0.0
 70
    32
  0
VERTEX
  5
248
330
221
100
AcDbEntity
  8
1外形線
100
AcDbVertex
100
AcDb3dPolylineVertex
 10
622.3369028653387
 20
100.5824965336422
 30
0.0
 70
    32
  0
VERTEX
  5
249
330
221
100
AcDbEntity
  8
1外形線
100
AcDbVertex
100
AcDb3dPolylineVertex
 10
622.4199028653387
 20
100.6474965336422
 30
0.0
 70
    32
  0
VERTEX
  5
24A
330
221
100
AcDbEntity
  8
1外形線
100
AcDbVertex
100
AcDb3dPolylineVertex
 10
622.5029028653388
 20
100.7134965336422
 30
0.0
 70
    32
  0
VERTEX
  5
24B
330
221
100
AcDbEntity
  8
1外形線
100
AcDbVertex
100
AcDb3dPolylineVertex
 10
622.5859028653387
 20
100.7794965336422
 30
0.0
 70
    32
  0
VERTEX
  5
24C
330
221
100
AcDbEntity
  8
1外形線
100
AcDbVertex
100
AcDb3dPolylineVertex
 10
622.6689028653387
 20
100.8454965336422
 30
0.0
 70
    32
  0
VERTEX
  5
24D
330
221
100
AcDbEntity
  8
1外形線
100
AcDbVertex
100
AcDb3dPolylineVertex
 10
622.7519028653383
 20
100.9114965336421
 30
0.0
 70
    32
  0
VERTEX
  5
24E
330
221
100
AcDbEntity
  8
1外形線
100
AcDbVertex
100
AcDb3dPolylineVertex
 10
622.8349028653387
 20
100.9784965336422
 30
0.0
 70
    32
  0
VERTEX
  5
24F
330
221
100
AcDbEntity
  8
1外形線
100
AcDbVertex
100
AcDb3dPolylineVertex
 10
622.9169028653387
 20
101.0454965336421
 30
0.0
 70
    32
  0
VERTEX
  5
250
330
221
100
AcDbEntity
  8
1外形線
100
AcDbVertex
100
AcDb3dPolylineVertex
 10
622.9989028653387
 20
101.1124965336422
 30
0.0
 70
    32
  0
VERTEX
  5
251
330
221
100
AcDbEntity
  8
1外形線
100
AcDbVertex
100
AcDb3dPolylineVertex
 10
623.0809028653387
 20
101.1794965336422
 30
0.0
 70
    32
  0
VERTEX
  5
252
330
221
100
AcDbEntity
  8
1外形線
100
AcDbVertex
100
AcDb3dPolylineVertex
 10
623.1629028653387
 20
101.2474965336422
 30
0.0
 70
    32
  0
VERTEX
  5
253
330
221
100
AcDbEntity
  8
1外形線
100
AcDbVertex
100
AcDb3dPolylineVertex
 10
623.2449028653388
 20
101.3154965336422
 30
0.0
 70
    32
  0
VERTEX
  5
254
330
221
100
AcDbEntity
  8
1外形線
100
AcDbVertex
100
AcDb3dPolylineVertex
 10
623.3259028653387
 20
101.3834965336422
 30
0.0
 70
    32
  0
VERTEX
  5
255
330
221
100
AcDbEntity
  8
1外形線
100
AcDbVertex
100
AcDb3dPolylineVertex
 10
623.4069028653387
 20
101.4524965336423
 30
0.0
 70
    32
  0
VERTEX
  5
256
330
221
100
AcDbEntity
  8
1外形線
100
AcDbVertex
100
AcDb3dPolylineVertex
 10
623.4879028653387
 20
101.5204965336422
 30
0.0
 70
    32
  0
VERTEX
  5
257
330
221
100
AcDbEntity
  8
1外形線
100
AcDbVertex
100
AcDb3dPolylineVertex
 10
623.5689028653387
 20
101.5894965336422
 30
0.0
 70
    32
  0
VERTEX
  5
258
330
221
100
AcDbEntity
  8
1外形線
100
AcDbVertex
100
AcDb3dPolylineVertex
 10
623.6499028653387
 20
101.6594965336423
 30
0.0
 70
    32
  0
VERTEX
  5
259
330
221
100
AcDbEntity
  8
1外形線
100
AcDbVertex
100
AcDb3dPolylineVertex
 10
623.7299028653388
 20
101.7284965336422
 30
0.0
 70
    32
  0
VERTEX
  5
25A
330
221
100
AcDbEntity
  8
1外形線
100
AcDbVertex
100
AcDb3dPolylineVertex
 10
623.8099028653383
 20
101.7984965336423
 30
0.0
 70
    32
  0
VERTEX
  5
25B
330
221
100
AcDbEntity
  8
1外形線
100
AcDbVertex
100
AcDb3dPolylineVertex
 10
623.8899028653387
 20
101.8684965336422
 30
0.0
 70
    32
  0
VERTEX
  5
25C
330
221
100
AcDbEntity
  8
1外形線
100
AcDbVertex
100
AcDb3dPolylineVertex
 10
623.9689028653387
 20
101.9384965336422
 30
0.0
 70
    32
  0
VERTEX
  5
25D
330
221
100
AcDbEntity
  8
1外形線
100
AcDbVertex
100
AcDb3dPolylineVertex
 10
624.0479028653387
 20
102.0094965336422
 30
0.0
 70
    32
  0
VERTEX
  5
25E
330
221
100
AcDbEntity
  8
1外形線
100
AcDbVertex
100
AcDb3dPolylineVertex
 10
624.1269028653387
 20
102.0804965336422
 30
0.0
 70
    32
  0
VERTEX
  5
25F
330
221
100
AcDbEntity
  8
1外形線
100
AcDbVertex
100
AcDb3dPolylineVertex
 10
624.2049028653387
 20
102.1514965336422
 30
0.0
 70
    32
  0
VERTEX
  5
260
330
221
100
AcDbEntity
  8
1外形線
100
AcDbVertex
100
AcDb3dPolylineVertex
 10
624.2839028653387
 20
102.2234965336422
 30
0.0
 70
    32
  0
VERTEX
  5
261
330
221
100
AcDbEntity
  8
1外形線
100
AcDbVertex
100
AcDb3dPolylineVertex
 10
624.3609028653387
 20
102.2944965336422
 30
0.0
 70
    32
  0
VERTEX
  5
262
330
221
100
AcDbEntity
  8
1外形線
100
AcDbVertex
100
AcDb3dPolylineVertex
 10
624.4389028653387
 20
102.3664965336422
 30
0.0
 70
    32
  0
VERTEX
  5
263
330
221
100
AcDbEntity
  8
1外形線
100
AcDbVertex
100
AcDb3dPolylineVertex
 10
624.5159028653383
 20
102.4384965336422
 30
0.0
 70
    32
  0
VERTEX
  5
264
330
221
100
AcDbEntity
  8
1外形線
100
AcDbVertex
100
AcDb3dPolylineVertex
 10
624.5929028653387
 20
102.5114965336422
 30
0.0
 70
    32
  0
VERTEX
  5
265
330
221
100
AcDbEntity
  8
1外形線
100
AcDbVertex
100
AcDb3dPolylineVertex
 10
624.6689028653387
 20
102.5844965336422
 30
0.0
 70
    32
  0
VERTEX
  5
266
330
221
100
AcDbEntity
  8
1外形線
100
AcDbVertex
100
AcDb3dPolylineVertex
 10
624.7449028653387
 20
102.6574965336422
 30
0.0
 70
    32
  0
VERTEX
  5
267
330
221
100
AcDbEntity
  8
1外形線
100
AcDbVertex
100
AcDb3dPolylineVertex
 10
624.8209028653388
 20
102.7304965336423
 30
0.0
 70
    32
  0
VERTEX
  5
268
330
221
100
AcDbEntity
  8
1外形線
100
AcDbVertex
100
AcDb3dPolylineVertex
 10
624.8959028653386
 20
102.8044965336422
 30
0.0
 70
    32
  0
VERTEX
  5
269
330
221
100
AcDbEntity
  8
1外形線
100
AcDbVertex
100
AcDb3dPolylineVertex
 10
624.9709028653387
 20
102.8784965336422
 30
0.0
 70
    32
  0
VERTEX
  5
26A
330
221
100
AcDbEntity
  8
1外形線
100
AcDbVertex
100
AcDb3dPolylineVertex
 10
625.0449028653386
 20
102.9524965336422
 30
0.0
 70
    32
  0
VERTEX
  5
26B
330
221
100
AcDbEntity
  8
1外形線
100
AcDbVertex
100
AcDb3dPolylineVertex
 10
625.1189028653388
 20
103.0264965336422
 30
0.0
 70
    32
  0
VERTEX
  5
26C
330
221
100
AcDbEntity
  8
1外形線
100
AcDbVertex
100
AcDb3dPolylineVertex
 10
625.1919028653388
 20
103.1014965336422
 30
0.0
 70
    32
  0
VERTEX
  5
26D
330
221
100
AcDbEntity
  8
1外形線
100
AcDbVertex
100
AcDb3dPolylineVertex
 10
625.2649028653387
 20
103.1764965336422
 30
0.0
 70
    32
  0
VERTEX
  5
26E
330
221
100
AcDbEntity
  8
1外形線
100
AcDbVertex
100
AcDb3dPolylineVertex
 10
625.3379028653387
 20
103.2514965336422
 30
0.0
 70
    32
  0
VERTEX
  5
26F
330
221
100
AcDbEntity
  8
1外形線
100
AcDbVertex
100
AcDb3dPolylineVertex
 10
625.4099028653387
 20
103.3264965336422
 30
0.0
 70
    32
  0
VERTEX
  5
270
330
221
100
AcDbEntity
  8
1外形線
100
AcDbVertex
100
AcDb3dPolylineVertex
 10
625.4819028653387
 20
103.4024965336422
 30
0.0
 70
    32
  0
VERTEX
  5
271
330
221
100
AcDbEntity
  8
1外形線
100
AcDbVertex
100
AcDb3dPolylineVertex
 10
625.5529028653387
 20
103.4784965336422
 30
0.0
 70
    32
  0
VERTEX
  5
272
330
221
100
AcDbEntity
  8
1外形線
100
AcDbVertex
100
AcDb3dPolylineVertex
 10
625.6229028653388
 20
103.5554965336423
 30
0.0
 70
    32
  0
VERTEX
  5
273
330
221
100
AcDbEntity
  8
1外形線
100
AcDbVertex
100
AcDb3dPolylineVertex
 10
625.6929028653387
 20
103.6314965336421
 30
0.0
 70
    32
  0
VERTEX
  5
274
330
221
100
AcDbEntity
  8
1外形線
100
AcDbVertex
100
AcDb3dPolylineVertex
 10
625.7629028653387
 20
103.7084965336422
 30
0.0
 70
    32
  0
VERTEX
  5
275
330
221
100
AcDbEntity
  8
1外形線
100
AcDbVertex
100
AcDb3dPolylineVertex
 10
625.8319028653387
 20
103.7854965336422
 30
0.0
 70
    32
  0
VERTEX
  5
276
330
221
100
AcDbEntity
  8
1外形線
100
AcDbVertex
100
AcDb3dPolylineVertex
 10
625.8999028653387
 20
103.8634965336422
 30
0.0
 70
    32
  0
VERTEX
  5
277
330
221
100
AcDbEntity
  8
1外形線
100
AcDbVertex
100
AcDb3dPolylineVertex
 10
625.9679028653386
 20
103.9404965336423
 30
0.0
 70
    32
  0
VERTEX
  5
278
330
221
100
AcDbEntity
  8
1外形線
100
AcDbVertex
100
AcDb3dPolylineVertex
 10
626.0359028653384
 20
104.0184965336423
 30
0.0
 70
    32
  0
VERTEX
  5
279
330
221
100
AcDbEntity
  8
1外形線
100
AcDbVertex
100
AcDb3dPolylineVertex
 10
626.1029028653386
 20
104.0974965336422
 30
0.0
 70
    32
  0
VERTEX
  5
27A
330
221
100
AcDbEntity
  8
1外形線
100
AcDbVertex
100
AcDb3dPolylineVertex
 10
626.1689028653387
 20
104.1754965336422
 30
0.0
 70
    32
  0
VERTEX
  5
27B
330
221
100
AcDbEntity
  8
1外形線
100
AcDbVertex
100
AcDb3dPolylineVertex
 10
626.2349028653387
 20
104.2544965336422
 30
0.0
 70
    32
  0
VERTEX
  5
27C
330
221
100
AcDbEntity
  8
1外形線
100
AcDbVertex
100
AcDb3dPolylineVertex
 10
626.3009028653388
 20
104.3334965336423
 30
0.0
 70
    32
  0
VERTEX
  5
27D
330
221
100
AcDbEntity
  8
1外形線
100
AcDbVertex
100
AcDb3dPolylineVertex
 10
626.3659028653387
 20
104.4124965336423
 30
0.0
 70
    32
  0
VERTEX
  5
27E
330
221
100
AcDbEntity
  8
1外形線
100
AcDbVertex
100
AcDb3dPolylineVertex
 10
626.4299028653387
 20
104.4914965336422
 30
0.0
 70
    32
  0
VERTEX
  5
27F
330
221
100
AcDbEntity
  8
1外形線
100
AcDbVertex
100
AcDb3dPolylineVertex
 10
626.4939028653388
 20
104.5714965336421
 30
0.0
 70
    32
  0
VERTEX
  5
280
330
221
100
AcDbEntity
  8
1外形線
100
AcDbVertex
100
AcDb3dPolylineVertex
 10
626.5579028653387
 20
104.6514965336422
 30
0.0
 70
    32
  0
VERTEX
  5
281
330
221
100
AcDbEntity
  8
1外形線
100
AcDbVertex
100
AcDb3dPolylineVertex
 10
626.6209028653387
 20
104.7314965336422
 30
0.0
 70
    32
  0
VERTEX
  5
282
330
221
100
AcDbEntity
  8
1外形線
100
AcDbVertex
100
AcDb3dPolylineVertex
 10
626.6839028653387
 20
104.8124965336422
 30
0.0
 70
    32
  0
VERTEX
  5
283
330
221
100
AcDbEntity
  8
1外形線
100
AcDbVertex
100
AcDb3dPolylineVertex
 10
626.7459028653387
 20
104.8924965336422
 30
0.0
 70
    32
  0
VERTEX
  5
284
330
221
100
AcDbEntity
  8
1外形線
100
AcDbVertex
100
AcDb3dPolylineVertex
 10
626.8079028653387
 20
104.9734965336421
 30
0.0
 70
    32
  0
VERTEX
  5
285
330
221
100
AcDbEntity
  8
1外形線
100
AcDbVertex
100
AcDb3dPolylineVertex
 10
626.8699028653387
 20
105.0544965336422
 30
0.0
 70
    32
  0
VERTEX
  5
286
330
221
100
AcDbEntity
  8
1外形線
100
AcDbVertex
100
AcDb3dPolylineVertex
 10
626.9309028653387
 20
105.1364965336422
 30
0.0
 70
    32
  0
VERTEX
  5
287
330
221
100
AcDbEntity
  8
1外形線
100
AcDbVertex
100
AcDb3dPolylineVertex
 10
626.9909028653387
 20
105.2174965336422
 30
0.0
 70
    32
  0
VERTEX
  5
288
330
221
100
AcDbEntity
  8
1外形線
100
AcDbVertex
100
AcDb3dPolylineVertex
 10
627.0519028653388
 20
105.2994965336423
 30
0.0
 70
    32
  0
VERTEX
  5
289
330
221
100
AcDbEntity
  8
1外形線
100
AcDbVertex
100
AcDb3dPolylineVertex
 10
627.1119028653387
 20
105.3814965336421
 30
0.0
 70
    32
  0
VERTEX
  5
28A
330
221
100
AcDbEntity
  8
1外形線
100
AcDbVertex
100
AcDb3dPolylineVertex
 10
627.1709028653385
 20
105.4634965336422
 30
0.0
 70
    32
  0
VERTEX
  5
28B
330
221
100
AcDbEntity
  8
1外形線
100
AcDbVertex
100
AcDb3dPolylineVertex
 10
627.2299028653387
 20
105.5464965336422
 30
0.0
 70
    32
  0
VERTEX
  5
28C
330
221
100
AcDbEntity
  8
1外形線
100
AcDbVertex
100
AcDb3dPolylineVertex
 10
627.2889028653387
 20
105.6284965336423
 30
0.0
 70
    32
  0
VERTEX
  5
28D
330
221
100
AcDbEntity
  8
1外形線
100
AcDbVertex
100
AcDb3dPolylineVertex
 10
627.3469028653387
 20
105.7114965336422
 30
0.0
 70
    32
  0
VERTEX
  5
28E
330
221
100
AcDbEntity
  8
1外形線
100
AcDbVertex
100
AcDb3dPolylineVertex
 10
627.4049028653386
 20
105.7944965336422
 30
0.0
 70
    32
  0
VERTEX
  5
28F
330
221
100
AcDbEntity
  8
1外形線
100
AcDbVertex
100
AcDb3dPolylineVertex
 10
627.4629028653387
 20
105.8774965336422
 30
0.0
 70
    32
  0
VERTEX
  5
290
330
221
100
AcDbEntity
  8
1外形線
100
AcDbVertex
100
AcDb3dPolylineVertex
 10
627.5199028653387
 20
105.9614965336422
 30
0.0
 70
    32
  0
VERTEX
  5
291
330
221
100
AcDbEntity
  8
1外形線
100
AcDbVertex
100
AcDb3dPolylineVertex
 10
627.5769028653387
 20
106.0444965336422
 30
0.0
 70
    32
  0
VERTEX
  5
292
330
221
100
AcDbEntity
  8
1外形線
100
AcDbVertex
100
AcDb3dPolylineVertex
 10
627.6329028653387
 20
106.1284965336422
 30
0.0
 70
    32
  0
VERTEX
  5
293
330
221
100
AcDbEntity
  8
1外形線
100
AcDbVertex
100
AcDb3dPolylineVertex
 10
627.6899028653384
 20
106.2124965336422
 30
0.0
 70
    32
  0
VERTEX
  5
294
330
221
100
AcDbEntity
  8
1外形線
100
AcDbVertex
100
AcDb3dPolylineVertex
 10
627.7459028653387
 20
106.2964965336423
 30
0.0
 70
    32
  0
VERTEX
  5
295
330
221
100
AcDbEntity
  8
1外形線
100
AcDbVertex
100
AcDb3dPolylineVertex
 10
627.8009028653388
 20
106.3804965336422
 30
0.0
 70
    32
  0
VERTEX
  5
296
330
221
100
AcDbEntity
  8
1外形線
100
AcDbVertex
100
AcDb3dPolylineVertex
 10
627.8559028653387
 20
106.4654965336423
 30
0.0
 70
    32
  0
VERTEX
  5
297
330
221
100
AcDbEntity
  8
1外形線
100
AcDbVertex
100
AcDb3dPolylineVertex
 10
627.9109028653383
 20
106.5494965336422
 30
0.0
 70
    32
  0
VERTEX
  5
298
330
221
100
AcDbEntity
  8
1外形線
100
AcDbVertex
100
AcDb3dPolylineVertex
 10
627.9659028653387
 20
106.6344965336422
 30
0.0
 70
    32
  0
VERTEX
  5
299
330
221
100
AcDbEntity
  8
1外形線
100
AcDbVertex
100
AcDb3dPolylineVertex
 10
628.0199028653387
 20
106.7194965336422
 30
0.0
 70
    32
  0
VERTEX
  5
29A
330
221
100
AcDbEntity
  8
1外形線
100
AcDbVertex
100
AcDb3dPolylineVertex
 10
628.0739028653385
 20
106.8044965336423
 30
0.0
 70
    32
  0
VERTEX
  5
29B
330
221
100
AcDbEntity
  8
1外形線
100
AcDbVertex
100
AcDb3dPolylineVertex
 10
628.1279028653387
 20
106.8894965336422
 30
0.0
 70
    32
  0
VERTEX
  5
29C
330
221
100
AcDbEntity
  8
1外形線
100
AcDbVertex
100
AcDb3dPolylineVertex
 10
628.1819028653387
 20
106.9754965336422
 30
0.0
 70
    32
  0
VERTEX
  5
29D
330
221
100
AcDbEntity
  8
1外形線
100
AcDbVertex
100
AcDb3dPolylineVertex
 10
628.2349028653388
 20
107.0604965336422
 30
0.0
 70
    32
  0
VERTEX
  5
29E
330
221
100
AcDbEntity
  8
1外形線
100
AcDbVertex
100
AcDb3dPolylineVertex
 10
628.2879028653387
 20
107.1464965336421
 30
0.0
 70
    32
  0
VERTEX
  5
29F
330
221
100
AcDbEntity
  8
1外形線
100
AcDbVertex
100
AcDb3dPolylineVertex
 10
628.3409028653387
 20
107.2324965336422
 30
0.0
 70
    32
  0
VERTEX
  5
2A0
330
221
100
AcDbEntity
  8
1外形線
100
AcDbVertex
100
AcDb3dPolylineVertex
 10
628.3929028653387
 20
107.3184965336422
 30
0.0
 70
    32
  0
VERTEX
  5
2A1
330
221
100
AcDbEntity
  8
1外形線
100
AcDbVertex
100
AcDb3dPolylineVertex
 10
628.4459028653388
 20
107.4044965336422
 30
0.0
 70
    32
  0
VERTEX
  5
2A2
330
221
100
AcDbEntity
  8
1外形線
100
AcDbVertex
100
AcDb3dPolylineVertex
 10
628.4979028653387
 20
107.4904965336422
 30
0.0
 70
    32
  0
VERTEX
  5
2A3
330
221
100
AcDbEntity
  8
1外形線
100
AcDbVertex
100
AcDb3dPolylineVertex
 10
628.5489028653387
 20
107.5774965336423
 30
0.0
 70
    32
  0
VERTEX
  5
2A4
330
221
100
AcDbEntity
  8
1外形線
100
AcDbVertex
100
AcDb3dPolylineVertex
 10
628.6009028653388
 20
107.6634965336422
 30
0.0
 70
    32
  0
VERTEX
  5
2A5
330
221
100
AcDbEntity
  8
1外形線
100
AcDbVertex
100
AcDb3dPolylineVertex
 10
628.6519028653388
 20
107.7504965336423
 30
0.0
 70
    32
  0
VERTEX
  5
2A6
330
221
100
AcDbEntity
  8
1外形線
100
AcDbVertex
100
AcDb3dPolylineVertex
 10
628.7029028653387
 20
107.8374965336422
 30
0.0
 70
    32
  0
VERTEX
  5
2A7
330
221
100
AcDbEntity
  8
1外形線
100
AcDbVertex
100
AcDb3dPolylineVertex
 10
628.7539028653387
 20
107.9234965336423
 30
0.0
 70
    32
  0
VERTEX
  5
2A8
330
221
100
AcDbEntity
  8
1外形線
100
AcDbVertex
100
AcDb3dPolylineVertex
 10
628.8049028653382
 20
108.0104965336422
 30
0.0
 70
    32
  0
VERTEX
  5
2A9
330
221
100
AcDbEntity
  8
1外形線
100
AcDbVertex
100
AcDb3dPolylineVertex
 10
628.8559028653387
 20
108.0984965336421
 30
0.0
 70
    32
  0
VERTEX
  5
2AA
330
221
100
AcDbEntity
  8
1外形線
100
AcDbVertex
100
AcDb3dPolylineVertex
 10
628.9059028653387
 20
108.1854965336422
 30
0.0
 70
    32
  0
VERTEX
  5
2AB
330
221
100
AcDbEntity
  8
1外形線
100
AcDbVertex
100
AcDb3dPolylineVertex
 10
628.9559028653387
 20
108.2724965336423
 30
0.0
 70
    32
  0
VERTEX
  5
2AC
330
221
100
AcDbEntity
  8
1外形線
100
AcDbVertex
100
AcDb3dPolylineVertex
 10
629.0059028653387
 20
108.3594965336422
 30
0.0
 70
    32
  0
VERTEX
  5
2AD
330
221
100
AcDbEntity
  8
1外形線
100
AcDbVertex
100
AcDb3dPolylineVertex
 10
629.0559028653388
 20
108.4474965336422
 30
0.0
 70
    32
  0
VERTEX
  5
2AE
330
221
100
AcDbEntity
  8
1外形線
100
AcDbVertex
100
AcDb3dPolylineVertex
 10
629.1059028653387
 20
108.5354965336422
 30
0.0
 70
    32
  0
VERTEX
  5
2AF
330
221
100
AcDbEntity
  8
1外形線
100
AcDbVertex
100
AcDb3dPolylineVertex
 10
629.1549028653387
 20
108.6224965336422
 30
0.0
 70
    32
  0
VERTEX
  5
2B0
330
221
100
AcDbEntity
  8
1外形線
100
AcDbVertex
100
AcDb3dPolylineVertex
 10
629.2039028653387
 20
108.7104965336422
 30
0.0
 70
    32
  0
VERTEX
  5
2B1
330
221
100
AcDbEntity
  8
1外形線
100
AcDbVertex
100
AcDb3dPolylineVertex
 10
629.2539028653387
 20
108.7984965336422
 30
0.0
 70
    32
  0
VERTEX
  5
2B2
330
221
100
AcDbEntity
  8
1外形線
100
AcDbVertex
100
AcDb3dPolylineVertex
 10
629.3029028653387
 20
108.8864965336422
 30
0.0
 70
    32
  0
VERTEX
  5
2B3
330
221
100
AcDbEntity
  8
1外形線
100
AcDbVertex
100
AcDb3dPolylineVertex
 10
629.3519028653387
 20
108.9744965336423
 30
0.0
 70
    32
  0
VERTEX
  5
2B4
330
221
100
AcDbEntity
  8
1外形線
100
AcDbVertex
100
AcDb3dPolylineVertex
 10
629.4009028653387
 20
109.0624965336422
 30
0.0
 70
    32
  0
VERTEX
  5
2B5
330
221
100
AcDbEntity
  8
1外形線
100
AcDbVertex
100
AcDb3dPolylineVertex
 10
629.4489028653387
 20
109.1504965336423
 30
0.0
 70
    32
  0
VERTEX
  5
2B6
330
221
100
AcDbEntity
  8
1外形線
100
AcDbVertex
100
AcDb3dPolylineVertex
 10
629.4979028653387
 20
109.2394965336422
 30
0.0
 70
    32
  0
VERTEX
  5
2B7
330
221
100
AcDbEntity
  8
1外形線
100
AcDbVertex
100
AcDb3dPolylineVertex
 10
629.5459028653384
 20
109.3274965336422
 30
0.0
 70
    32
  0
VERTEX
  5
2B8
330
221
100
AcDbEntity
  8
1外形線
100
AcDbVertex
100
AcDb3dPolylineVertex
 10
629.5949028653388
 20
109.4154965336423
 30
0.0
 70
    32
  0
VERTEX
  5
2B9
330
221
100
AcDbEntity
  8
1外形線
100
AcDbVertex
100
AcDb3dPolylineVertex
 10
629.6429028653387
 20
109.5044965336422
 30
0.0
 70
    32
  0
VERTEX
  5
2BA
330
221
100
AcDbEntity
  8
1外形線
100
AcDbVertex
100
AcDb3dPolylineVertex
 10
629.6909028653388
 20
109.5924965336422
 30
0.0
 70
    32
  0
VERTEX
  5
2BB
330
221
100
AcDbEntity
  8
1外形線
100
AcDbVertex
100
AcDb3dPolylineVertex
 10
629.7399028653387
 20
109.6814965336422
 30
0.0
 70
    32
  0
VERTEX
  5
2BC
330
221
100
AcDbEntity
  8
1外形線
100
AcDbVertex
100
AcDb3dPolylineVertex
 10
629.7879028653388
 20
109.7694965336422
 30
0.0
 70
    32
  0
VERTEX
  5
2BD
330
221
100
AcDbEntity
  8
1外形線
100
AcDbVertex
100
AcDb3dPolylineVertex
 10
629.8359028653387
 20
109.8584965336423
 30
0.0
 70
    32
  0
VERTEX
  5
2BE
330
221
100
AcDbEntity
  8
1外形線
100
AcDbVertex
100
AcDb3dPolylineVertex
 10
629.8839028653388
 20
109.9474965336422
 30
0.0
 70
    32
  0
VERTEX
  5
2BF
330
221
100
AcDbEntity
  8
1外形線
100
AcDbVertex
100
AcDb3dPolylineVertex
 10
629.9319028653387
 20
110.0364965336422
 30
0.0
 70
    32
  0
VERTEX
  5
2C0
330
221
100
AcDbEntity
  8
1外形線
100
AcDbVertex
100
AcDb3dPolylineVertex
 10
629.9789028653387
 20
110.1244965336422
 30
0.0
 70
    32
  0
VERTEX
  5
2C1
330
221
100
AcDbEntity
  8
1外形線
100
AcDbVertex
100
AcDb3dPolylineVertex
 10
630.0269028653388
 20
110.2134965336422
 30
0.0
 70
    32
  0
SEQEND
  5
2C2
330
221
100
AcDbEntity
  8
1外形線
  0
ARC
  5
1F4
330
2E0
100
AcDbEntity
  8
1外形線
100
AcDbCircle
 10
645.5289743650606
 20
148.8371480049439
 30
0.0
 40
30.0
100
AcDbArc
 50
91.00000000000177
 51
176.3758679826549
  0
LINE
  5
1F5
330
2E0
100
AcDbEntity
  8
C4
100
AcDbLine
 10
673.4761729608414
 20
179.3644481421686
 30
0.0
 11
673.4761729608402
 21
113.9979165161387
 31
0.0
  0
LINE
  5
1F6
330
2E0
100
AcDbEntity
  8
C4
100
AcDbLine
 10
673.4761729608402
 20
113.9979165161414
 30
0.0
 11
675.2579639873535
 21
95.2891107377539
 31
0.0
  0
ARC
  5
1F7
330
2E0
100
AcDbEntity
  8
C4
100
AcDbCircle
 10
680.2354413503223
 20
95.76315620089404
 30
0.0
 40
5.0
100
AcDbArc
 50
185.4403320310013
 51
270.0
  0
LINE
  5
1F8
330
2E0
100
AcDbEntity
  8
C4
100
AcDbLine
 10
680.2354413503223
 20
90.76315620089404
 30
0.0
 11
686.6890072765762
 21
90.76315620089404
 31
0.0
  0
ARC
  5
1F9
330
2E0
100
AcDbEntity
  8
1外形線
  6
ByBlock
100
AcDbCircle
 10
672.5653865739517
 20
180.3487026346936
 30
0.0
 40
1.0
100
AcDbArc
 50
271.0000000000017
 51
354.559667968996
  0
ARC
  5
1FA
330
2E0
100
AcDbEntity
  8
C4
100
AcDbCircle
 10
680.2354413503223
 20
197.5992084573974
 30
0.0
 40
5.0
100
AcDbArc
 50
90.0
 51
174.5596679689984
  0
LINE
  5
1FB
330
2E0
100
AcDbEntity
  8
C4
100
AcDbLine
 10
680.2354413503223
 20
202.5992084573974
 30
0.0
 11
686.6890072765762
 21
202.5992084573974
 31
0.0
  0
ARC
  5
3FE
330
2E0
100
AcDbEntity
  8
1外形線
100
AcDbCircle
 10
651.0730737185318
 20
-179.1810655959087
 30
0.0
 40
30.0
100
AcDbArc
 50
91.00000000000177
 51
176.3701854237028
  0
ARC
  5
3FF
330
2E0
100
AcDbEntity
  8
1外形線
100
AcDbCircle
 10
820.7320400293257
 20
-189.9437395365663
 30
0.0
 40
200.0
100
AcDbArc
 50
176.3701854237028
 51
191.4783409545328
  0
LINE
  5
401
330
2E0
100
AcDbEntity
  8
1外形線
100
AcDbLine
 10
545.7746173880923
 20
-283.1361669863929
 30
0.0
 11
545.7746173880933
 21
-188.3361669863914
 31
0.0
  0
LINE
  5
402
330
2E0
100
AcDbEntity
  8
1外形線
100
AcDbLine
 10
465.9746173880932
 20
-283.1361669863913
 30
0.0
 11
465.9746173880932
 21
-188.3361669863909
 31
0.0
  0
LINE
  5
403
330
2E0
100
AcDbEntity
  8
1外形線
100
AcDbLine
 10
478.3746173880929
 20
-286.1361669863913
 30
0.0
 11
478.3746173880929
 21
-217.2456809912997
 31
0.0
  0
LINE
  5
404
330
2E0
100
AcDbEntity
  8
1外形線
100
AcDbLine
 10
533.3746173880938
 20
-286.1361669863913
 30
0.0
 11
533.3746173880938
 21
-217.2456809912997
 31
0.0
  0
ARC
  5
405
330
2E0
100
AcDbEntity
  8
1外形線
100
AcDbCircle
 10
505.8746173880932
 20
-188.6361669863919
 30
0.0
 40
73.5
100
AcDbArc
 50
302.8783495643773
 51
237.1216504356222
  0
LINE
  5
406
330
2E0
100
AcDbEntity
  8
1外形線
  6
ByBlock
100
AcDbLine
 10
506.8069983484731
 20
-324.7053484587433
 30
0.0
 11
481.3780661603384
 21
-324.7053484587433
 31
0.0
  0
LINE
  5
407
330
2E0
100
AcDbEntity
  8
1外形線
  6
ByBlock
100
AcDbLine
 10
506.8069983484731
 20
-326.7053484587433
 30
0.0
 11
481.3780661603384
 21
-326.7053484587433
 31
0.0
  0
ARC
  5
408
330
2E0
100
AcDbEntity
  8
1外形線
  6
ByBlock
100
AcDbCircle
 10
506.8069983484731
 20
-520.7053484587431
 30
0.0
 40
200.0
100
AcDbArc
 50
90.0
 51
98.2793756981048
  0
LINE
  5
409
330
2E0
100
AcDbEntity
  8
1外形線
100
AcDbLine
 10
506.8069983484731
 20
-389.7053484587432
 30
0.0
 11
469.3069983484732
 21
-389.7053484587432
 31
0.0
  0
LINE
  5
40A
330
2E0
100
AcDbEntity
  8
1外形線
100
AcDbLine
 10
506.8069983484731
 20
-392.2053484587432
 30
0.0
 11
433.3069983484738
 21
-392.2053484587432
 31
0.0
  0
LINE
  5
40B
330
2E0
100
AcDbEntity
  8
1外形線
100
AcDbLine
 10
544.7746173880934
 20
-286.1361669863913
 30
0.0
 11
466.974617388093
 21
-286.1361669863913
 31
0.0
  0
LINE
  5
40C
330
2E0
100
AcDbEntity
  8
1外形線
100
AcDbLine
 10
465.9746173880932
 20
-283.1361669863913
 30
0.0
 11
545.7746173880923
 21
-283.1361669863923
 31
0.0
  0
LINE
  5
40D
330
2E0
100
AcDbEntity
  8
1外形線
  6
ByBlock
100
AcDbLine
 10
467.3069983484731
 20
-335.1595320143943
 30
0.0
 11
467.3069983484731
 21
-392.2053484587432
 31
0.0
  0
LINE
  5
40E
330
2E0
100
AcDbEntity
  8
1外形線
  6
ByBlock
100
AcDbLine
 10
469.3069983484731
 20
-338.7764162706087
 30
0.0
 11
469.3069983484731
 21
-392.2053484587432
 31
0.0
  0
LINE
  5
40F
330
2E0
100
AcDbEntity
  8
1外形線
100
AcDbLine
 10
433.3069983484738
 20
-385.7500163373676
 30
0.0
 11
433.3069983484738
 21
-392.2053484587432
 31
0.0
  0
LINE
  5
410
330
2E0
100
AcDbEntity
  8
1外形線
100
AcDbLine
 10
437.8310276460434
 20
-380.7727227062433
 30
0.0
 11
467.3069983484731
 21
-377.9539823385253
 31
0.0
  0
ARC
  5
411
330
2E0
100
AcDbEntity
  8
1外形線
100
AcDbCircle
 10
438.3069983484737
 20
-385.7500163373676
 30
0.0
 40
5.0
100
AcDbArc
 50
95.46249388376164
 51
180.0
  0
LINE
  5
412
330
2E0
100
AcDbEntity
  8
1外形線
100
AcDbLine
 10
476.4283186920327
 20
-326.7556009904374
 30
0.0
 11
469.3572508801671
 21
-333.8266688023028
 31
0.0
  0
ARC
  5
413
330
2E0
100
AcDbEntity
  8
1外形線
  6
ByBlock
100
AcDbCircle
 10
479.806998348473
 20
-335.1595320143943
 30
0.0
 40
12.5
100
AcDbArc
 50
98.2793756981048
 51
180.0
  0
LINE
  5
414
330
2E0
100
AcDbEntity
  8
1外形線
100
AcDbLine
 10
477.8425322544059
 20
-328.1698145528105
 30
0.0
 11
470.7714644425402
 21
-335.240882364676
 31
0.0
  0
ARC
  5
415
330
2E0
100
AcDbEntity
  8
1外形線
100
AcDbCircle
 10
474.3069983484731
 20
-338.7764162706087
 30
0.0
 40
5.0
100
AcDbArc
 50
135.0
 51
180.0
  0
ARC
  5
416
330
2E0
100
AcDbEntity
  8
1外形線
100
AcDbCircle
 10
474.3069983484731
 20
-338.7764162706087
 30
0.0
 40
7.0
100
AcDbArc
 50
135.0000000000003
 51
180.0
  0
LINE
  5
417
330
2E0
100
AcDbEntity
  8
1外形線
100
AcDbLine
 10
469.3069983484731
 20
-336.7053484587434
 30
0.0
 11
469.3069983484731
 21
-336.7053484587434
 31
0.0
  0
ARC
  5
418
330
2E0
100
AcDbEntity
  8
1外形線
100
AcDbCircle
 10
481.3780661603384
 20
-331.7053484587433
 30
0.0
 40
7.0
100
AcDbArc
 50
90.0
 51
135.0000000000002
  0
ARC
  5
419
330
2E0
100
AcDbEntity
  8
1外形線
100
AcDbCircle
 10
481.3780661603384
 20
-331.7053484587433
 30
0.0
 40
5.0
100
AcDbArc
 50
90.0
 51
134.9999999999999
  0
LINE
  5
41A
330
2E0
100
AcDbEntity
  8
1外形線
100
AcDbLine
 10
465.9746173880932
 20
-283.1361669863913
 30
0.0
 11
466.974617388093
 21
-286.1361669863913
 31
0.0
  0
POINT
  5
41B
330
2E0
100
AcDbEntity
  8
DEFPOINTS
  6
ByBlock
 62
     0
100
AcDbPoint
 10
466.974617388093
 20
-286.1361669863913
 30
0.0
  0
LINE
  5
41C
330
2E0
100
AcDbEntity
  8
1外形線
  6
ByBlock
100
AcDbLine
 10
544.3069983484731
 20
-338.7764162706087
 30
0.0
 11
544.3069983484731
 21
-392.2053484587432
 31
0.0
  0
LINE
  5
41D
330
2E0
100
AcDbEntity
  8
1外形線
  6
ByBlock
100
AcDbLine
 10
546.3069983484731
 20
-335.1595320143943
 30
0.0
 11
546.3069983484731
 21
-392.2053484587432
 31
0.0
  0
LINE
  5
41E
330
2E0
100
AcDbEntity
  8
1外形線
100
AcDbLine
 10
575.7829690509027
 20
-380.7727227062433
 30
0.0
 11
546.3069983484731
 21
-377.9539823385253
 31
0.0
  0
LINE
  5
41F
330
2E0
100
AcDbEntity
  8
1外形線
100
AcDbLine
 10
506.8069983484731
 20
-392.2053484587432
 30
0.0
 11
580.3069983484722
 21
-392.2053484587432
 31
0.0
  0
LINE
  5
420
330
2E0
100
AcDbEntity
  8
1外形線
100
AcDbLine
 10
506.8069983484731
 20
-389.7053484587432
 30
0.0
 11
544.3069983484729
 21
-389.7053484587432
 31
0.0
  0
LINE
  5
421
330
2E0
100
AcDbEntity
  8
1外形線
100
AcDbLine
 10
580.3069983484722
 20
-385.7500163373676
 30
0.0
 11
580.3069983484722
 21
-392.2053484587432
 31
0.0
  0
ARC
  5
422
330
2E0
100
AcDbEntity
  8
1外形線
100
AcDbCircle
 10
575.3069983484722
 20
-385.7500163373676
 30
0.0
 40
5.0
100
AcDbArc
 50
0.0
 51
84.53750611623837
  0
LINE
  5
423
330
2E0
100
AcDbEntity
  8
1外形線
  6
ByBlock
100
AcDbLine
 10
506.8069983484731
 20
-326.7053484587433
 30
0.0
 11
532.2359305366076
 21
-326.7053484587433
 31
0.0
  0
LINE
  5
424
330
2E0
100
AcDbEntity
  8
1外形線
  6
ByBlock
100
AcDbLine
 10
506.8069983484731
 20
-324.7053484587433
 30
0.0
 11
532.2359305366076
 21
-324.7053484587433
 31
0.0
  0
ARC
  5
425
330
2E0
100
AcDbEntity
  8
1外形線
  6
ByBlock
100
AcDbCircle
 10
506.8069983484731
 20
-520.7053484587431
 30
0.0
 40
200.0
100
AcDbArc
 50
81.72062430189525
 51
90.0
  0
LINE
  5
426
330
2E0
100
AcDbEntity
  8
1外形線
100
AcDbLine
 10
535.7714644425404
 20
-328.1698145528105
 30
0.0
 11
542.8425322544057
 21
-335.240882364676
 31
0.0
  0
ARC
  5
427
330
2E0
100
AcDbEntity
  8
1外形線
  6
ByBlock
100
AcDbCircle
 10
533.8069983484732
 20
-335.1595320143943
 30
0.0
 40
12.5
100
AcDbArc
 50
0.0
 51
81.72062430189525
  0
LINE
  5
428
330
2E0
100
AcDbEntity
  8
1外形線
100
AcDbLine
 10
537.1856780049133
 20
-326.7556009904374
 30
0.0
 11
544.2567458167789
 21
-333.8266688023028
 31
0.0
  0
ARC
  5
429
330
2E0
100
AcDbEntity
  8
1外形線
100
AcDbCircle
 10
532.2359305366076
 20
-331.7053484587433
 30
0.0
 40
7.0
100
AcDbArc
 50
44.99999999999977
 51
90.0
  0
ARC
  5
42A
330
2E0
100
AcDbEntity
  8
1外形線
100
AcDbCircle
 10
532.2359305366076
 20
-331.7053484587433
 30
0.0
 40
5.0
100
AcDbArc
 50
45.00000000000006
 51
90.0
  0
ARC
  5
42B
330
2E0
100
AcDbEntity
  8
1外形線
100
AcDbCircle
 10
539.3069983484731
 20
-338.7764162706087
 30
0.0
 40
7.0
100
AcDbArc
 50
0.0
 51
44.99999999999963
  0
ARC
  5
42C
330
2E0
100
AcDbEntity
  8
1外形線
100
AcDbCircle
 10
539.3069983484731
 20
-338.7764162706087
 30
0.0
 40
5.0
100
AcDbArc
 50
0.0
 51
45.0
  0
LINE
  5
42D
330
2E0
100
AcDbEntity
  8
1外形線
100
AcDbLine
 10
544.3069983484731
 20
-336.7053484587434
 30
0.0
 11
544.3069983484731
 21
-336.7053484587434
 31
0.0
  0
LINE
  5
42E
330
2E0
100
AcDbEntity
  8
1外形線
100
AcDbLine
 10
545.7746173880923
 20
-283.1361669863929
 30
0.0
 11
544.7746173880934
 21
-286.1361669863913
 31
0.0
  0
TEXT
  5
42F
330
2E0
100
AcDbEntity
  8
1外形線
100
AcDbText
 10
429.7844189458561
 20
-94.97687970454776
 30
0.0
 40
10.0
  1
MWM-75-L
  7
KANJI
100
AcDbText
  0
ARC
  5
430
330
2E0
100
AcDbEntity
  8
1外形線
100
AcDbCircle
 10
505.8746173880932
 20
-188.3361669863914
 30
0.0
 40
39.9000000000001
100
AcDbArc
 50
226.4313614253993
 51
313.5686385746006
  0
ARC
  5
431
330
2E0
100
AcDbEntity
  8
1外形線
100
AcDbCircle
 10
505.8746173880932
 20
-188.3361669863909
 30
0.0
 40
39.90000000000032
100
AcDbArc
 50
0.0
 51
180.0
  0
ARC
  5
433
330
2E0
100
AcDbEntity
  8
1外形線
100
AcDbCircle
 10
505.8746173880932
 20
-121.1361669863922
 30
0.0
 40
5.5
100
AcDbArc
 50
180.0
 51
0.0
  0
LINE
  5
434
330
2E0
100
AcDbEntity
  8
1外形線
100
AcDbLine
 10
500.3746173880933
 20
-121.1361669863922
 30
0.0
 11
500.3746173880933
 21
-115.3430851224235
 31
0.0
  0
LINE
  5
435
330
2E0
100
AcDbEntity
  8
1外形線
100
AcDbLine
 10
511.3746173880933
 20
-121.1361669863922
 30
0.0
 11
511.3746173880933
 21
-115.3430851224235
 31
0.0
  0
LINE
  5
436
330
2E0
100
AcDbEntity
  8
1外形線
100
AcDbLine
 10
624.7320400293253
 20
-283.1361669863909
 30
0.0
 11
624.7320400293253
 21
-229.74323702083
 31
0.0
  0
LINE
  5
437
330
2E0
100
AcDbEntity
  8
1外形線
100
AcDbLine
 10
692.2320400293259
 20
-115.1361669863922
 30
0.0
 11
692.2320400293259
 21
-286.1361669863915
 31
0.0
  0
LINE
  5
438
330
2E0
100
AcDbEntity
  8
1外形線
100
AcDbLine
 10
635.8083052599591
 20
-286.1361669863915
 30
0.0
 11
635.7630541707862
 21
-217.8910574570021
 31
0.0
  0
LINE
  5
439
330
2E0
100
AcDbEntity
  8
1外形線
100
AcDbLine
 10
679.6680935832747
 20
-245.1817555791098
 30
0.0
 11
678.0251441345874
 21
-228.0011984871236
 31
0.0
  0
LINE
  5
43A
330
2E0
100
AcDbEntity
  8
1外形線
100
AcDbLine
 10
692.2320400293259
 20
-249.7057848766793
 30
0.0
 11
684.6453872143986
 21
-249.7057848766793
 31
0.0
  0
LINE
  5
43B
330
2E0
100
AcDbEntity
  8
1外形線
100
AcDbLine
 10
692.2320400293259
 20
-286.1361669863915
 30
0.0
 11
625.2320400293255
 21
-286.1361669863913
 31
0.0
  0
LINE
  5
43C
330
2E0
100
AcDbEntity
  8
1外形線
100
AcDbLine
 10
624.7320400293256
 20
-283.1361669863913
 30
0.0
 11
692.2320400293259
 21
-283.1361669863913
 31
0.0
  0
LINE
  5
43D
330
2E0
100
AcDbEntity
  8
1外形線
100
AcDbLine
 10
624.7320400293253
 20
-283.1361669863909
 30
0.0
 11
625.2320400293255
 21
-286.1361669863913
 31
0.0
  0
ARC
  5
43E
330
2E0
100
AcDbEntity
  8
1外形線
100
AcDbCircle
 10
684.6453872143986
 20
-244.7057848766796
 30
0.0
 40
5.0
100
AcDbArc
 50
185.4624938837605
 51
270.0
  0
LINE
  5
43F
330
2E0
100
AcDbEntity
  8
1外形線
100
AcDbLine
 10
680.7994142768257
 20
-119.6601962839616
 30
0.0
 11
678.110164147495
 21
-147.78206906497
 31
0.0
  0
LINE
  5
440
330
2E0
100
AcDbEntity
  8
1外形線
100
AcDbLine
 10
678.0251441345864
 20
-148.671135485674
 30
0.0
 11
678.0251441345868
 21
-228.0011984871201
 31
0.0
  0
POLYLINE
  5
441
330
2E0
100
AcDbEntity
  8
1外形線
100
AcDb3dPolyline
 66
     1
 10
0.0
 20
0.0
 30
0.0
 70
     8
  0
VERTEX
  5
442
330
441
100
AcDbEntity
  8
1外形線
100
AcDbVertex
100
AcDb3dPolylineVertex
 10
624.7325252956366
 20
-229.7428684073052
 30
0.0
 70
    32
  0
VERTEX
  5
443
330
441
100
AcDbEntity
  8
1外形線
100
AcDbVertex
100
AcDb3dPolylineVertex
 10
624.8145252956367
 20
-229.6798684073051
 30
0.0
 70
    32
  0
VERTEX
  5
444
330
441
100
AcDbEntity
  8
1外形線
100
AcDbVertex
100
AcDb3dPolylineVertex
 10
624.8965252956367
 20
-229.6158684073052
 30
0.0
 70
    32
  0
VERTEX
  5
445
330
441
100
AcDbEntity
  8
1外形線
100
AcDbVertex
100
AcDb3dPolylineVertex
 10
624.9795252956367
 20
-229.5528684073051
 30
0.0
 70
    32
  0
VERTEX
  5
446
330
441
100
AcDbEntity
  8
1外形線
100
AcDbVertex
100
AcDb3dPolylineVertex
 10
625.0625252956368
 20
-229.4888684073051
 30
0.0
 70
    32
  0
VERTEX
  5
447
330
441
100
AcDbEntity
  8
1外形線
100
AcDbVertex
100
AcDb3dPolylineVertex
 10
625.1455252956367
 20
-229.4258684073053
 30
0.0
 70
    32
  0
VERTEX
  5
448
330
441
100
AcDbEntity
  8
1外形線
100
AcDbVertex
100
AcDb3dPolylineVertex
 10
625.2295252956368
 20
-229.3618684073051
 30
0.0
 70
    32
  0
VERTEX
  5
449
330
441
100
AcDbEntity
  8
1外形線
100
AcDbVertex
100
AcDb3dPolylineVertex
 10
625.3125252956367
 20
-229.2988684073051
 30
0.0
 70
    32
  0
VERTEX
  5
44A
330
441
100
AcDbEntity
  8
1外形線
100
AcDbVertex
100
AcDb3dPolylineVertex
 10
625.3965252956366
 20
-229.2348684073052
 30
0.0
 70
    32
  0
VERTEX
  5
44B
330
441
100
AcDbEntity
  8
1外形線
100
AcDbVertex
100
AcDb3dPolylineVertex
 10
625.4815252956367
 20
-229.1708684073051
 30
0.0
 70
    32
  0
VERTEX
  5
44C
330
441
100
AcDbEntity
  8
1外形線
100
AcDbVertex
100
AcDb3dPolylineVertex
 10
625.5655252956367
 20
-229.1078684073053
 30
0.0
 70
    32
  0
VERTEX
  5
44D
330
441
100
AcDbEntity
  8
1外形線
100
AcDbVertex
100
AcDb3dPolylineVertex
 10
625.6495252956367
 20
-229.0438684073051
 30
0.0
 70
    32
  0
VERTEX
  5
44E
330
441
100
AcDbEntity
  8
1外形線
100
AcDbVertex
100
AcDb3dPolylineVertex
 10
625.7345252956367
 20
-228.9798684073053
 30
0.0
 70
    32
  0
VERTEX
  5
44F
330
441
100
AcDbEntity
  8
1外形線
100
AcDbVertex
100
AcDb3dPolylineVertex
 10
625.8195252956367
 20
-228.9158684073052
 30
0.0
 70
    32
  0
VERTEX
  5
450
330
441
100
AcDbEntity
  8
1外形線
100
AcDbVertex
100
AcDb3dPolylineVertex
 10
625.9045252956367
 20
-228.8518684073051
 30
0.0
 70
    32
  0
VERTEX
  5
451
330
441
100
AcDbEntity
  8
1外形線
100
AcDbVertex
100
AcDb3dPolylineVertex
 10
625.9895252956368
 20
-228.7878684073052
 30
0.0
 70
    32
  0
VERTEX
  5
452
330
441
100
AcDbEntity
  8
1外形線
100
AcDbVertex
100
AcDb3dPolylineVertex
 10
626.0745252956366
 20
-228.7238684073051
 30
0.0
 70
    32
  0
VERTEX
  5
453
330
441
100
AcDbEntity
  8
1外形線
100
AcDbVertex
100
AcDb3dPolylineVertex
 10
626.1595252956367
 20
-228.6598684073053
 30
0.0
 70
    32
  0
VERTEX
  5
454
330
441
100
AcDbEntity
  8
1外形線
100
AcDbVertex
100
AcDb3dPolylineVertex
 10
626.2455252956367
 20
-228.5958684073051
 30
0.0
 70
    32
  0
VERTEX
  5
455
330
441
100
AcDbEntity
  8
1外形線
100
AcDbVertex
100
AcDb3dPolylineVertex
 10
626.3305252956367
 20
-228.5318684073051
 30
0.0
 70
    32
  0
VERTEX
  5
456
330
441
100
AcDbEntity
  8
1外形線
100
AcDbVertex
100
AcDb3dPolylineVertex
 10
626.4165252956368
 20
-228.4678684073051
 30
0.0
 70
    32
  0
VERTEX
  5
457
330
441
100
AcDbEntity
  8
1外形線
100
AcDbVertex
100
AcDb3dPolylineVertex
 10
626.5025252956367
 20
-228.4028684073053
 30
0.0
 70
    32
  0
VERTEX
  5
458
330
441
100
AcDbEntity
  8
1外形線
100
AcDbVertex
100
AcDb3dPolylineVertex
 10
626.5885252956366
 20
-228.3388684073051
 30
0.0
 70
    32
  0
VERTEX
  5
459
330
441
100
AcDbEntity
  8
1外形線
100
AcDbVertex
100
AcDb3dPolylineVertex
 10
626.6735252956367
 20
-228.2738684073053
 30
0.0
 70
    32
  0
VERTEX
  5
45A
330
441
100
AcDbEntity
  8
1外形線
100
AcDbVertex
100
AcDb3dPolylineVertex
 10
626.7595252956367
 20
-228.2098684073051
 30
0.0
 70
    32
  0
VERTEX
  5
45B
330
441
100
AcDbEntity
  8
1外形線
100
AcDbVertex
100
AcDb3dPolylineVertex
 10
626.8455252956368
 20
-228.1448684073053
 30
0.0
 70
    32
  0
VERTEX
  5
45C
330
441
100
AcDbEntity
  8
1外形線
100
AcDbVertex
100
AcDb3dPolylineVertex
 10
626.9315252956367
 20
-228.0798684073053
 30
0.0
 70
    32
  0
VERTEX
  5
45D
330
441
100
AcDbEntity
  8
1外形線
100
AcDbVertex
100
AcDb3dPolylineVertex
 10
627.0175252956367
 20
-228.0148684073052
 30
0.0
 70
    32
  0
VERTEX
  5
45E
330
441
100
AcDbEntity
  8
1外形線
100
AcDbVertex
100
AcDb3dPolylineVertex
 10
627.1035252956363
 20
-227.9498684073053
 30
0.0
 70
    32
  0
VERTEX
  5
45F
330
441
100
AcDbEntity
  8
1外形線
100
AcDbVertex
100
AcDb3dPolylineVertex
 10
627.1895252956367
 20
-227.8848684073053
 30
0.0
 70
    32
  0
VERTEX
  5
460
330
441
100
AcDbEntity
  8
1外形線
100
AcDbVertex
100
AcDb3dPolylineVertex
 10
627.2755252956367
 20
-227.8188684073052
 30
0.0
 70
    32
  0
VERTEX
  5
461
330
441
100
AcDbEntity
  8
1外形線
100
AcDbVertex
100
AcDb3dPolylineVertex
 10
627.3615252956367
 20
-227.7538684073051
 30
0.0
 70
    32
  0
VERTEX
  5
462
330
441
100
AcDbEntity
  8
1外形線
100
AcDbVertex
100
AcDb3dPolylineVertex
 10
627.4465252956368
 20
-227.6878684073053
 30
0.0
 70
    32
  0
VERTEX
  5
463
330
441
100
AcDbEntity
  8
1外形線
100
AcDbVertex
100
AcDb3dPolylineVertex
 10
627.5325252956368
 20
-227.6218684073052
 30
0.0
 70
    32
  0
VERTEX
  5
464
330
441
100
AcDbEntity
  8
1外形線
100
AcDbVertex
100
AcDb3dPolylineVertex
 10
627.6185252956367
 20
-227.5568684073051
 30
0.0
 70
    32
  0
VERTEX
  5
465
330
441
100
AcDbEntity
  8
1外形線
100
AcDbVertex
100
AcDb3dPolylineVertex
 10
627.7045252956362
 20
-227.4908684073051
 30
0.0
 70
    32
  0
VERTEX
  5
466
330
441
100
AcDbEntity
  8
1外形線
100
AcDbVertex
100
AcDb3dPolylineVertex
 10
627.7895252956367
 20
-227.4238684073051
 30
0.0
 70
    32
  0
VERTEX
  5
467
330
441
100
AcDbEntity
  8
1外形線
100
AcDbVertex
100
AcDb3dPolylineVertex
 10
627.8755252956367
 20
-227.3578684073051
 30
0.0
 70
    32
  0
VERTEX
  5
468
330
441
100
AcDbEntity
  8
1外形線
100
AcDbVertex
100
AcDb3dPolylineVertex
 10
627.9605252956367
 20
-227.2918684073051
 30
0.0
 70
    32
  0
VERTEX
  5
469
330
441
100
AcDbEntity
  8
1外形線
100
AcDbVertex
100
AcDb3dPolylineVertex
 10
628.0455252956365
 20
-227.2248684073053
 30
0.0
 70
    32
  0
VERTEX
  5
46A
330
441
100
AcDbEntity
  8
1外形線
100
AcDbVertex
100
AcDb3dPolylineVertex
 10
628.1305252956367
 20
-227.1578684073053
 30
0.0
 70
    32
  0
VERTEX
  5
46B
330
441
100
AcDbEntity
  8
1外形線
100
AcDbVertex
100
AcDb3dPolylineVertex
 10
628.2155252956368
 20
-227.0908684073051
 30
0.0
 70
    32
  0
VERTEX
  5
46C
330
441
100
AcDbEntity
  8
1外形線
100
AcDbVertex
100
AcDb3dPolylineVertex
 10
628.3005252956367
 20
-227.0238684073051
 30
0.0
 70
    32
  0
VERTEX
  5
46D
330
441
100
AcDbEntity
  8
1外形線
100
AcDbVertex
100
AcDb3dPolylineVertex
 10
628.3855252956367
 20
-226.9558684073051
 30
0.0
 70
    32
  0
VERTEX
  5
46E
330
441
100
AcDbEntity
  8
1外形線
100
AcDbVertex
100
AcDb3dPolylineVertex
 10
628.4695252956367
 20
-226.8888684073051
 30
0.0
 70
    32
  0
VERTEX
  5
46F
330
441
100
AcDbEntity
  8
1外形線
100
AcDbVertex
100
AcDb3dPolylineVertex
 10
628.5535252956367
 20
-226.8208684073051
 30
0.0
 70
    32
  0
VERTEX
  5
470
330
441
100
AcDbEntity
  8
1外形線
100
AcDbVertex
100
AcDb3dPolylineVertex
 10
628.6375252956368
 20
-226.7528684073051
 30
0.0
 70
    32
  0
VERTEX
  5
471
330
441
100
AcDbEntity
  8
1外形線
100
AcDbVertex
100
AcDb3dPolylineVertex
 10
628.7215252956367
 20
-226.6848684073051
 30
0.0
 70
    32
  0
VERTEX
  5
472
330
441
100
AcDbEntity
  8
1外形線
100
AcDbVertex
100
AcDb3dPolylineVertex
 10
628.8055252956366
 20
-226.6168684073051
 30
0.0
 70
    32
  0
VERTEX
  5
473
330
441
100
AcDbEntity
  8
1外形線
100
AcDbVertex
100
AcDb3dPolylineVertex
 10
628.8885252956368
 20
-226.5478684073051
 30
0.0
 70
    32
  0
VERTEX
  5
474
330
441
100
AcDbEntity
  8
1外形線
100
AcDbVertex
100
AcDb3dPolylineVertex
 10
628.9725252956367
 20
-226.4788684073051
 30
0.0
 70
    32
  0
VERTEX
  5
475
330
441
100
AcDbEntity
  8
1外形線
100
AcDbVertex
100
AcDb3dPolylineVertex
 10
629.0555252956363
 20
-226.4098684073053
 30
0.0
 70
    32
  0
VERTEX
  5
476
330
441
100
AcDbEntity
  8
1外形線
100
AcDbVertex
100
AcDb3dPolylineVertex
 10
629.1375252956368
 20
-226.3408684073052
 30
0.0
 70
    32
  0
VERTEX
  5
477
330
441
100
AcDbEntity
  8
1外形線
100
AcDbVertex
100
AcDb3dPolylineVertex
 10
629.2205252956367
 20
-226.2718684073051
 30
0.0
 70
    32
  0
VERTEX
  5
478
330
441
100
AcDbEntity
  8
1外形線
100
AcDbVertex
100
AcDb3dPolylineVertex
 10
629.3025252956367
 20
-226.2018684073051
 30
0.0
 70
    32
  0
VERTEX
  5
479
330
441
100
AcDbEntity
  8
1外形線
100
AcDbVertex
100
AcDb3dPolylineVertex
 10
629.3845252956367
 20
-226.1318684073051
 30
0.0
 70
    32
  0
VERTEX
  5
47A
330
441
100
AcDbEntity
  8
1外形線
100
AcDbVertex
100
AcDb3dPolylineVertex
 10
629.4665252956368
 20
-226.0618684073051
 30
0.0
 70
    32
  0
VERTEX
  5
47B
330
441
100
AcDbEntity
  8
1外形線
100
AcDbVertex
100
AcDb3dPolylineVertex
 10
629.5475252956367
 20
-225.9918684073051
 30
0.0
 70
    32
  0
VERTEX
  5
47C
330
441
100
AcDbEntity
  8
1外形線
100
AcDbVertex
100
AcDb3dPolylineVertex
 10
629.6285252956367
 20
-225.9208684073052
 30
0.0
 70
    32
  0
VERTEX
  5
47D
330
441
100
AcDbEntity
  8
1外形線
100
AcDbVertex
100
AcDb3dPolylineVertex
 10
629.7095252956367
 20
-225.8498684073053
 30
0.0
 70
    32
  0
VERTEX
  5
47E
330
441
100
AcDbEntity
  8
1外形線
100
AcDbVertex
100
AcDb3dPolylineVertex
 10
629.7895252956367
 20
-225.7788684073052
 30
0.0
 70
    32
  0
VERTEX
  5
47F
330
441
100
AcDbEntity
  8
1外形線
100
AcDbVertex
100
AcDb3dPolylineVertex
 10
629.8695252956368
 20
-225.7078684073051
 30
0.0
 70
    32
  0
VERTEX
  5
480
330
441
100
AcDbEntity
  8
1外形線
100
AcDbVertex
100
AcDb3dPolylineVertex
 10
629.9485252956367
 20
-225.6358684073052
 30
0.0
 70
    32
  0
VERTEX
  5
481
330
441
100
AcDbEntity
  8
1外形線
100
AcDbVertex
100
AcDb3dPolylineVertex
 10
630.0285252956367
 20
-225.5638684073051
 30
0.0
 70
    32
  0
VERTEX
  5
482
330
441
100
AcDbEntity
  8
1外形線
100
AcDbVertex
100
AcDb3dPolylineVertex
 10
630.1065252956367
 20
-225.4918684073051
 30
0.0
 70
    32
  0
VERTEX
  5
483
330
441
100
AcDbEntity
  8
1外形線
100
AcDbVertex
100
AcDb3dPolylineVertex
 10
630.1855252956365
 20
-225.4188684073052
 30
0.0
 70
    32
  0
VERTEX
  5
484
330
441
100
AcDbEntity
  8
1外形線
100
AcDbVertex
100
AcDb3dPolylineVertex
 10
630.2635252956368
 20
-225.3468684073051
 30
0.0
 70
    32
  0
VERTEX
  5
485
330
441
100
AcDbEntity
  8
1外形線
100
AcDbVertex
100
AcDb3dPolylineVertex
 10
630.3415252956368
 20
-225.2738684073051
 30
0.0
 70
    32
  0
VERTEX
  5
486
330
441
100
AcDbEntity
  8
1外形線
100
AcDbVertex
100
AcDb3dPolylineVertex
 10
630.4185252956367
 20
-225.1998684073053
 30
0.0
 70
    32
  0
VERTEX
  5
487
330
441
100
AcDbEntity
  8
1外形線
100
AcDbVertex
100
AcDb3dPolylineVertex
 10
630.4955252956367
 20
-225.1268684073052
 30
0.0
 70
    32
  0
VERTEX
  5
488
330
441
100
AcDbEntity
  8
1外形線
100
AcDbVertex
100
AcDb3dPolylineVertex
 10
630.5715252956368
 20
-225.0528684073051
 30
0.0
 70
    32
  0
VERTEX
  5
489
330
441
100
AcDbEntity
  8
1外形線
100
AcDbVertex
100
AcDb3dPolylineVertex
 10
630.6475252956367
 20
-224.9778684073052
 30
0.0
 70
    32
  0
VERTEX
  5
48A
330
441
100
AcDbEntity
  8
1外形線
100
AcDbVertex
100
AcDb3dPolylineVertex
 10
630.7225252956367
 20
-224.9038684073052
 30
0.0
 70
    32
  0
VERTEX
  5
48B
330
441
100
AcDbEntity
  8
1外形線
100
AcDbVertex
100
AcDb3dPolylineVertex
 10
630.7975252956367
 20
-224.8288684073052
 30
0.0
 70
    32
  0
VERTEX
  5
48C
330
441
100
AcDbEntity
  8
1外形線
100
AcDbVertex
100
AcDb3dPolylineVertex
 10
630.8725252956365
 20
-224.7538684073052
 30
0.0
 70
    32
  0
VERTEX
  5
48D
330
441
100
AcDbEntity
  8
1外形線
100
AcDbVertex
100
AcDb3dPolylineVertex
 10
630.9455252956368
 20
-224.6778684073051
 30
0.0
 70
    32
  0
VERTEX
  5
48E
330
441
100
AcDbEntity
  8
1外形線
100
AcDbVertex
100
AcDb3dPolylineVertex
 10
631.0195252956368
 20
-224.6028684073051
 30
0.0
 70
    32
  0
VERTEX
  5
48F
330
441
100
AcDbEntity
  8
1外形線
100
AcDbVertex
100
AcDb3dPolylineVertex
 10
631.0925252956367
 20
-224.5258684073051
 30
0.0
 70
    32
  0
VERTEX
  5
490
330
441
100
AcDbEntity
  8
1外形線
100
AcDbVertex
100
AcDb3dPolylineVertex
 10
631.1645252956367
 20
-224.4498684073052
 30
0.0
 70
    32
  0
VERTEX
  5
491
330
441
100
AcDbEntity
  8
1外形線
100
AcDbVertex
100
AcDb3dPolylineVertex
 10
631.2365252956367
 20
-224.3728684073051
 30
0.0
 70
    32
  0
VERTEX
  5
492
330
441
100
AcDbEntity
  8
1外形線
100
AcDbVertex
100
AcDb3dPolylineVertex
 10
631.3075252956367
 20
-224.2958684073051
 30
0.0
 70
    32
  0
VERTEX
  5
493
330
441
100
AcDbEntity
  8
1外形線
100
AcDbVertex
100
AcDb3dPolylineVertex
 10
631.3785252956368
 20
-224.2178684073051
 30
0.0
 70
    32
  0
VERTEX
  5
494
330
441
100
AcDbEntity
  8
1外形線
100
AcDbVertex
100
AcDb3dPolylineVertex
 10
631.4485252956367
 20
-224.1398684073053
 30
0.0
 70
    32
  0
VERTEX
  5
495
330
441
100
AcDbEntity
  8
1外形線
100
AcDbVertex
100
AcDb3dPolylineVertex
 10
631.5185252956368
 20
-224.0618684073051
 30
0.0
 70
    32
  0
VERTEX
  5
496
330
441
100
AcDbEntity
  8
1外形線
100
AcDbVertex
100
AcDb3dPolylineVertex
 10
631.5875252956367
 20
-223.9838684073051
 30
0.0
 70
    32
  0
VERTEX
  5
497
330
441
100
AcDbEntity
  8
1外形線
100
AcDbVertex
100
AcDb3dPolylineVertex
 10
631.6565252956365
 20
-223.9048684073051
 30
0.0
 70
    32
  0
VERTEX
  5
498
330
441
100
AcDbEntity
  8
1外形線
100
AcDbVertex
100
AcDb3dPolylineVertex
 10
631.7245252956368
 20
-223.8258684073052
 30
0.0
 70
    32
  0
VERTEX
  5
499
330
441
100
AcDbEntity
  8
1外形線
100
AcDbVertex
100
AcDb3dPolylineVertex
 10
631.7915252956368
 20
-223.7458684073053
 30
0.0
 70
    32
  0
VERTEX
  5
49A
330
441
100
AcDbEntity
  8
1外形線
100
AcDbVertex
100
AcDb3dPolylineVertex
 10
631.8585252956367
 20
-223.6658684073052
 30
0.0
 70
    32
  0
VERTEX
  5
49B
330
441
100
AcDbEntity
  8
1外形線
100
AcDbVertex
100
AcDb3dPolylineVertex
 10
631.9255252956367
 20
-223.5858684073051
 30
0.0
 70
    32
  0
VERTEX
  5
49C
330
441
100
AcDbEntity
  8
1外形線
100
AcDbVertex
100
AcDb3dPolylineVertex
 10
631.9915252956367
 20
-223.5058684073051
 30
0.0
 70
    32
  0
VERTEX
  5
49D
330
441
100
AcDbEntity
  8
1外形線
100
AcDbVertex
100
AcDb3dPolylineVertex
 10
632.0575252956367
 20
-223.4248684073051
 30
0.0
 70
    32
  0
VERTEX
  5
49E
330
441
100
AcDbEntity
  8
1外形線
100
AcDbVertex
100
AcDb3dPolylineVertex
 10
632.1225252956367
 20
-223.3438684073052
 30
0.0
 70
    32
  0
VERTEX
  5
49F
330
441
100
AcDbEntity
  8
1外形線
100
AcDbVertex
100
AcDb3dPolylineVertex
 10
632.1865252956367
 20
-223.2628684073052
 30
0.0
 70
    32
  0
VERTEX
  5
4A0
330
441
100
AcDbEntity
  8
1外形線
100
AcDbVertex
100
AcDb3dPolylineVertex
 10
632.2515252956367
 20
-223.1808684073051
 30
0.0
 70
    32
  0
VERTEX
  5
4A1
330
441
100
AcDbEntity
  8
1外形線
100
AcDbVertex
100
AcDb3dPolylineVertex
 10
632.3145252956367
 20
-223.0988684073051
 30
0.0
 70
    32
  0
VERTEX
  5
4A2
330
441
100
AcDbEntity
  8
1外形線
100
AcDbVertex
100
AcDb3dPolylineVertex
 10
632.3785252956367
 20
-223.0168684073051
 30
0.0
 70
    32
  0
VERTEX
  5
4A3
330
441
100
AcDbEntity
  8
1外形線
100
AcDbVertex
100
AcDb3dPolylineVertex
 10
632.4405252956368
 20
-222.9348684073051
 30
0.0
 70
    32
  0
VERTEX
  5
4A4
330
441
100
AcDbEntity
  8
1外形線
100
AcDbVertex
100
AcDb3dPolylineVertex
 10
632.5035252956368
 20
-222.8518684073051
 30
0.0
 70
    32
  0
VERTEX
  5
4A5
330
441
100
AcDbEntity
  8
1外形線
100
AcDbVertex
100
AcDb3dPolylineVertex
 10
632.5655252956368
 20
-222.7688684073051
 30
0.0
 70
    32
  0
VERTEX
  5
4A6
330
441
100
AcDbEntity
  8
1外形線
100
AcDbVertex
100
AcDb3dPolylineVertex
 10
632.6265252956367
 20
-222.6858684073051
 30
0.0
 70
    32
  0
VERTEX
  5
4A7
330
441
100
AcDbEntity
  8
1外形線
100
AcDbVertex
100
AcDb3dPolylineVertex
 10
632.6885252956367
 20
-222.6018684073051
 30
0.0
 70
    32
  0
VERTEX
  5
4A8
330
441
100
AcDbEntity
  8
1外形線
100
AcDbVertex
100
AcDb3dPolylineVertex
 10
632.7485252956368
 20
-222.5178684073051
 30
0.0
 70
    32
  0
VERTEX
  5
4A9
330
441
100
AcDbEntity
  8
1外形線
100
AcDbVertex
100
AcDb3dPolylineVertex
 10
632.8095252956367
 20
-222.4338684073051
 30
0.0
 70
    32
  0
VERTEX
  5
4AA
330
441
100
AcDbEntity
  8
1外形線
100
AcDbVertex
100
AcDb3dPolylineVertex
 10
632.8695252956367
 20
-222.3498684073053
 30
0.0
 70
    32
  0
VERTEX
  5
4AB
330
441
100
AcDbEntity
  8
1外形線
100
AcDbVertex
100
AcDb3dPolylineVertex
 10
632.9285252956367
 20
-222.2658684073052
 30
0.0
 70
    32
  0
VERTEX
  5
4AC
330
441
100
AcDbEntity
  8
1外形線
100
AcDbVertex
100
AcDb3dPolylineVertex
 10
632.9875252956363
 20
-222.1808684073051
 30
0.0
 70
    32
  0
VERTEX
  5
4AD
330
441
100
AcDbEntity
  8
1外形線
100
AcDbVertex
100
AcDb3dPolylineVertex
 10
633.0465252956368
 20
-222.0958684073051
 30
0.0
 70
    32
  0
VERTEX
  5
4AE
330
441
100
AcDbEntity
  8
1外形線
100
AcDbVertex
100
AcDb3dPolylineVertex
 10
633.1055252956367
 20
-222.0108684073053
 30
0.0
 70
    32
  0
VERTEX
  5
4AF
330
441
100
AcDbEntity
  8
1外形線
100
AcDbVertex
100
AcDb3dPolylineVertex
 10
633.1635252956367
 20
-221.9248684073053
 30
0.0
 70
    32
  0
VERTEX
  5
4B0
330
441
100
AcDbEntity
  8
1外形線
100
AcDbVertex
100
AcDb3dPolylineVertex
 10
633.2205252956367
 20
-221.8398684073051
 30
0.0
 70
    32
  0
VERTEX
  5
4B1
330
441
100
AcDbEntity
  8
1外形線
100
AcDbVertex
100
AcDb3dPolylineVertex
 10
633.2785252956368
 20
-221.7538684073051
 30
0.0
 70
    32
  0
VERTEX
  5
4B2
330
441
100
AcDbEntity
  8
1外形線
100
AcDbVertex
100
AcDb3dPolylineVertex
 10
633.3355252956367
 20
-221.6678684073051
 30
0.0
 70
    32
  0
VERTEX
  5
4B3
330
441
100
AcDbEntity
  8
1外形線
100
AcDbVertex
100
AcDb3dPolylineVertex
 10
633.3925252956368
 20
-221.5808684073051
 30
0.0
 70
    32
  0
VERTEX
  5
4B4
330
441
100
AcDbEntity
  8
1外形線
100
AcDbVertex
100
AcDb3dPolylineVertex
 10
633.4485252956367
 20
-221.4948684073053
 30
0.0
 70
    32
  0
VERTEX
  5
4B5
330
441
100
AcDbEntity
  8
1外形線
100
AcDbVertex
100
AcDb3dPolylineVertex
 10
633.5045252956367
 20
-221.4078684073053
 30
0.0
 70
    32
  0
VERTEX
  5
4B6
330
441
100
AcDbEntity
  8
1外形線
100
AcDbVertex
100
AcDb3dPolylineVertex
 10
633.5605252956362
 20
-221.3208684073051
 30
0.0
 70
    32
  0
VERTEX
  5
4B7
330
441
100
AcDbEntity
  8
1外形線
100
AcDbVertex
100
AcDb3dPolylineVertex
 10
633.6155252956367
 20
-221.2338684073051
 30
0.0
 70
    32
  0
VERTEX
  5
4B8
330
441
100
AcDbEntity
  8
1外形線
100
AcDbVertex
100
AcDb3dPolylineVertex
 10
633.6705252956367
 20
-221.1468684073051
 30
0.0
 70
    32
  0
VERTEX
  5
4B9
330
441
100
AcDbEntity
  8
1外形線
100
AcDbVertex
100
AcDb3dPolylineVertex
 10
633.7255252956367
 20
-221.0598684073051
 30
0.0
 70
    32
  0
VERTEX
  5
4BA
330
441
100
AcDbEntity
  8
1外形線
100
AcDbVertex
100
AcDb3dPolylineVertex
 10
633.7805252956367
 20
-220.9718684073052
 30
0.0
 70
    32
  0
VERTEX
  5
4BB
330
441
100
AcDbEntity
  8
1外形線
100
AcDbVertex
100
AcDb3dPolylineVertex
 10
633.8345252956363
 20
-220.8838684073052
 30
0.0
 70
    32
  0
VERTEX
  5
4BC
330
441
100
AcDbEntity
  8
1外形線
100
AcDbVertex
100
AcDb3dPolylineVertex
 10
633.8885252956368
 20
-220.7958684073052
 30
0.0
 70
    32
  0
VERTEX
  5
4BD
330
441
100
AcDbEntity
  8
1外形線
100
AcDbVertex
100
AcDb3dPolylineVertex
 10
633.9425252956367
 20
-220.7078684073051
 30
0.0
 70
    32
  0
VERTEX
  5
4BE
330
441
100
AcDbEntity
  8
1外形線
100
AcDbVertex
100
AcDb3dPolylineVertex
 10
633.9965252956367
 20
-220.6198684073051
 30
0.0
 70
    32
  0
VERTEX
  5
4BF
330
441
100
AcDbEntity
  8
1外形線
100
AcDbVertex
100
AcDb3dPolylineVertex
 10
634.0495252956367
 20
-220.5318684073052
 30
0.0
 70
    32
  0
VERTEX
  5
4C0
330
441
100
AcDbEntity
  8
1外形線
100
AcDbVertex
100
AcDb3dPolylineVertex
 10
634.1025252956367
 20
-220.4428684073052
 30
0.0
 70
    32
  0
VERTEX
  5
4C1
330
441
100
AcDbEntity
  8
1外形線
100
AcDbVertex
100
AcDb3dPolylineVertex
 10
634.1555252956366
 20
-220.3538684073051
 30
0.0
 70
    32
  0
VERTEX
  5
4C2
330
441
100
AcDbEntity
  8
1外形線
100
AcDbVertex
100
AcDb3dPolylineVertex
 10
634.2075252956367
 20
-220.2648684073053
 30
0.0
 70
    32
  0
VERTEX
  5
4C3
330
441
100
AcDbEntity
  8
1外形線
100
AcDbVertex
100
AcDb3dPolylineVertex
 10
634.2605252956367
 20
-220.1758684073051
 30
0.0
 70
    32
  0
VERTEX
  5
4C4
330
441
100
AcDbEntity
  8
1外形線
100
AcDbVertex
100
AcDb3dPolylineVertex
 10
634.3125252956367
 20
-220.0868684073051
 30
0.0
 70
    32
  0
VERTEX
  5
4C5
330
441
100
AcDbEntity
  8
1外形線
100
AcDbVertex
100
AcDb3dPolylineVertex
 10
634.3645252956368
 20
-219.9978684073051
 30
0.0
 70
    32
  0
VERTEX
  5
4C6
330
441
100
AcDbEntity
  8
1外形線
100
AcDbVertex
100
AcDb3dPolylineVertex
 10
634.4165252956368
 20
-219.9078684073052
 30
0.0
 70
    32
  0
VERTEX
  5
4C7
330
441
100
AcDbEntity
  8
1外形線
100
AcDbVertex
100
AcDb3dPolylineVertex
 10
634.4675252956367
 20
-219.8188684073052
 30
0.0
 70
    32
  0
VERTEX
  5
4C8
330
441
100
AcDbEntity
  8
1外形線
100
AcDbVertex
100
AcDb3dPolylineVertex
 10
634.5195252956367
 20
-219.7288684073051
 30
0.0
 70
    32
  0
VERTEX
  5
4C9
330
441
100
AcDbEntity
  8
1外形線
100
AcDbVertex
100
AcDb3dPolylineVertex
 10
634.5705252956368
 20
-219.6398684073053
 30
0.0
 70
    32
  0
VERTEX
  5
4CA
330
441
100
AcDbEntity
  8
1外形線
100
AcDbVertex
100
AcDb3dPolylineVertex
 10
634.6215252956367
 20
-219.5498684073053
 30
0.0
 70
    32
  0
VERTEX
  5
4CB
330
441
100
AcDbEntity
  8
1外形線
100
AcDbVertex
100
AcDb3dPolylineVertex
 10
634.6725252956368
 20
-219.4598684073052
 30
0.0
 70
    32
  0
VERTEX
  5
4CC
330
441
100
AcDbEntity
  8
1外形線
100
AcDbVertex
100
AcDb3dPolylineVertex
 10
634.7225252956367
 20
-219.3698684073051
 30
0.0
 70
    32
  0
VERTEX
  5
4CD
330
441
100
AcDbEntity
  8
1外形線
100
AcDbVertex
100
AcDb3dPolylineVertex
 10
634.7735252956367
 20
-219.2798684073053
 30
0.0
 70
    32
  0
VERTEX
  5
4CE
330
441
100
AcDbEntity
  8
1外形線
100
AcDbVertex
100
AcDb3dPolylineVertex
 10
634.8235252956367
 20
-219.1888684073052
 30
0.0
 70
    32
  0
VERTEX
  5
4CF
330
441
100
AcDbEntity
  8
1外形線
100
AcDbVertex
100
AcDb3dPolylineVertex
 10
634.8735252956368
 20
-219.0988684073051
 30
0.0
 70
    32
  0
VERTEX
  5
4D0
330
441
100
AcDbEntity
  8
1外形線
100
AcDbVertex
100
AcDb3dPolylineVertex
 10
634.9245252956367
 20
-219.0078684073053
 30
0.0
 70
    32
  0
VERTEX
  5
4D1
330
441
100
AcDbEntity
  8
1外形線
100
AcDbVertex
100
AcDb3dPolylineVertex
 10
634.9745252956368
 20
-218.9178684073052
 30
0.0
 70
    32
  0
VERTEX
  5
4D2
330
441
100
AcDbEntity
  8
1外形線
100
AcDbVertex
100
AcDb3dPolylineVertex
 10
635.0245252956367
 20
-218.8268684073051
 30
0.0
 70
    32
  0
VERTEX
  5
4D3
330
441
100
AcDbEntity
  8
1外形線
100
AcDbVertex
100
AcDb3dPolylineVertex
 10
635.0735252956367
 20
-218.7368684073053
 30
0.0
 70
    32
  0
VERTEX
  5
4D4
330
441
100
AcDbEntity
  8
1外形線
100
AcDbVertex
100
AcDb3dPolylineVertex
 10
635.1235252956367
 20
-218.6458684073051
 30
0.0
 70
    32
  0
VERTEX
  5
4D5
330
441
100
AcDbEntity
  8
1外形線
100
AcDbVertex
100
AcDb3dPolylineVertex
 10
635.1735252956367
 20
-218.5548684073053
 30
0.0
 70
    32
  0
VERTEX
  5
4D6
330
441
100
AcDbEntity
  8
1外形線
100
AcDbVertex
100
AcDb3dPolylineVertex
 10
635.2225252956367
 20
-218.4638684073051
 30
0.0
 70
    32
  0
VERTEX
  5
4D7
330
441
100
AcDbEntity
  8
1外形線
100
AcDbVertex
100
AcDb3dPolylineVertex
 10
635.2715252956365
 20
-218.3728684073051
 30
0.0
 70
    32
  0
VERTEX
  5
4D8
330
441
100
AcDbEntity
  8
1外形線
100
AcDbVertex
100
AcDb3dPolylineVertex
 10
635.3215252956367
 20
-218.2828684073053
 30
0.0
 70
    32
  0
VERTEX
  5
4D9
330
441
100
AcDbEntity
  8
1外形線
100
AcDbVertex
100
AcDb3dPolylineVertex
 10
635.3705252956367
 20
-218.1918684073052
 30
0.0
 70
    32
  0
VERTEX
  5
4DA
330
441
100
AcDbEntity
  8
1外形線
100
AcDbVertex
100
AcDb3dPolylineVertex
 10
635.4195252956367
 20
-218.1008684073051
 30
0.0
 70
    32
  0
VERTEX
  5
4DB
330
441
100
AcDbEntity
  8
1外形線
100
AcDbVertex
100
AcDb3dPolylineVertex
 10
635.4685252956365
 20
-218.0088684073052
 30
0.0
 70
    32
  0
VERTEX
  5
4DC
330
441
100
AcDbEntity
  8
1外形線
100
AcDbVertex
100
AcDb3dPolylineVertex
 10
635.5175252956367
 20
-217.9178684073053
 30
0.0
 70
    32
  0
VERTEX
  5
4DD
330
441
100
AcDbEntity
  8
1外形線
100
AcDbVertex
100
AcDb3dPolylineVertex
 10
635.5675252956367
 20
-217.8268684073051
 30
0.0
 70
    32
  0
VERTEX
  5
4DE
330
441
100
AcDbEntity
  8
1外形線
100
AcDbVertex
100
AcDb3dPolylineVertex
 10
635.6165252956367
 20
-217.7358684073051
 30
0.0
 70
    32
  0
VERTEX
  5
4DF
330
441
100
AcDbEntity
  8
1外形線
100
AcDbVertex
100
AcDb3dPolylineVertex
 10
635.6655252956366
 20
-217.6448684073053
 30
0.0
 70
    32
  0
VERTEX
  5
4E0
330
441
100
AcDbEntity
  8
1外形線
100
AcDbVertex
100
AcDb3dPolylineVertex
 10
635.7145252956367
 20
-217.5538684073051
 30
0.0
 70
    32
  0
VERTEX
  5
4E1
330
441
100
AcDbEntity
  8
1外形線
100
AcDbVertex
100
AcDb3dPolylineVertex
 10
635.7635252956367
 20
-217.4628684073052
 30
0.0
 70
    32
  0
SEQEND
  5
4E2
330
441
100
AcDbEntity
  8
1外形線
  0
LINE
  5
4E3
330
2E0
100
AcDbEntity
  8
1外形線
100
AcDbLine
 10
677.1321578277072
 20
-148.6867226196408
 30
0.0
 11
650.5495015254133
 21
-149.185634741217
 31
0.0
  0
ARC
  5
4E4
330
2E0
100
AcDbEntity
  8
1外形線
100
AcDbCircle
 10
677.1147054212699
 20
-147.686874924484
 30
0.0
 40
1.0
100
AcDbArc
 50
271.0000000000017
 51
354.5375061162391
  0
LINE
  5
4E5
330
2E0
100
AcDbEntity
  8
1外形線
100
AcDbLine
 10
685.7767079079495
 20
-115.1361669863922
 30
0.0
 11
692.2320400293259
 21
-115.1361669863923
 31
0.0
  0
ARC
  5
4E6
330
2E0
100
AcDbEntity
  8
1外形線
100
AcDbCircle
 10
685.7767079079495
 20
-120.136166986392
 30
0.0
 40
5.0
100
AcDbArc
 50
90.0
 51
174.5375061162393
  0
LINE
  5
4EA
330
2E0
100
AcDbEntity
  8
1外形線
100
AcDbLine
 10
400.2166083519608
 20
-64.18450360309498
 30
0.0
 11
400.2166083519608
 21
254.8968764444668
 31
0.0
  0
LINE
  5
4EB
330
2E0
100
AcDbEntity
  8
1外形線
100
AcDbLine
 10
743.1556061631923
 20
254.8968764444668
 30
0.0
 11
400.2166083519608
 21
254.8968764444668
 31
0.0
  0
LINE
  5
4EC
330
2E0
100
AcDbEntity
  8
1外形線
100
AcDbLine
 10
743.1556061631921
 20
-64.18450360309498
 30
0.0
 11
743.1556061631921
 21
254.8968764444669
 31
0.0
  0
LINE
  5
C42
330
2E0
100
AcDbEntity
  8
1外形線
100
AcDbLine
 10
400.2166083519608
 20
-64.18450360309498
 30
0.0
 11
743.1556061631921
 21
-64.18450360309498
 31
0.0
  0
LINE
  5
C43
330
2E0
100
AcDbEntity
  8
1外形線
100
AcDbLine
 10
743.1556061631921
 20
-64.18450360309498
 30
0.0
 11
743.1556061631923
 21
-416.9713029237374
 31
0.0
  0
LINE
  5
C44
330
2E0
100
AcDbEntity
  8
1外形線
100
AcDbLine
 10
743.1556061631923
 20
-416.9713029237374
 30
0.0
 11
400.2166083519607
 21
-416.9713029237374
 31
0.0
  0
LINE
  5
C45
330
2E0
100
AcDbEntity
  8
1外形線
100
AcDbLine
 10
400.2166083519607
 20
-416.9713029237374
 30
0.0
 11
400.2166083519608
 21
-64.18450360309498
 31
0.0
  0
LINE
  5
C46
330
2E0
100
AcDbEntity
  8
1外形線
100
AcDbLine
 10
743.1556061631923
 20
-769.7581022443799
 30
0.0
 11
400.2166083519606
 21
-769.75810224438
 31
0.0
  0
LINE
  5
C47
330
2E0
100
AcDbEntity
  8
1外形線
100
AcDbLine
 10
400.2166083519606
 20
-769.75810224438
 30
0.0
 11
400.2166083519607
 21
-416.9713029237374
 31
0.0
  0
LINE
  5
C48
330
2E0
100
AcDbEntity
  8
1外形線
100
AcDbLine
 10
743.155606163192
 20
-416.9713029237374
 30
0.0
 11
743.1556061631923
 21
-769.7581022443799
 31
0.0
  0
TEXT
  5
C49
330
2E0
100
AcDbEntity
  8
1外形線
100
AcDbText
 10
429.7844189458561
 20
-447.7636790251901
 30
0.0
 40
10.0
  1
MWM-85
  7
KANJI
100
AcDbText
  0
LINE
  5
4FF6
330
2E0
100
AcDbEntity
  8
1外形線
 48
2.0
100
AcDbLine
 10
496.00426890391
 20
-648.9940033884087
 30
0.0
 11
452.1042689039095
 21
-648.9940033884087
 31
0.0
  0
LINE
  5
4FF7
330
2E0
100
AcDbEntity
  8
1外形線
 48
2.0
100
AcDbLine
 10
451.1042689039095
 20
-645.9940033884087
 30
0.0
 11
451.1042689039095
 21
-544.9940033884087
 31
0.0
  0
ARC
  5
4FF8
330
2E0
100
AcDbEntity
  8
1外形線
 48
2.0
100
AcDbCircle
 10
496.00426890391
 20
-544.9940033884087
 30
0.0
 40
73.20000000000004
100
AcDbArc
 50
90.0
 51
180.0
  0
ARC
  5
4FF9
330
2E0
100
AcDbEntity
  8
1外形線
 48
3.0
100
AcDbCircle
 10
496.00426890391
 20
-477.7940033884086
 30
0.0
 40
5.5
100
AcDbArc
 50
180.0
 51
270.0
  0
LINE
  5
4FFA
330
2E0
100
AcDbEntity
  8
1外形線
 48
3.0
100
AcDbLine
 10
490.5042689039101
 20
-477.7940033884086
 30
0.0
 11
490.5042689039101
 21
-472.0009215244398
 31
0.0
  0
ARC
  5
4FFB
330
2E0
100
AcDbEntity
  8
1外形線
 48
2.0
100
AcDbCircle
 10
496.00426890391
 20
-550.9940033884086
 30
0.0
 40
73.20000000000004
100
AcDbArc
 50
180.0
 51
232.1651189293574
  0
LINE
  5
4FFC
330
2E0
100
AcDbEntity
  8
1外形線
 48
2.0
100
AcDbLine
 10
422.8042689039098
 20
-544.9940033884087
 30
0.0
 11
422.8042689039098
 21
-550.9940033884086
 31
0.0
  0
LINE
  5
4FFD
330
2E0
100
AcDbEntity
  8
1外形線
 48
2.0
100
AcDbLine
 10
496.00426890391
 20
-645.9940033884087
 30
0.0
 11
451.1042689039095
 21
-645.9940033884087
 31
0.0
  0
LINE
  5
4FFE
330
2E0
100
AcDbEntity
  8
1外形線
 48
2.0
100
AcDbLine
 10
451.1042689039095
 20
-645.9940033884087
 30
0.0
 11
452.1042689039095
 21
-648.9940033884087
 31
0.0
  0
LINE
  5
4FFF
330
2E0
100
AcDbEntity
  8
1外形線
 48
2.0
100
AcDbLine
 10
496.00426890391
 20
-648.9940033884087
 30
0.0
 11
539.9042689039106
 21
-648.9940033884087
 31
0.0
  0
ARC
  5
5000
330
2E0
100
AcDbEntity
  8
1外形線
 48
2.0
100
AcDbCircle
 10
496.00426890391
 20
-544.9940033884087
 30
0.0
 40
73.20000000000004
100
AcDbArc
 50
0.0
 51
90.0
  0
ARC
  5
5001
330
2E0
100
AcDbEntity
  8
1外形線
 48
3.0
100
AcDbCircle
 10
496.00426890391
 20
-477.7940033884086
 30
0.0
 40
5.5
100
AcDbArc
 50
270.0
 51
0.0
  0
LINE
  5
5002
330
2E0
100
AcDbEntity
  8
1外形線
 48
3.0
100
AcDbLine
 10
501.5042689039098
 20
-477.7940033884086
 30
0.0
 11
501.5042689039098
 21
-472.0009215244398
 31
0.0
  0
LINE
  5
5003
330
2E0
100
AcDbEntity
  8
1外形線
 48
2.0
100
AcDbLine
 10
569.2042689039101
 20
-544.9940033884087
 30
0.0
 11
569.2042689039101
 21
-550.9940033884086
 31
0.0
  0
LINE
  5
5004
330
2E0
100
AcDbEntity
  8
1外形線
 48
2.0
100
AcDbLine
 10
496.00426890391
 20
-645.9940033884087
 30
0.0
 11
540.9042689039104
 21
-645.9940033884087
 31
0.0
  0
LINE
  5
5005
330
2E0
100
AcDbEntity
  8
1外形線
 48
2.0
100
AcDbLine
 10
468.7929990666908
 20
-648.9940033884087
 30
0.0
 11
468.7929990666908
 21
-580.7089413534404
 31
0.0
  0
ARC
  5
5006
330
2E0
100
AcDbEntity
  8
1外形線
 48
2.0
100
AcDbCircle
 10
496.00426890391
 20
-544.9940033884087
 30
0.0
 40
44.90000000000054
100
AcDbArc
 50
90.0
 51
180.0
  0
ARC
  5
5007
330
2E0
100
AcDbEntity
  8
1外形線
 48
2.0
100
AcDbCircle
 10
496.00426890391
 20
-544.9940033884087
 30
0.0
 40
44.90000000000054
100
AcDbArc
 50
232.6961648669655
 51
270.0
  0
LINE
  5
5008
330
2E0
100
AcDbEntity
  8
1外形線
 48
2.0
100
AcDbLine
 10
540.9042689039106
 20
-645.9940033884087
 30
0.0
 11
540.9042689039106
 21
-544.9940033884087
 31
0.0
  0
LINE
  5
5009
330
2E0
100
AcDbEntity
  8
1外形線
 48
2.0
100
AcDbLine
 10
540.9042689039106
 20
-645.9940033884087
 30
0.0
 11
539.9042689039106
 21
-648.9940033884087
 31
0.0
  0
LINE
  5
500A
330
2E0
100
AcDbEntity
  8
1外形線
 48
2.0
100
AcDbLine
 10
523.2155387411294
 20
-648.9940033884087
 30
0.0
 11
523.2155387411294
 21
-580.7089413534404
 31
0.0
  0
ARC
  5
500B
330
2E0
100
AcDbEntity
  8
1外形線
 48
2.0
100
AcDbCircle
 10
496.00426890391
 20
-544.9940033884087
 30
0.0
 40
44.90000000000054
100
AcDbArc
 50
0.0
 51
90.0
  0
ARC
  5
500C
330
2E0
100
AcDbEntity
  8
1外形線
 48
2.0
100
AcDbCircle
 10
496.00426890391
 20
-544.9940033884087
 30
0.0
 40
44.90000000000054
100
AcDbArc
 50
270.0
 51
307.3038351330345
  0
ARC
  5
500D
330
2E0
100
AcDbEntity
  8
1外形線
 48
2.0
100
AcDbCircle
 10
496.00426890391
 20
-550.9940033884086
 30
0.0
 40
73.20000000000004
100
AcDbArc
 50
307.8348810706426
 51
0.0
  0
LINE
  5
500E
330
2E0
100
AcDbEntity
  8
1外形線
 48
3.0
100
AcDbLine
 10
685.9893732594791
 20
-499.4049369677113
 30
0.0
 11
688.1971373301365
 21
-476.3180326859781
 31
0.0
  0
LINE
  5
500F
330
2E0
100
AcDbEntity
  8
1外形線
 48
3.0
100
AcDbLine
 10
699.6297630826366
 20
-648.9940033884087
 30
0.0
 11
699.6297630826366
 21
-471.7940033884079
 31
0.0
  0
ARC
  5
5010
330
2E0
100
AcDbEntity
  8
1外形線
 48
3.0
100
AcDbCircle
 10
693.1744309612578
 20
-603.8060263594132
 30
0.0
 40
5.0
100
AcDbArc
 50
185.4624938837358
 51
270.0
  0
LINE
  5
5011
330
2E0
100
AcDbEntity
  8
1外形線
 48
3.0
100
AcDbLine
 10
699.6297630826366
 20
-648.9940033884087
 30
0.0
 11
628.1297630826284
 21
-648.9940033884087
 31
0.0
  0
LINE
  5
5012
330
2E0
100
AcDbEntity
  8
1外形線
 48
3.0
100
AcDbLine
 10
699.6297630826366
 20
-645.9940033884087
 30
0.0
 11
627.1297630826284
 21
-645.9940033884087
 31
0.0
  0
ARC
  5
5013
330
2E0
100
AcDbEntity
  8
1外形線
 48
3.0
100
AcDbCircle
 10
823.8297630826309
 20
-553.7123782176267
 30
0.0
 40
200.0
100
AcDbArc
 50
172.2648696022038
 51
190.4226600272763
  0
ARC
  5
5014
330
2E0
100
AcDbEntity
  8
1外形線
 48
3.0
100
AcDbCircle
 10
684.9939145332538
 20
-499.3097428272258
 30
0.0
 40
1.0
100
AcDbArc
 50
271.0000000000018
 51
354.5375061162383
  0
LINE
  5
5015
330
2E0
100
AcDbEntity
  8
1外形線
 48
3.0
100
AcDbLine
 10
685.9043532465692
 20
-544.9940033884087
 30
0.0
 11
685.9043532465703
 21
-500.2940033884168
 31
0.0
  0
LINE
  5
5016
330
2E0
100
AcDbEntity
  8
1外形線
 48
3.0
100
AcDbLine
 10
685.9043532465692
 20
-580.3060263594061
 30
0.0
 11
685.9043532465692
 21
-544.9940033884066
 31
0.0
  0
LINE
  5
5017
330
2E0
100
AcDbEntity
  8
1外形線
 48
3.0
100
AcDbLine
 10
685.9043532465692
 20
-580.3060263594061
 30
0.0
 11
688.197137330134
 21
-604.2819970618427
 31
0.0
  0
LINE
  5
5018
330
2E0
100
AcDbEntity
  8
1外形線
 48
3.0
100
AcDbLine
 10
685.0113669396904
 20
-500.3095905223815
 30
0.0
 11
654.8530445185642
 21
-500.8360059983705
 31
0.0
  0
LINE
  5
5019
330
2E0
100
AcDbEntity
  8
1外形線
 48
3.0
100
AcDbLine
 10
643.6970620441408
 20
-648.9940033884087
 30
0.0
 11
643.6970620441408
 21
-577.9281934674464
 31
0.0
  0
LINE
  5
501A
330
2E0
100
AcDbEntity
  8
1外形線
 48
3.0
100
AcDbLine
 10
627.1297630826284
 20
-645.9940033884095
 30
0.0
 11
628.1297630826284
 21
-648.9940033884087
 31
0.0
  0
LINE
  5
501B
330
2E0
100
AcDbEntity
  8
1外形線
 48
3.0
100
AcDbLine
 10
627.1297630826284
 20
-645.9940033884087
 30
0.0
 11
627.1297630826284
 21
-589.8940033884091
 31
0.0
  0
SPLINE
  5
501C
330
2E0
100
AcDbEntity
  8
1外形線
 48
3.0
100
AcDbSpline
210
0.0
220
0.0
230
1.0
 70
  1064
 71
     3
 72
    11
 73
     7
 74
     5
 42
0.000000001
 43
0.0000000001
 44
0.0000000001
 40
0.0
 40
0.0
 40
0.0
 40
0.0
 40
5.913048858634992
 40
14.50609807971478
 40
18.01686912695809
 40
21.32385728440108
 40
21.32385728440108
 40
21.32385728440108
 40
21.32385728440108
 10
627.1297630826311
 20
-589.8940033884238
 30
0.0
 10
629.079762219579
 20
-589.5459763109445
 30
0.0
 10
633.8635682411745
 20
-588.6921841233597
 30
0.0
 10
639.0391328126106
 20
-585.0512191183281
 30
0.0
 10
642.0400372577102
 20
-580.8707698314476
 30
0.0
 10
643.155837542501
 20
-578.8893103072091
 30
0.0
 10
643.6970620441434
 20
-577.9281934674409
 30
0.0
 11
627.1297630826311
 21
-589.8940033884238
 31
0.0
 11
632.8772819248097
 21
-588.5046963800895
 31
0.0
 11
639.9345611387507
 21
-583.6021149159651
 31
0.0
 11
642.0235558179156
 21
-580.7804815987918
 31
0.0
 11
643.6970620441434
 21
-577.9281934674409
 31
0.0
  0
LINE
  5
501D
330
2E0
100
AcDbEntity
  8
1外形線
 48
3.0
100
AcDbLine
 10
693.1744309612578
 20
-608.8060263594134
 30
0.0
 11
699.6297630826338
 21
-608.8060263594134
 31
0.0
  0
ARC
  5
501E
330
2E0
100
AcDbEntity
  8
1外形線
 48
3.0
100
AcDbCircle
 10
693.1744309612602
 20
-476.7940033884078
 30
0.0
 40
5.0
100
AcDbArc
 50
90.0
 51
174.5375061162642
  0
LINE
  5
501F
330
2E0
100
AcDbEntity
  8
1外形線
 48
3.0
100
AcDbLine
 10
693.1744309612602
 20
-471.7940033884079
 30
0.0
 11
699.6297630826366
 21
-471.7940033884079
 31
0.0
  0
ARC
  5
5020
330
2E0
100
AcDbEntity
  8
1外形線
 48
3.0
100
AcDbCircle
 10
655.376616711685
 20
-530.8314368530618
 30
0.0
 40
30.0
100
AcDbArc
 50
91.00000000000177
 51
172.2648696022038
  0
LINE
  5
5022
102
{ACAD_REACTORS
330
5046
102
}
330
2E0
100
AcDbEntity
  8
1外形線
100
AcDbLine
 10
422.8042689039105
 20
-753.5664774286281
 30
0.0
 11
569.2042689039102
 21
-753.5664774286276
 31
0.0
  0
ARC
  5
5023
102
{ACAD_REACTORS
330
5046
102
}
330
2E0
100
AcDbEntity
  8
1外形線
 48
3.0
100
AcDbCircle
 10
466.0042689039105
 20
-695.2151147933392
 30
0.0
 40
15.0
100
AcDbArc
 50
99.33241818379732
 51
180.0
  0
ARC
  5
5024
102
{ACAD_REACTORS
330
5046
102
}
330
2E0
100
AcDbEntity
  8
1外形線
100
AcDbCircle
 10
458.5042689039105
 20
-700.3375452404933
 30
0.0
 40
7.500000000000111
100
AcDbArc
 50
134.9999999999952
 51
180.0
  0
LINE
  5
5025
102
{ACAD_REACTORS
330
5046
102
}
330
2E0
100
AcDbEntity
  8
1外形線
100
AcDbLine
 10
453.5042689039102
 20
-753.5664774286279
 30
0.0
 11
453.5042689039108
 21
-720.7498219838782
 31
0.0
  0
LINE
  5
5026
102
{ACAD_REACTORS
330
5046
102
}
330
2E0
100
AcDbEntity
  8
1外形線
100
AcDbLine
 10
453.5042689039108
 20
-720.7498219838782
 30
0.0
 11
453.5042689039105
 21
-700.3375452404933
 31
0.0
  0
LINE
  5
5027
102
{ACAD_REACTORS
330
5046
102
}
330
2E0
100
AcDbEntity
  8
1外形線
100
AcDbLine
 10
451.0042689039103
 20
-695.2151147933392
 30
0.0
 11
451.0042689039103
 21
-720.7498219838782
 31
0.0
  0
LINE
  5
5028
102
{ACAD_REACTORS
330
5046
102
}
330
2E0
100
AcDbEntity
  8
1外形線
100
AcDbLine
 10
451.0042689039103
 20
-720.7498219838782
 30
0.0
 11
451.0042689039103
 21
-753.5664774286281
 31
0.0
  0
LINE
  5
5029
102
{ACAD_REACTORS
330
5046
102
}
330
2E0
100
AcDbEntity
  8
1外形線
100
AcDbLine
 10
538.5042689039105
 20
-753.5664774286277
 30
0.0
 11
538.5042689039105
 21
-720.7498219838782
 31
0.0
  0
LINE
  5
502A
102
{ACAD_REACTORS
330
5046
102
}
330
2E0
100
AcDbEntity
  8
1外形線
100
AcDbLine
 10
538.5042689039105
 20
-720.7498219838782
 30
0.0
 11
538.5042689039105
 21
-700.3375452404933
 31
0.0
  0
LINE
  5
502B
102
{ACAD_REACTORS
330
5046
102
}
330
2E0
100
AcDbEntity
  8
1外形線
100
AcDbLine
 10
541.0042689039105
 20
-695.2151147933392
 30
0.0
 11
541.0042689039105
 21
-720.7498219838782
 31
0.0
  0
LINE
  5
502C
102
{ACAD_REACTORS
330
5046
102
}
330
2E0
100
AcDbEntity
  8
1外形線
100
AcDbLine
 10
541.0042689039105
 20
-720.7498219838782
 30
0.0
 11
541.0042689039105
 21
-753.5664774286276
 31
0.0
  0
LINE
  5
502D
102
{ACAD_REACTORS
330
5046
102
}
330
2E0
100
AcDbEntity
  8
1外形線
100
AcDbLine
 10
453.5042689039105
 20
-751.0664774286277
 30
0.0
 11
538.5042689039105
 21
-751.0664774286277
 31
0.0
  0
LINE
  5
502E
102
{ACAD_REACTORS
330
5046
102
}
330
2E0
100
AcDbEntity
  8
1外形線
100
AcDbLine
 10
521.4332010920452
 20
-680.7664774286275
 30
0.0
 11
496.0042689039105
 21
-680.7664774286275
 31
0.0
  0
ARC
  5
502F
102
{ACAD_REACTORS
330
5046
102
}
330
2E0
100
AcDbEntity
  8
1外形線
 48
3.0
100
AcDbCircle
 10
496.0042689039105
 20
-877.7664774286261
 30
0.0
 40
200.0
100
AcDbArc
 50
80.6675818162027
 51
90.0
  0
LINE
  5
5030
102
{ACAD_REACTORS
330
5046
102
}
330
2E0
100
AcDbEntity
  8
1外形線
100
AcDbLine
 10
521.4332010920452
 20
-683.2664774286278
 30
0.0
 11
496.0042689039105
 21
-683.2664774286278
 31
0.0
  0
LINE
  5
5031
102
{ACAD_REACTORS
330
5046
102
}
330
2E0
100
AcDbEntity
  8
1外形線
100
AcDbLine
 10
454.9687349979776
 20
-696.8020113345602
 30
0.0
 11
467.0398028098433
 21
-684.730943522695
 31
0.0
  0
LINE
  5
5032
102
{ACAD_REACTORS
330
5046
102
}
330
2E0
100
AcDbEntity
  8
1外形線
100
AcDbLine
 10
453.2009680450114
 20
-695.0342443815941
 30
0.0
 11
465.2720358568769
 21
-682.9631765697286
 31
0.0
  0
ARC
  5
5033
102
{ACAD_REACTORS
330
5046
102
}
330
2E0
100
AcDbEntity
  8
1外形線
100
AcDbCircle
 10
458.5042689039105
 20
-700.3375452404933
 30
0.0
 40
5.0
100
AcDbArc
 50
134.9999999999952
 51
180.0
  0
LINE
  5
5034
102
{ACAD_REACTORS
330
5046
102
}
330
2E0
100
AcDbEntity
  8
1外形線
100
AcDbLine
 10
470.5753367157758
 20
-680.7664774286275
 30
0.0
 11
496.0042689039105
 21
-680.7664774286275
 31
0.0
  0
LINE
  5
5035
102
{ACAD_REACTORS
330
5046
102
}
330
2E0
100
AcDbEntity
  8
1外形線
100
AcDbLine
 10
470.5753367157758
 20
-683.2664774286278
 30
0.0
 11
496.0042689039105
 21
-683.2664774286278
 31
0.0
  0
ARC
  5
5036
102
{ACAD_REACTORS
330
5046
102
}
330
2E0
100
AcDbEntity
  8
1外形線
 48
3.0
100
AcDbCircle
 10
496.0042689039105
 20
-877.7664774286261
 30
0.0
 40
200.0
100
AcDbArc
 50
90.0
 51
99.33241818379732
  0
ARC
  5
5037
102
{ACAD_REACTORS
330
5046
102
}
330
2E0
100
AcDbEntity
  8
1外形線
100
AcDbCircle
 10
470.5753367157758
 20
-688.2664774286279
 30
0.0
 40
7.500000000000111
100
AcDbArc
 50
90.0
 51
134.9999999999952
  0
ARC
  5
5038
102
{ACAD_REACTORS
330
5046
102
}
330
2E0
100
AcDbEntity
  8
1外形線
100
AcDbCircle
 10
470.5753367157758
 20
-688.2664774286279
 30
0.0
 40
5.0
100
AcDbArc
 50
90.0
 51
134.9999999999952
  0
LINE
  5
5039
102
{ACAD_REACTORS
330
5046
102
}
330
2E0
100
AcDbEntity
  8
1外形線
100
AcDbLine
 10
538.8075697628099
 20
-695.0342443815941
 30
0.0
 11
526.7365019509443
 21
-682.9631765697286
 31
0.0
  0
LINE
  5
503A
102
{ACAD_REACTORS
330
5046
102
}
330
2E0
100
AcDbEntity
  8
1外形線
100
AcDbLine
 10
537.0398028098434
 20
-696.8020113345602
 30
0.0
 11
524.9687349979775
 21
-684.730943522695
 31
0.0
  0
ARC
  5
503B
102
{ACAD_REACTORS
330
5046
102
}
330
2E0
100
AcDbEntity
  8
1外形線
 48
3.0
100
AcDbCircle
 10
526.0042689039105
 20
-695.2151147933392
 30
0.0
 40
15.0
100
AcDbArc
 50
0.0
 51
80.6675818162027
  0
ARC
  5
503C
102
{ACAD_REACTORS
330
5046
102
}
330
2E0
100
AcDbEntity
  8
1外形線
100
AcDbCircle
 10
533.5042689039105
 20
-700.3375452404933
 30
0.0
 40
7.500000000000111
100
AcDbArc
 50
0.0
 51
45.0000000000046
  0
ARC
  5
503D
102
{ACAD_REACTORS
330
5046
102
}
330
2E0
100
AcDbEntity
  8
1外形線
100
AcDbCircle
 10
533.5042689039105
 20
-700.3375452404933
 30
0.0
 40
5.0
100
AcDbArc
 50
0.0
 51
45.0000000000046
  0
ARC
  5
503E
102
{ACAD_REACTORS
330
5046
102
}
330
2E0
100
AcDbEntity
  8
1外形線
100
AcDbCircle
 10
521.4332010920452
 20
-688.2664774286279
 30
0.0
 40
5.0
100
AcDbArc
 50
45.0000000000046
 51
90.0
  0
ARC
  5
503F
102
{ACAD_REACTORS
330
5046
102
}
330
2E0
100
AcDbEntity
  8
1外形線
100
AcDbCircle
 10
521.4332010920452
 20
-688.2664774286279
 30
0.0
 40
7.500000000000111
100
AcDbArc
 50
45.0000000000046
 51
90.0
  0
LINE
  5
5040
102
{ACAD_REACTORS
330
5046
102
}
330
2E0
100
AcDbEntity
  8
1外形線
 48
3.0
100
AcDbLine
 10
422.8042689039105
 20
-747.1111453072512
 30
0.0
 11
422.8042689039105
 21
-753.5664774286273
 31
0.0
  0
ARC
  5
5041
102
{ACAD_REACTORS
330
5046
102
}
330
2E0
100
AcDbEntity
  8
1外形線
 48
3.0
100
AcDbCircle
 10
427.8042689039105
 20
-747.1111453072512
 30
0.0
 40
5.0
100
AcDbArc
 50
95.46249388376171
 51
180.0
  0
LINE
  5
5042
102
{ACAD_REACTORS
330
5046
102
}
330
2E0
100
AcDbEntity
  8
1外形線
 48
3.0
100
AcDbLine
 10
451.0042689039103
 20
-739.8697561171529
 30
0.0
 11
427.3282982014801
 21
-742.133851676127
 31
0.0
  0
LINE
  5
5043
102
{ACAD_REACTORS
330
5046
102
}
330
2E0
100
AcDbEntity
  8
1外形線
 48
3.0
100
AcDbLine
 10
541.0042689039109
 20
-739.8697561171529
 30
0.0
 11
564.680239606341
 21
-742.133851676127
 31
0.0
  0
LINE
  5
5044
102
{ACAD_REACTORS
330
5046
102
}
330
2E0
100
AcDbEntity
  8
1外形線
 48
3.0
100
AcDbLine
 10
569.2042689039107
 20
-747.1111453072512
 30
0.0
 11
569.2042689039107
 21
-753.5664774286273
 31
0.0
  0
ARC
  5
5045
102
{ACAD_REACTORS
330
5046
102
}
330
2E0
100
AcDbEntity
  8
1外形線
 48
3.0
100
AcDbCircle
 10
564.2042689039107
 20
-747.1111453072512
 30
0.0
 40
5.0
100
AcDbArc
 50
0.000000000000007
 51
84.53750611623828
  0
ENDSEC
  0
SECTION
  2
OBJECTS
  0
DICTIONARY
  5
2CE
330
0
100
AcDbDictionary
281
     1
  3
ACAD_CIP_PREVIOUS_PRODUCT_INFO
350
5105
  3
ACAD_COLOR
350
C59
  3
ACAD_DETAILVIEWSTYLE
350
5102
  3
ACAD_GROUP
350
2CF
  3
ACAD_LAYOUT
350
2DB
  3
ACAD_MATERIAL
350
C58
  3
ACAD_MLEADERSTYLE
350
50FE
  3
ACAD_MLINESTYLE
350
2D8
  3
ACAD_PLOTSETTINGS
350
2DA
  3
ACAD_PLOTSTYLENAME
350
2D0
  3
ACAD_SCALELIST
350
50EC
  3
ACAD_SECTIONVIEWSTYLE
350
5100
  3
ACAD_TABLESTYLE
350
C5A
  3
ACAD_VISUALSTYLE
350
50D3
  3
ACDB_RECOMPOSE_DATA
350
557F
  3
AcDbVariableDictionary
350
4E7
  3
DWGPROPS
350
5580
  0
DICTIONARY
  5
F3C
330
2C4
100
AcDbDictionary
280
     1
281
     1
  3
ACAD_LAYERSTATES
360
F3D
  0
DICTIONARY
  5
5106
330
2D2
100
AcDbDictionary
280
     1
281
     1
  3
ADSK_XREC_LAYER_RECONCILED
360
5107
  0
DICTIONARY
  5
5108
330
2E4
100
AcDbDictionary
280
     1
281
     1
  3
ADSK_XREC_LAYER_RECONCILED
360
5109
  0
DICTIONARY
  5
510A
330
2EA
100
AcDbDictionary
280
     1
281
     1
  3
ADSK_XREC_LAYER_RECONCILED
360
510B
  0
DICTIONARY
  5
510C
330
2F0
100
AcDbDictionary
280
     1
281
     1
  3
ADSK_XREC_LAYER_RECONCILED
360
510D
  0
DICTIONARY
  5
51F5
330
51F4
100
AcDbDictionary
280
     1
281
     1
  0
DICTIONARY
  5
4FED
330
2E0
100
AcDbDictionary
280
     1
281
     1
  3
ACAD_SORTENTS
360
4FEE
  0
XRECORD
  5
5105
102
{ACAD_REACTORS
330
2CE
102
}
330
2CE
100
AcDbXrecord
280
     1
300
ACDLT
300
2020
300
ACDLT_F_S
  0
DICTIONARY
  5
C59
102
{ACAD_REACTORS
330
2CE
102
}
330
2CE
100
AcDbDictionary
281
     1
  0
DICTIONARY
  5
5102
102
{ACAD_REACTORS
330
2CE
102
}
330
2CE
100
AcDbDictionary
281
     1
  3
Imperial24
350
5103
  3
Metric50
350
51F8
  0
DICTIONARY
  5
2CF
102
{ACAD_REACTORS
330
2CE
102
}
330
2CE
100
AcDbDictionary
281
     1
  3
*A1
350
5046
  0
DICTIONARY
  5
2DB
102
{ACAD_REACTORS
330
2CE
102
}
330
2CE
100
AcDbDictionary
281
     1
  3
Model
350
2E3
  3
\U+FF9A\U+FF72\U+FF71\U+FF73\U+FF841
350
2DF
  0
DICTIONARY
  5
C58
102
{ACAD_REACTORS
330
2CE
102
}
330
2CE
100
AcDbDictionary
281
     1
  3
ByBlock
350
50C3
  3
ByLayer
350
50BB
  3
Global
350
50CB
  0
DICTIONARY
  5
50FE
102
{ACAD_REACTORS
330
2CE
102
}
330
2CE
100
AcDbDictionary
281
     1
  3
Standard
350
50FF
  0
DICTIONARY
  5
2D8
102
{ACAD_REACTORS
330
2CE
102
}
330
2CE
100
AcDbDictionary
281
     1
  3
Standard
350
2D9
  0
DICTIONARY
  5
2DA
102
{ACAD_REACTORS
330
2CE
102
}
330
2CE
100
AcDbDictionary
281
     1
  0
ACDBDICTIONARYWDFLT
  5
2D0
102
{ACAD_REACTORS
330
2CE
102
}
330
2CE
100
AcDbDictionary
281
     1
  3
Normal
350
2D1
100
AcDbDictionaryWithDefault
340
2D1
  0
DICTIONARY
  5
50EC
102
{ACAD_REACTORS
330
2CE
102
}
330
2CE
100
AcDbDictionary
281
     1
  3
A0
350
50ED
  3
A1
350
50EE
  3
A2
350
50EF
  3
A3
350
50F0
  3
A4
350
50F1
  3
A5
350
50F2
  3
A6
350
50F3
  3
A7
350
50F4
  3
A8
350
50F5
  3
A9
350
50F6
  3
B0
350
50F7
  3
B1
350
50F8
  3
B2
350
50F9
  3
B3
350
50FA
  3
B4
350
50FB
  3
B5
350
50FC
  3
B6
350
50FD
  0
DICTIONARY
  5
5100
102
{ACAD_REACTORS
330
2CE
102
}
330
2CE
100
AcDbDictionary
281
     1
  3
Imperial24
350
5101
  3
Metric50
350
51F7
  0
DICTIONARY
  5
C5A
102
{ACAD_REACTORS
330
2CE
102
}
330
2CE
100
AcDbDictionary
281
     1
  3
Standard
350
C5B
  0
DICTIONARY
  5
50D3
102
{ACAD_REACTORS
330
2CE
102
}
330
2CE
100
AcDbDictionary
281
     1
  3
2dWireframe
350
50D9
  3
Basic
350
50D8
  3
Brighten
350
50DF
  3
ColorChange
350
50E3
  3
Conceptual
350
50DC
  3
Dim
350
50DE
  3
EdgeColorOff
350
50EB
  3
Facepattern
350
50E2
  3
Flat
350
50D4
  3
FlatWithEdges
350
50D5
  3
Gouraud
350
50D6
  3
GouraudWithEdges
350
50D7
  3
Hidden
350
50DB
  3
JitterOff
350
50E9
  3
Linepattern
350
50E1
  3
OverhangOff
350
50EA
  3
Realistic
350
50DD
  3
Shaded
350
50E8
  3
Shaded with edges
350
50E7
  3
Shades of Gray
350
50E4
  3
Sketchy
350
50E5
  3
Thicken
350
50E0
  3
Wireframe
350
50DA
  3
X-Ray
350
50E6
  0
XRECORD
  5
557F
102
{ACAD_REACTORS
330
2CE
102
}
330
2CE
100
AcDbXrecord
280
     1
 90
        1
330
C5B
  0
DICTIONARY
  5
4E7
102
{ACAD_REACTORS
330
2CE
102
}
330
2CE
100
AcDbDictionary
281
     1
  3
CANNOSCALE
350
5111
  3
CMLEADERSTYLE
350
510E
  3
CTABLESTYLE
350
4FBD
  3
CVIEWDETAILSTYLE
350
510F
  3
CVIEWSECTIONSTYLE
350
5110
  3
DIMASSOC
350
4E8
  3
INDEXCTL
350
5113
  3
PROJECTNAME
350
5083
  3
SORTENTS
350
5112
  3
XCLIPFRAME
350
557D
  0
XRECORD
  5
5580
102
{ACAD_REACTORS
330
2CE
102
}
330
2CE
100
AcDbXrecord
280
     1
  1
DWGPROPS COOKIE
  2

  3

  4

  6

  7

  8
takaaki.hirami
  9

300
=
301
=
302
=
303
=
304
=
305
=
306
=
307
=
308
=
309
=
 40
0.3634684143518518
 41
2453462.486793982
 42
2459990.433321759
  1

 90
        0
  0
DICTIONARY
  5
F3D
102
{ACAD_REACTORS
330
F3C
102
}
330
F3C
100
AcDbDictionary
281
     1
  0
XRECORD
  5
5107
102
{ACAD_REACTORS
330
5106
102
}
330
5106
100
AcDbXrecord
280
     1
290
     1
  0
XRECORD
  5
5109
102
{ACAD_REACTORS
330
5108
102
}
330
5108
100
AcDbXrecord
280
     1
290
     1
  0
XRECORD
  5
510B
102
{ACAD_REACTORS
330
510A
102
}
330
510A
100
AcDbXrecord
280
     1
290
     1
  0
XRECORD
  5
510D
102
{ACAD_REACTORS
330
510C
102
}
330
510C
100
AcDbXrecord
280
     1
290
     1
  0
SORTENTSTABLE
  5
4FEE
102
{ACAD_REACTORS
330
4FED
102
}
330
4FED
100
AcDbSortentsTable
330
2E0
  0
ACDBDETAILVIEWSTYLE
  5
5103
102
{ACAD_XDICTIONARY
360
55B8
102
}
102
{ACAD_REACTORS
330
5102
102
}
330
5102
100
AcDbModelDocViewStyle
 70
     0
  3
Imperial24
290
     0
100
AcDbDetailViewStyle
 70
     0
 71
     0
 90
        3
 71
     1
340
2D3
 40
0.24
340
0
 40
0.24
300

 40
0.36
280
     3
 71
     2
340
2D7
 90
       25
 71
     3
340
2D3
 40
0.24
 90
        1
 40
0.75
 90
        1
300
%<\AcVar ViewType \f "%tc1">% %<\AcVar ViewDetailId>%\PSCALE %<\AcVar ViewScale \f "%sn">%
 71
     4
340
2D7
 90
       25
340
2D7
 90
       25
280
     0
  0
ACDBDETAILVIEWSTYLE
  5
51F8
102
{ACAD_XDICTIONARY
360
55BC
102
}
102
{ACAD_REACTORS
330
5102
102
}
330
5102
100
AcDbModelDocViewStyle
 70
     0
  3
Metric50
290
     0
100
AcDbDetailViewStyle
 70
     0
 71
     0
 90
        3
 71
     1
340
2D3
 40
5.0
340
0
 40
5.0
300

 40
0.0
280
     1
 71
     2
340
2D7
 90
       25
 71
     3
340
2D3
 40
5.0
 90
        0
 40
15.0
 90
        1
300
%<\AcVar ViewDetailId>% (%<\AcVar ViewScale \f "%sn">%)
 71
     4
340
2D7
 90
       25
340
2D7
 90
       25
280
     0
  0
GROUP
  5
5046
102
{ACAD_REACTORS
330
2CF
102
}
330
2CF
100
AcDbGroup
300

 70
     1
 71
     1
340
5045
340
5044
340
5043
340
5042
340
5041
340
5040
340
503F
340
503E
340
503D
340
503C
340
503B
340
503A
340
5039
340
5038
340
5037
340
5036
340
5035
340
5034
340
5033
340
5032
340
5031
340
5030
340
502F
340
502E
340
502D
340
502C
340
502B
340
502A
340
5029
340
5028
340
5027
340
5026
340
5025
340
5024
340
5023
340
5022
  0
LAYOUT
  5
2E3
102
{ACAD_XDICTIONARY
360
5583
102
}
102
{ACAD_REACTORS
330
2DB
102
}
330
2DB
100
AcDbPlotSettings
  1

  2
none_device
  4
Letter_(8.50_x_11.00_Inches)
  6

 40
6.349999904632567
 41
6.349999904632567
 42
6.350006103515625
 43
6.350006103515625
 44
215.8999938964844
 45
279.3999938964844
 46
0.0
 47
0.0
 48
0.0
 49
0.0
140
0.0
141
0.0
142
1.0
143
320.7541225702485
 70
 11952
 72
     0
 73
     1
 74
     0
  7
INABA-CAD-Canon.ctb
 75
     0
147
0.0031176528363435
148
16305.49867193478
149
61625.23552479949
100
AcDbLayout
  1
Model
 70
     1
 71
     0
 10
0.0
 20
0.0
 11
12.0
 21
9.0
 12
0.0
 22
0.0
 32
0.0
 14
0.0
 24
0.0
 34
0.0
 15
0.0
 25
0.0
 35
0.0
146
0.0
 13
0.0
 23
0.0
 33
0.0
 16
1.0
 26
0.0
 36
0.0
 17
0.0
 27
1.0
 37
0.0
 76
     0
330
2E0
331
50B1
1001
ACAD_PSEXT
1000
なし
1000
なし
1000
適切ではありません
1000
新しいプロッタ環境設定名を選択しない限り、レイアウトは印刷されません。
1070
     0
  0
LAYOUT
  5
2DF
102
{ACAD_XDICTIONARY
360
5581
102
}
102
{ACAD_REACTORS
330
2DB
102
}
330
2DB
100
AcDbPlotSettings
  1

  2
Canon LASER SHOT LBP-1710
  4

  6

 40
0.0
 41
0.0
 42
0.0
 43
0.0
 44
0.0
 45
0.0
 46
0.0
 47
0.0
 48
0.0
 49
0.0
140
0.0
141
0.0
142
1.0
143
1.0
 70
   688
 72
     0
 73
     0
 74
     5
  7
INABA-CAD-Canon.ctb
 75
    16
147
1.0
148
0.0
149
0.0
100
AcDbLayout
  1
\U+FF9A\U+FF72\U+FF71\U+FF73\U+FF841
 70
     1
 71
     1
 10
0.0
 20
0.0
 11
420.0
 21
297.0
 12
0.0
 22
0.0
 32
0.0
 14
1.000000000000000E+20
 24
1.000000000000000E+20
 34
1.000000000000000E+20
 15
-1.000000000000000E+20
 25
-1.000000000000000E+20
 35
-1.000000000000000E+20
146
0.0
 13
0.0
 23
0.0
 33
0.0
 16
1.0
 26
0.0
 36
0.0
 17
0.0
 27
1.0
 37
0.0
 76
     0
330
2DC
  0
MATERIAL
  5
50C3
102
{ACAD_XDICTIONARY
360
50C4
102
}
102
{ACAD_REACTORS
330
C58
102
}
330
C58
100
AcDbMaterial
  1
ByBlock
 72
     0
 43
0.0208333333333333
 43
0.0
 43
0.0
 43
0.0
 43
0.0
 43
0.0208333333333333
 43
0.0
 43
0.0
 43
0.0
 43
0.0
 43
1.0
 43
0.0
 43
0.0
 43
0.0
 43
0.0
 43
1.0
 77
     0
 47
0.0208333333333333
 47
0.0
 47
0.0
 47
0.0
 47
0.0
 47
0.0208333333333333
 47
0.0
 47
0.0
 47
0.0
 47
0.0
 47
1.0
 47
0.0
 47
0.0
 47
0.0
 47
0.0
 47
1.0
171
     0
 49
0.0208333333333333
 49
0.0
 49
0.0
 49
0.0
 49
0.0
 49
0.0208333333333333
 49
0.0
 49
0.0
 49
0.0
 49
0.0
 49
1.0
 49
0.0
 49
0.0
 49
0.0
 49
0.0
 49
1.0
175
     0
142
0.0208333333333333
142
0.0
142
0.0
142
0.0
142
0.0
142
0.0208333333333333
142
0.0
142
0.0
142
0.0
142
0.0
142
1.0
142
0.0
142
0.0
142
0.0
142
0.0
142
1.0
179
     0
144
0.0208333333333333
144
0.0
144
0.0
144
0.0
144
0.0
144
0.0208333333333333
144
0.0
144
0.0
144
0.0
144
0.0
144
1.0
144
0.0
144
0.0
144
0.0
144
0.0
144
1.0
147
0.0208333333333333
147
0.0
147
0.0
147
0.0
147
0.0
147
0.0208333333333333
147
0.0
147
0.0
147
0.0
147
0.0
147
1.0
147
0.0
147
0.0
147
0.0
147
0.0
147
1.0
  0
MATERIAL
  5
50BB
102
{ACAD_XDICTIONARY
360
50BC
102
}
102
{ACAD_REACTORS
330
C58
102
}
330
C58
100
AcDbMaterial
  1
ByLayer
 72
     0
 43
0.0208333333333333
 43
0.0
 43
0.0
 43
0.0
 43
0.0
 43
0.0208333333333333
 43
0.0
 43
0.0
 43
0.0
 43
0.0
 43
1.0
 43
0.0
 43
0.0
 43
0.0
 43
0.0
 43
1.0
 77
     0
 47
0.0208333333333333
 47
0.0
 47
0.0
 47
0.0
 47
0.0
 47
0.0208333333333333
 47
0.0
 47
0.0
 47
0.0
 47
0.0
 47
1.0
 47
0.0
 47
0.0
 47
0.0
 47
0.0
 47
1.0
171
     0
 49
0.0208333333333333
 49
0.0
 49
0.0
 49
0.0
 49
0.0
 49
0.0208333333333333
 49
0.0
 49
0.0
 49
0.0
 49
0.0
 49
1.0
 49
0.0
 49
0.0
 49
0.0
 49
0.0
 49
1.0
175
     0
142
0.0208333333333333
142
0.0
142
0.0
142
0.0
142
0.0
142
0.0208333333333333
142
0.0
142
0.0
142
0.0
142
0.0
142
1.0
142
0.0
142
0.0
142
0.0
142
0.0
142
1.0
179
     0
144
0.0208333333333333
144
0.0
144
0.0
144
0.0
144
0.0
144
0.0208333333333333
144
0.0
144
0.0
144
0.0
144
0.0
144
1.0
144
0.0
144
0.0
144
0.0
144
0.0
144
1.0
147
0.0208333333333333
147
0.0
147
0.0
147
0.0
147
0.0
147
0.0208333333333333
147
0.0
147
0.0
147
0.0
147
0.0
147
1.0
147
0.0
147
0.0
147
0.0
147
0.0
147
1.0
  0
MATERIAL
  5
50CB
102
{ACAD_XDICTIONARY
360
50CC
102
}
102
{ACAD_REACTORS
330
C58
102
}
330
C58
100
AcDbMaterial
  1
Global
 72
     0
 43
0.0208333333333333
 43
0.0
 43
0.0
 43
0.0
 43
0.0
 43
0.0208333333333333
 43
0.0
 43
0.0
 43
0.0
 43
0.0
 43
1.0
 43
0.0
 43
0.0
 43
0.0
 43
0.0
 43
1.0
 77
     0
 47
0.0208333333333333
 47
0.0
 47
0.0
 47
0.0
 47
0.0
 47
0.0208333333333333
 47
0.0
 47
0.0
 47
0.0
 47
0.0
 47
1.0
 47
0.0
 47
0.0
 47
0.0
 47
0.0
 47
1.0
171
     0
 49
0.0208333333333333
 49
0.0
 49
0.0
 49
0.0
 49
0.0
 49
0.0208333333333333
 49
0.0
 49
0.0
 49
0.0
 49
0.0
 49
1.0
 49
0.0
 49
0.0
 49
0.0
 49
0.0
 49
1.0
175
     0
142
0.0208333333333333
142
0.0
142
0.0
142
0.0
142
0.0
142
0.0208333333333333
142
0.0
142
0.0
142
0.0
142
0.0
142
1.0
142
0.0
142
0.0
142
0.0
142
0.0
142
1.0
179
     0
144
0.0208333333333333
144
0.0
144
0.0
144
0.0
144
0.0
144
0.0208333333333333
144
0.0
144
0.0
144
0.0
144
0.0
144
1.0
144
0.0
144
0.0
144
0.0
144
0.0
144
1.0
147
0.0208333333333333
147
0.0
147
0.0
147
0.0
147
0.0
147
0.0208333333333333
147
0.0
147
0.0
147
0.0
147
0.0
147
1.0
147
0.0
147
0.0
147
0.0
147
0.0
147
1.0
  0
MLEADERSTYLE
  5
50FF
102
{ACAD_REACTORS
330
50FE
102
}
330
50FE
100
AcDbMLeaderStyle
170
     2
171
     1
172
     0
 90
        2
 40
0.0
 41
0.0
173
     1
 91
-1056964608
340
2D5
 92
       -2
290
     1
 42
0.09
291
     1
 43
0.36
  3
Standard
 44
0.18
300

342
2D3
174
     1
178
     6
175
     1
176
     0
 93
-1056964608
 45
0.18
292
     0
297
     0
 46
0.18
 94
-1056964608
 47
1.0
 49
1.0
140
1.0
293
     1
141
0.0
294
     1
177
     0
142
1.0
295
     0
296
     0
143
0.125
1001
ACAD_MLEADERVER
1070
     2
  0
MLINESTYLE
  5
2D9
102
{ACAD_REACTORS
330
2D8
102
}
330
2D8
100
AcDbMlineStyle
  2
STANDARD
 70
     0
  3

 62
   256
 51
90.0
 52
90.0
 71
     2
 49
0.5
 62
   256
  6
BYLAYER
 49
-0.5
 62
   256
  6
BYLAYER
  0
ACDBPLACEHOLDER
  5
2D1
102
{ACAD_REACTORS
330
2D0
102
}
330
2D0
  0
SCALE
  5
50ED
102
{ACAD_REACTORS
330
50EC
102
}
330
50EC
100
AcDbScale
 70
     0
300
1:1
140
1.0
141
1.0
290
     1
  0
SCALE
  5
50EE
102
{ACAD_REACTORS
330
50EC
102
}
330
50EC
100
AcDbScale
 70
     0
300
1/128" = 1'-0"
140
0.0078125
141
12.0
290
     0
  0
SCALE
  5
50EF
102
{ACAD_REACTORS
330
50EC
102
}
330
50EC
100
AcDbScale
 70
     0
300
1/64" = 1'-0"
140
0.015625
141
12.0
290
     0
  0
SCALE
  5
50F0
102
{ACAD_REACTORS
330
50EC
102
}
330
50EC
100
AcDbScale
 70
     0
300
1/32" = 1'-0"
140
0.03125
141
12.0
290
     0
  0
SCALE
  5
50F1
102
{ACAD_REACTORS
330
50EC
102
}
330
50EC
100
AcDbScale
 70
     0
300
1/16" = 1'-0"
140
0.0625
141
12.0
290
     0
  0
SCALE
  5
50F2
102
{ACAD_REACTORS
330
50EC
102
}
330
50EC
100
AcDbScale
 70
     0
300
3/32" = 1'-0"
140
0.09375
141
12.0
290
     0
  0
SCALE
  5
50F3
102
{ACAD_REACTORS
330
50EC
102
}
330
50EC
100
AcDbScale
 70
     0
300
1/8" = 1'-0"
140
0.125
141
12.0
290
     0
  0
SCALE
  5
50F4
102
{ACAD_REACTORS
330
50EC
102
}
330
50EC
100
AcDbScale
 70
     0
300
3/16" = 1'-0"
140
0.1875
141
12.0
290
     0
  0
SCALE
  5
50F5
102
{ACAD_REACTORS
330
50EC
102
}
330
50EC
100
AcDbScale
 70
     0
300
1/4" = 1'-0"
140
0.25
141
12.0
290
     0
  0
SCALE
  5
50F6
102
{ACAD_REACTORS
330
50EC
102
}
330
50EC
100
AcDbScale
 70
     0
300
3/8" = 1'-0"
140
0.375
141
12.0
290
     0
  0
SCALE
  5
50F7
102
{ACAD_REACTORS
330
50EC
102
}
330
50EC
100
AcDbScale
 70
     0
300
1/2" = 1'-0"
140
0.5
141
12.0
290
     0
  0
SCALE
  5
50F8
102
{ACAD_REACTORS
330
50EC
102
}
330
50EC
100
AcDbScale
 70
     0
300
3/4" = 1'-0"
140
0.75
141
12.0
290
     0
  0
SCALE
  5
50F9
102
{ACAD_REACTORS
330
50EC
102
}
330
50EC
100
AcDbScale
 70
     0
300
1" = 1'-0"
140
1.0
141
12.0
290
     0
  0
SCALE
  5
50FA
102
{ACAD_REACTORS
330
50EC
102
}
330
50EC
100
AcDbScale
 70
     0
300
1-1/2" = 1'-0"
140
1.5
141
12.0
290
     0
  0
SCALE
  5
50FB
102
{ACAD_REACTORS
330
50EC
102
}
330
50EC
100
AcDbScale
 70
     0
300
3" = 1'-0"
140
3.0
141
12.0
290
     0
  0
SCALE
  5
50FC
102
{ACAD_REACTORS
330
50EC
102
}
330
50EC
100
AcDbScale
 70
     0
300
6" = 1'-0"
140
6.0
141
12.0
290
     0
  0
SCALE
  5
50FD
102
{ACAD_REACTORS
330
50EC
102
}
330
50EC
100
AcDbScale
 70
     0
300
1'-0" = 1'-0"
140
12.0
141
12.0
290
     0
  0
ACDBSECTIONVIEWSTYLE
  5
5101
102
{ACAD_XDICTIONARY
360
55B6
102
}
102
{ACAD_REACTORS
330
5100
102
}
330
5100
100
AcDbModelDocViewStyle
 70
     0
  3
Imperial24
290
     0
100
AcDbSectionViewStyle
 70
     0
 71
     0
 90
       78
 71
     1
340
2D3
 40
0.24
340
0
340
0
 40
0.24
300
I, O, Q, S, X, Z
 40
0.48
 90
        3
 40
0.18
 90
        1
 71
     2
340
2D7
 90
       25
340
2D7
 90
       50
 40
0.24
 40
0.0
 40
0.24
 71
     3
340
2D3
 40
0.24
 90
        1
 40
0.75
 90
        1
300
%<\AcVar ViewType \f "%tc1">% %<\AcVar ViewSectionStartId>%-%<\AcVar ViewSectionEndId>%\PSCALE %<\AcVar ViewScale \f "%sn">%
 71
     4
300
ANSI31
 40
1.0
 90
        0
290
     0
290
     0
 90
        6
 40
0.0
 40
1.570796326794896
 40
0.2617993877991494
 40
1.308996938995747
 40
-0.2617993877991494
 40
1.832595714594044
  0
ACDBSECTIONVIEWSTYLE
  5
51F7
102
{ACAD_XDICTIONARY
360
55BA
102
}
102
{ACAD_REACTORS
330
5100
102
}
330
5100
100
AcDbModelDocViewStyle
 70
     0
  3
Metric50
290
     0
100
AcDbSectionViewStyle
 70
     0
 71
     0
 90
      102
 71
     1
340
2D3
 40
5.0
340
0
340
0
 40
5.0
300
I, O, Q, S, X, Z
 40
10.0
 90
        0
 40
2.5
 90
        0
 71
     2
340
2D7
 90
       25
340
2D7
 90
       50
 40
5.0
 40
2.5
 40
5.0
 71
     3
340
2D3
 40
5.0
 90
        0
 40
15.0
 90
        1
300
%<\AcVar ViewSectionStartId>%-%<\AcVar ViewSectionEndId>% (%<\AcVar ViewScale \f "%sn">%)
 71
     4
300
ANSI31
 40
1.0
 90
        0
290
     0
290
     0
 90
        6
 40
0.0
 40
1.570796326794896
 40
0.2617993877991494
 40
1.308996938995747
 40
-0.2617993877991494
 40
1.832595714594045
  0
TABLESTYLE
  5
C5B
102
{ACAD_XDICTIONARY
360
5116
102
}
102
{ACAD_REACTORS
330
C5A
102
}
330
C5A
100
AcDbTableStyle
  3
Standard
 70
     0
 71
     0
 40
0.06
 41
0.06
280
     0
281
     0
  7
STANDARD
140
0.18
170
     2
 62
     0
 63
     7
283
     0
274
    -2
284
     1
 64
     0
275
    -2
285
     1
 65
     0
276
    -2
286
     1
 66
     0
277
    -2
287
     1
 67
     0
278
    -2
288
     1
 68
     0
279
    -2
289
     1
 69
     0
  7
STANDARD
140
0.25
170
     5
 62
     0
 63
     7
283
     0
274
    -2
284
     1
 64
     0
275
    -2
285
     1
 65
     0
276
    -2
286
     1
 66
     0
277
    -2
287
     1
 67
     0
278
    -2
288
     1
 68
     0
279
    -2
289
     1
 69
     0
  7
STANDARD
140
0.18
170
     5
 62
     0
 63
     7
283
     0
274
    -2
284
     1
 64
     0
275
    -2
285
     1
 65
     0
276
    -2
286
     1
 66
     0
277
    -2
287
     1
 67
     0
278
    -2
288
     1
 68
     0
279
    -2
289
     1
 69
     0
  0
VISUALSTYLE
  5
50D9
102
{ACAD_XDICTIONARY
360
5590
102
}
102
{ACAD_REACTORS
330
50D3
102
}
330
50D3
100
AcDbVisualStyle
  2

 70
     4
 71
     0
 72
     2
 73
     0
 90
        0
 40
-0.6
 41
-30.0
 62
     5
 63
     7
 74
     1
 91
        4
 64
     7
 65
   257
 75
     1
175
     1
 42
1.0
 92
        0
 66
   257
 43
1.0
 76
     1
 77
     6
 78
     2
 67
     7
 79
     5
170
     0
171
     0
290
     0
174
     0
 93
        1
 44
0.0
173
     0
291
     0
 45
0.0
1001
ACAD
1000
AcDbSavedByObjectVersion
1070
     0
  0
VISUALSTYLE
  5
50D8
102
{ACAD_XDICTIONARY
360
558E
102
}
102
{ACAD_REACTORS
330
50D3
102
}
330
50D3
100
AcDbVisualStyle
  2

 70
     7
 71
     1
 72
     0
 73
     1
 90
        0
 40
-0.6
 41
-30.0
 62
     5
 63
     7
 74
     0
 91
        4
 64
     7
 65
   257
 75
     1
175
     1
 42
1.0
 92
        8
 66
     7
 43
1.0
 76
     1
 77
     6
 78
     2
 67
     7
 79
     5
170
     0
171
     0
290
     0
174
     0
 93
        1
 44
0.0
173
     0
291
     1
 45
0.0
1001
ACAD
1000
AcDbSavedByObjectVersion
1070
     0
  0
VISUALSTYLE
  5
50DF
102
{ACAD_XDICTIONARY
360
559C
102
}
102
{ACAD_REACTORS
330
50D3
102
}
330
50D3
100
AcDbVisualStyle
  2

 70
    12
 71
     2
 72
     2
 73
     0
 90
        0
 40
-0.6
 41
-30.0
 62
     5
 63
     7
 74
     1
 91
        4
 64
     7
 65
   257
 75
     1
175
     1
 42
1.0
 92
        8
 66
     7
 43
1.0
 76
     1
 77
     6
 78
     2
 67
     7
 79
     5
170
     0
171
     0
290
     0
174
     0
 93
        1
 44
50.0
173
     0
291
     1
 45
0.0
1001
ACAD
1000
AcDbSavedByObjectVersion
1070
     0
  0
VISUALSTYLE
  5
50E3
102
{ACAD_XDICTIONARY
360
55A4
102
}
102
{ACAD_REACTORS
330
50D3
102
}
330
50D3
100
AcDbVisualStyle
  2

 70
    16
 71
     2
 72
     2
 73
     3
 90
        0
 40
-0.6
 41
-30.0
 62
     5
 63
     8
 74
     1
 91
        4
 64
     7
 65
   257
 75
     1
175
     1
 42
1.0
 92
        8
 66
     8
 43
1.0
 76
     1
 77
     6
 78
     2
 67
     7
 79
     5
170
     0
171
     0
290
     0
174
     0
 93
        1
 44
0.0
173
     0
291
     1
 45
0.0
1001
ACAD
1000
AcDbSavedByObjectVersion
1070
     0
  0
VISUALSTYLE
  5
50DC
102
{ACAD_XDICTIONARY
360
5596
102
}
102
{ACAD_REACTORS
330
50D3
102
}
330
50D3
100
AcDbVisualStyle
  2

 70
     9
 71
     3
 72
     2
 73
     0
 90
        0
 40
-0.6
 41
-30.0
 62
     5
 63
     7
 74
     2
 91
        2
 64
     7
 65
   257
 75
     1
175
     1
 42
179.0
 92
        8
 66
     7
 43
1.0
 76
     1
 77
     6
 78
     2
 67
     7
 79
     3
170
     0
171
     0
290
     0
174
     0
 93
        1
 44
0.0
173
     0
291
     0
 45
0.0
1001
ACAD
1000
AcDbSavedByObjectVersion
1070
     0
  0
VISUALSTYLE
  5
50DE
102
{ACAD_XDICTIONARY
360
559A
102
}
102
{ACAD_REACTORS
330
50D3
102
}
330
50D3
100
AcDbVisualStyle
  2

 70
    11
 71
     2
 72
     2
 73
     0
 90
        0
 40
-0.6
 41
-30.0
 62
     5
 63
     7
 74
     1
 91
        4
 64
     7
 65
   257
 75
     1
175
     1
 42
1.0
 92
        8
 66
     7
 43
1.0
 76
     1
 77
     6
 78
     2
 67
     7
 79
     5
170
     0
171
     0
290
     0
174
     0
 93
        1
 44
-50.0
173
     0
291
     1
 45
0.0
1001
ACAD
1000
AcDbSavedByObjectVersion
1070
     0
  0
VISUALSTYLE
  5
50EB
102
{ACAD_XDICTIONARY
360
55B4
102
}
102
{ACAD_REACTORS
330
50D3
102
}
330
50D3
100
AcDbVisualStyle
  2

 70
    22
 71
     2
 72
     2
 73
     0
 90
        0
 40
-0.6
 41
-30.0
 62
     5
 63
     7
 74
     1
 91
        4
 64
     7
 65
   257
 75
     1
175
     1
 42
1.0
 92
        8
 66
     7
 43
1.0
 76
     1
 77
     6
 78
     2
 67
     7
 79
     5
170
     0
171
     0
290
     0
174
     0
 93
        1
 44
0.0
173
     0
291
     1
 45
0.0
1001
ACAD
1000
AcDbSavedByObjectVersion
1070
     0
  0
VISUALSTYLE
  5
50E2
102
{ACAD_XDICTIONARY
360
55A2
102
}
102
{ACAD_REACTORS
330
50D3
102
}
330
50D3
100
AcDbVisualStyle
  2

 70
    15
 71
     2
 72
     2
 73
     0
 90
        0
 40
-0.6
 41
-30.0
 62
     5
 63
     7
 74
     1
 91
        4
 64
     7
 65
   257
 75
     1
175
     1
 42
1.0
 92
        8
 66
     7
 43
1.0
 76
     1
 77
     6
 78
     2
 67
     7
 79
     5
170
     0
171
     0
290
     0
174
     0
 93
        1
 44
0.0
173
     0
291
     1
 45
0.0
1001
ACAD
1000
AcDbSavedByObjectVersion
1070
     0
  0
VISUALSTYLE
  5
50D4
102
{ACAD_XDICTIONARY
360
5586
102
}
102
{ACAD_REACTORS
330
50D3
102
}
330
50D3
100
AcDbVisualStyle
  2

 70
     0
 71
     2
 72
     1
 73
     1
 90
        2
 40
-0.6
 41
30.0
 62
     5
 63
     7
 74
     0
 91
        0
 64
     7
 65
   257
 75
     1
175
     1
 42
1.0
 92
        8
 66
     7
 43
1.0
 76
     1
 77
     6
 78
     2
 67
     7
 79
     5
170
     0
171
     0
290
     0
174
     0
 93
       13
 44
0.0
173
     0
291
     1
 45
0.0
1001
ACAD
1000
AcDbSavedByObjectVersion
1070
     0
  0
VISUALSTYLE
  5
50D5
102
{ACAD_XDICTIONARY
360
5588
102
}
102
{ACAD_REACTORS
330
50D3
102
}
330
50D3
100
AcDbVisualStyle
  2

 70
     1
 71
     2
 72
     1
 73
     1
 90
        2
 40
-0.6
 41
30.0
 62
     5
 63
     7
 74
     1
 91
        0
 64
     7
 65
   257
 75
     1
175
     1
 42
1.0
 92
        0
 66
   257
 43
1.0
 76
     1
 77
     6
 78
     2
 67
     7
 79
     5
170
     0
171
     0
290
     0
174
     0
 93
       13
 44
0.0
173
     0
291
     1
 45
0.0
1001
ACAD
1000
AcDbSavedByObjectVersion
1070
     0
  0
VISUALSTYLE
  5
50D6
102
{ACAD_XDICTIONARY
360
558A
102
}
102
{ACAD_REACTORS
330
50D3
102
}
330
50D3
100
AcDbVisualStyle
  2

 70
     2
 71
     2
 72
     2
 73
     1
 90
        2
 40
-0.6
 41
30.0
 62
     5
 63
     7
 74
     0
 91
        0
 64
     7
 65
   257
 75
     1
175
     1
 42
1.0
 92
        0
 66
     7
 43
1.0
 76
     1
 77
     6
 78
     2
 67
     7
 79
     5
170
     0
171
     0
290
     0
174
     0
 93
       13
 44
0.0
173
     0
291
     1
 45
0.0
1001
ACAD
1000
AcDbSavedByObjectVersion
1070
     0
  0
VISUALSTYLE
  5
50D7
102
{ACAD_XDICTIONARY
360
558C
102
}
102
{ACAD_REACTORS
330
50D3
102
}
330
50D3
100
AcDbVisualStyle
  2

 70
     3
 71
     2
 72
     2
 73
     1
 90
        2
 40
-0.6
 41
30.0
 62
     5
 63
     7
 74
     1
 91
        0
 64
     7
 65
   257
 75
     1
175
     1
 42
1.0
 92
        0
 66
   257
 43
1.0
 76
     1
 77
     6
 78
     2
 67
     7
 79
     5
170
     0
171
     0
290
     0
174
     0
 93
       13
 44
0.0
173
     0
291
     1
 45
0.0
1001
ACAD
1000
AcDbSavedByObjectVersion
1070
     0
  0
VISUALSTYLE
  5
50DB
102
{ACAD_XDICTIONARY
360
5594
102
}
102
{ACAD_REACTORS
330
50D3
102
}
330
50D3
100
AcDbVisualStyle
  2

 70
     6
 71
     1
 72
     2
 73
     2
 90
        0
 40
-0.6
 41
-30.0
 62
     5
 63
     7
 74
     2
 91
        2
 64
     7
 65
   257
 75
     2
175
     1
 42
40.0
 92
        0
 66
   257
 43
1.0
 76
     1
 77
     6
 78
     2
 67
     7
 79
     3
170
     0
171
     0
290
     0
174
     0
 93
        1
 44
0.0
173
     0
291
     0
 45
0.0
1001
ACAD
1000
AcDbSavedByObjectVersion
1070
     0
  0
VISUALSTYLE
  5
50E9
102
{ACAD_XDICTIONARY
360
55B0
102
}
102
{ACAD_REACTORS
330
50D3
102
}
330
50D3
100
AcDbVisualStyle
  2

 70
    20
 71
     2
 72
     2
 73
     0
 90
        0
 40
-0.6
 41
-30.0
 62
     5
 63
     7
 74
     1
 91
        4
 64
     7
 65
   257
 75
     1
175
     1
 42
1.0
 92
       10
 66
     7
 43
1.0
 76
     1
 77
     6
 78
     2
 67
     7
 79
     5
170
     0
171
     0
290
     0
174
     0
 93
        1
 44
0.0
173
     0
291
     1
 45
0.0
1001
ACAD
1000
AcDbSavedByObjectVersion
1070
     0
  0
VISUALSTYLE
  5
50E1
102
{ACAD_XDICTIONARY
360
55A0
102
}
102
{ACAD_REACTORS
330
50D3
102
}
330
50D3
100
AcDbVisualStyle
  2

 70
    14
 71
     2
 72
     2
 73
     0
 90
        0
 40
-0.6
 41
-30.0
 62
     5
 63
     7
 74
     1
 91
        4
 64
     7
 65
   257
 75
     7
175
     7
 42
1.0
 92
        8
 66
     7
 43
1.0
 76
     1
 77
     6
 78
     2
 67
     7
 79
     5
170
     0
171
     0
290
     0
174
     0
 93
        1
 44
0.0
173
     0
291
     1
 45
0.0
1001
ACAD
1000
AcDbSavedByObjectVersion
1070
     0
  0
VISUALSTYLE
  5
50EA
102
{ACAD_XDICTIONARY
360
55B2
102
}
102
{ACAD_REACTORS
330
50D3
102
}
330
50D3
100
AcDbVisualStyle
  2

 70
    21
 71
     2
 72
     2
 73
     0
 90
        0
 40
-0.6
 41
-30.0
 62
     5
 63
     7
 74
     1
 91
        4
 64
     7
 65
   257
 75
     1
175
     1
 42
1.0
 92
        9
 66
     7
 43
1.0
 76
     1
 77
     6
 78
     2
 67
     7
 79
     5
170
     0
171
     0
290
     0
174
     0
 93
        1
 44
0.0
173
     0
291
     1
 45
0.0
1001
ACAD
1000
AcDbSavedByObjectVersion
1070
     0
  0
VISUALSTYLE
  5
50DD
102
{ACAD_XDICTIONARY
360
5598
102
}
102
{ACAD_REACTORS
330
50D3
102
}
330
50D3
100
AcDbVisualStyle
  2

 70
     8
 71
     2
 72
     3
 73
     0
 90
        2
 40
-0.6
 41
30.0
 62
     5
 63
     7
 74
     0
 91
        0
 64
     7
 65
   257
 75
     1
175
     1
 42
1.0
 92
        8
 66
   257
 43
1.0
 76
     1
 77
     6
 78
     2
 67
     7
 79
     3
170
     0
171
     0
290
     0
174
     0
 93
       13
 44
0.0
173
     0
291
     0
 45
0.0
1001
ACAD
1000
AcDbSavedByObjectVersion
1070
     0
  0
VISUALSTYLE
  5
50E8
102
{ACAD_XDICTIONARY
360
55AE
102
}
102
{ACAD_REACTORS
330
50D3
102
}
330
50D3
100
AcDbVisualStyle
  2

 70
    27
 71
     2
 72
     2
 73
     1
 90
        2
 40
-0.6
 41
30.0
 62
     5
 63
     7
 74
     0
 91
        4
 64
     7
 65
   257
 75
     1
175
     1
 42
1.0
 92
        8
 66
   257
 43
1.0
 76
     1
 77
     6
 78
     2
 67
     8
 79
     3
170
     0
171
     0
290
     0
174
     0
 93
        5
 44
0.0
173
     0
291
     0
 45
0.0
1001
ACAD
1000
AcDbSavedByObjectVersion
1070
     0
  0
VISUALSTYLE
  5
50E7
102
{ACAD_XDICTIONARY
360
55AC
102
}
102
{ACAD_REACTORS
330
50D3
102
}
330
50D3
100
AcDbVisualStyle
  2

 70
    26
 71
     2
 72
     2
 73
     1
 90
        2
 40
-0.6
 41
30.0
 62
     5
 63
     7
 74
     1
 91
        2
 64
     7
 65
   257
 75
     2
175
     1
 42
1.0
 92
        8
 66
   257
 43
1.0
 76
     1
 77
     6
 78
     2
 67
     7
 79
     3
170
     0
171
     0
290
     0
174
     0
 93
        5
 44
0.0
173
     0
291
     0
 45
0.0
1001
ACAD
1000
AcDbSavedByObjectVersion
1070
     0
  0
VISUALSTYLE
  5
50E4
102
{ACAD_XDICTIONARY
360
55A6
102
}
102
{ACAD_REACTORS
330
50D3
102
}
330
50D3
100
AcDbVisualStyle
  2

 70
    23
 71
     2
 72
     2
 73
     3
 90
        0
 40
-0.6
 41
-30.0
 62
     5
 63
     7
 74
     2
 91
        2
 64
     7
 65
     7
 75
     1
175
     1
 42
40.0
 92
        8
 66
     7
 43
1.0
 76
     1
 77
     6
 78
     2
 67
     7
 79
     3
170
     0
171
     0
290
     0
174
     0
 93
        1
 44
0.0
173
     0
291
     0
 45
0.0
1001
ACAD
1000
AcDbSavedByObjectVersion
1070
     0
  0
VISUALSTYLE
  5
50E5
102
{ACAD_XDICTIONARY
360
55A8
102
}
102
{ACAD_REACTORS
330
50D3
102
}
330
50D3
100
AcDbVisualStyle
  2

 70
    24
 71
     1
 72
     2
 73
     2
 90
        0
 40
-0.6
 41
-30.0
 62
     5
 63
     7
 74
     2
 91
        2
 64
     7
 65
     7
 75
     1
175
     1
 42
40.0
 92
       11
 66
     7
 43
1.0
 76
     1
 77
     6
 78
     2
 67
     7
 79
     6
170
     0
171
     0
290
     0
174
     0
 93
        1
 44
0.0
173
     0
291
     0
 45
0.0
1001
ACAD
1000
AcDbSavedByObjectVersion
1070
     0
  0
VISUALSTYLE
  5
50E0
102
{ACAD_XDICTIONARY
360
559E
102
}
102
{ACAD_REACTORS
330
50D3
102
}
330
50D3
100
AcDbVisualStyle
  2

 70
    13
 71
     2
 72
     2
 73
     0
 90
        0
 40
-0.6
 41
-30.0
 62
     5
 63
     7
 74
     1
 91
        4
 64
     7
 65
   257
 75
     1
175
     1
 42
1.0
 92
       12
 66
     7
 43
1.0
 76
     1
 77
     6
 78
     2
 67
     7
 79
     5
170
     0
171
     0
290
     0
174
     0
 93
        1
 44
0.0
173
     0
291
     1
 45
0.0
1001
ACAD
1000
AcDbSavedByObjectVersion
1070
     0
  0
VISUALSTYLE
  5
50DA
102
{ACAD_XDICTIONARY
360
5592
102
}
102
{ACAD_REACTORS
330
50D3
102
}
330
50D3
100
AcDbVisualStyle
  2

 70
     5
 71
     0
 72
     2
 73
     0
 90
        0
 40
-0.6
 41
-30.0
 62
     5
 63
     7
 74
     1
 91
        4
 64
     7
 65
   257
 75
     1
175
     1
 42
1.0
 92
        0
 66
   257
 43
1.0
 76
     1
 77
     6
 78
     2
 67
     7
 79
     3
170
     0
171
     0
290
     0
174
     0
 93
        1
 44
0.0
173
     0
291
     0
 45
0.0
1001
ACAD
1000
AcDbSavedByObjectVersion
1070
     0
  0
VISUALSTYLE
  5
50E6
102
{ACAD_XDICTIONARY
360
55AA
102
}
102
{ACAD_REACTORS
330
50D3
102
}
330
50D3
100
AcDbVisualStyle
  2

 70
    25
 71
     2
 72
     2
 73
     1
 90
        1
 40
0.5
 41
-30.0
 62
     5
 63
     7
 74
     1
 91
        0
 64
     7
 65
   257
 75
     1
175
     1
 42
1.0
 92
        8
 66
     7
 43
1.0
 76
     1
 77
     6
 78
     2
 67
     7
 79
     3
170
     0
171
     0
290
     0
174
     0
 93
       13
 44
0.0
173
     0
291
     0
 45
0.0
1001
ACAD
1000
AcDbSavedByObjectVersion
1070
     0
  0
DICTIONARYVAR
  5
5111
102
{ACAD_REACTORS
330
4E7
102
}
330
4E7
100
DictionaryVariables
280
     0
  1
1:1
  0
DICTIONARYVAR
  5
510E
102
{ACAD_REACTORS
330
4E7
102
}
330
4E7
100
DictionaryVariables
280
     0
  1
STANDARD
  0
DICTIONARYVAR
  5
4FBD
102
{ACAD_REACTORS
330
4E7
102
}
330
4E7
100
DictionaryVariables
280
     0
  1
STANDARD
  0
DICTIONARYVAR
  5
510F
102
{ACAD_REACTORS
330
4E7
102
}
330
4E7
100
DictionaryVariables
280
     0
  1
Imperial24
  0
DICTIONARYVAR
  5
5110
102
{ACAD_REACTORS
330
4E7
102
}
330
4E7
100
DictionaryVariables
280
     0
  1
Imperial24
  0
DICTIONARYVAR
  5
4E8
102
{ACAD_REACTORS
330
4E7
102
}
330
4E7
100
DictionaryVariables
280
     0
  1
1
  0
DICTIONARYVAR
  5
5113
102
{ACAD_REACTORS
330
4E7
102
}
330
4E7
100
DictionaryVariables
280
     0
  1
0
  0
DICTIONARYVAR
  5
5083
102
{ACAD_REACTORS
330
4E7
102
}
330
4E7
100
DictionaryVariables
280
     0
  1

  0
DICTIONARYVAR
  5
5112
102
{ACAD_REACTORS
330
4E7
102
}
330
4E7
100
DictionaryVariables
280
     0
  1
127
  0
DICTIONARYVAR
  5
557D
102
{ACAD_REACTORS
330
4E7
102
}
330
4E7
100
DictionaryVariables
280
     0
  1
2
  0
DICTIONARY
  5
55B8
330
5103
100
AcDbDictionary
280
     1
281
     1
  3
ACAD_XREC_ROUNDTRIP
360
55B9
  0
DICTIONARY
  5
55BC
330
51F8
100
AcDbDictionary
280
     1
281
     1
  3
ACAD_XREC_ROUNDTRIP
360
55BD
  0
DICTIONARY
  5
5583
330
2E3
100
AcDbDictionary
280
     1
281
     1
  3
ACAD_XREC_ROUNDTRIP
360
5584
  0
DICTIONARY
  5
5581
330
2DF
100
AcDbDictionary
280
     1
281
     1
  3
ACAD_XREC_ROUNDTRIP
360
5582
  0
DICTIONARY
  5
50C4
330
50C3
100
AcDbDictionary
280
     1
281
     1
  3
ACAD_XREC_ROUNDTRIP
360
5120
  3
BUMPTILE
360
50C6
  3
DIFFUSETILE
360
50C5
  3
OPACITYTILE
360
50C9
  3
REFLECTIONTILE
360
50C8
  3
REFRACTIONTILE
360
50CA
  3
SPECULARTILE
360
50C7
  0
DICTIONARY
  5
50BC
330
50BB
100
AcDbDictionary
280
     1
281
     1
  3
ACAD_XREC_ROUNDTRIP
360
511F
  3
BUMPTILE
360
50BE
  3
DIFFUSETILE
360
50BD
  3
OPACITYTILE
360
50C1
  3
REFLECTIONTILE
360
50C0
  3
REFRACTIONTILE
360
50C2
  3
SPECULARTILE
360
50BF
  0
DICTIONARY
  5
50CC
330
50CB
100
AcDbDictionary
280
     1
281
     1
  3
ACAD_XREC_ROUNDTRIP
360
5121
  3
BUMPTILE
360
50CE
  3
DIFFUSETILE
360
50CD
  3
OPACITYTILE
360
50D1
  3
REFLECTIONTILE
360
50D0
  3
REFRACTIONTILE
360
50D2
  3
SPECULARTILE
360
50CF
  0
DICTIONARY
  5
55B6
330
5101
100
AcDbDictionary
280
     1
281
     1
  3
ACAD_XREC_ROUNDTRIP
360
55B7
  0
DICTIONARY
  5
55BA
330
51F7
100
AcDbDictionary
280
     1
281
     1
  3
ACAD_XREC_ROUNDTRIP
360
55BB
  0
DICTIONARY
  5
5116
330
C5B
100
AcDbDictionary
280
     1
281
     1
  3
ACAD_ROUNDTRIP_2008_TABLESTYLE_CELLSTYLEMAP
360
557E
  3
ACAD_XREC_ROUNDTRIP
360
5585
  0
DICTIONARY
  5
5590
330
50D9
100
AcDbDictionary
280
     1
281
     1
  3
ACAD_XREC_ROUNDTRIP
360
5591
  0
DICTIONARY
  5
558E
330
50D8
100
AcDbDictionary
280
     1
281
     1
  3
ACAD_XREC_ROUNDTRIP
360
558F
  0
DICTIONARY
  5
559C
330
50DF
100
AcDbDictionary
280
     1
281
     1
  3
ACAD_XREC_ROUNDTRIP
360
559D
  0
DICTIONARY
  5
55A4
330
50E3
100
AcDbDictionary
280
     1
281
     1
  3
ACAD_XREC_ROUNDTRIP
360
55A5
  0
DICTIONARY
  5
5596
330
50DC
100
AcDbDictionary
280
     1
281
     1
  3
ACAD_XREC_ROUNDTRIP
360
5597
  0
DICTIONARY
  5
559A
330
50DE
100
AcDbDictionary
280
     1
281
     1
  3
ACAD_XREC_ROUNDTRIP
360
559B
  0
DICTIONARY
  5
55B4
330
50EB
100
AcDbDictionary
280
     1
281
     1
  3
ACAD_XREC_ROUNDTRIP
360
55B5
  0
DICTIONARY
  5
55A2
330
50E2
100
AcDbDictionary
280
     1
281
     1
  3
ACAD_XREC_ROUNDTRIP
360
55A3
  0
DICTIONARY
  5
5586
330
50D4
100
AcDbDictionary
280
     1
281
     1
  3
ACAD_XREC_ROUNDTRIP
360
5587
  0
DICTIONARY
  5
5588
330
50D5
100
AcDbDictionary
280
     1
281
     1
  3
ACAD_XREC_ROUNDTRIP
360
5589
  0
DICTIONARY
  5
558A
330
50D6
100
AcDbDictionary
280
     1
281
     1
  3
ACAD_XREC_ROUNDTRIP
360
558B
  0
DICTIONARY
  5
558C
330
50D7
100
AcDbDictionary
280
     1
281
     1
  3
ACAD_XREC_ROUNDTRIP
360
558D
  0
DICTIONARY
  5
5594
330
50DB
100
AcDbDictionary
280
     1
281
     1
  3
ACAD_XREC_ROUNDTRIP
360
5595
  0
DICTIONARY
  5
55B0
330
50E9
100
AcDbDictionary
280
     1
281
     1
  3
ACAD_XREC_ROUNDTRIP
360
55B1
  0
DICTIONARY
  5
55A0
330
50E1
100
AcDbDictionary
280
     1
281
     1
  3
ACAD_XREC_ROUNDTRIP
360
55A1
  0
DICTIONARY
  5
55B2
330
50EA
100
AcDbDictionary
280
     1
281
     1
  3
ACAD_XREC_ROUNDTRIP
360
55B3
  0
DICTIONARY
  5
5598
330
50DD
100
AcDbDictionary
280
     1
281
     1
  3
ACAD_XREC_ROUNDTRIP
360
5599
  0
DICTIONARY
  5
55AE
330
50E8
100
AcDbDictionary
280
     1
281
     1
  3
ACAD_XREC_ROUNDTRIP
360
55AF
  0
DICTIONARY
  5
55AC
330
50E7
100
AcDbDictionary
280
     1
281
     1
  3
ACAD_XREC_ROUNDTRIP
360
55AD
  0
DICTIONARY
  5
55A6
330
50E4
100
AcDbDictionary
280
     1
281
     1
  3
ACAD_XREC_ROUNDTRIP
360
55A7
  0
DICTIONARY
  5
55A8
330
50E5
100
AcDbDictionary
280
     1
281
     1
  3
ACAD_XREC_ROUNDTRIP
360
55A9
  0
DICTIONARY
  5
559E
330
50E0
100
AcDbDictionary
280
     1
281
     1
  3
ACAD_XREC_ROUNDTRIP
360
559F
  0
DICTIONARY
  5
5592
330
50DA
100
AcDbDictionary
280
     1
281
     1
  3
ACAD_XREC_ROUNDTRIP
360
5593
  0
DICTIONARY
  5
55AA
330
50E6
100
AcDbDictionary
280
     1
281
     1
  3
ACAD_XREC_ROUNDTRIP
360
55AB
  0
XRECORD
  5
55B9
102
{ACAD_REACTORS
330
55B8
102
}
330
55B8
100
AcDbXrecord
280
     1
102
DISPLAYNAME
  1
Imperial24
102
FLAGS
 90
        0
  0
XRECORD
  5
55BD
102
{ACAD_REACTORS
330
55BC
102
}
330
55BC
100
AcDbXrecord
280
     1
102
DISPLAYNAME
  1
Metric50
102
FLAGS
 90
        0
  0
XRECORD
  5
5584
102
{ACAD_REACTORS
330
5583
102
}
330
5583
100
AcDbXrecord
280
     1
102
SHADEPLOT
 70
     0
102
SHADEPLOTRESLEVEL
 70
     2
102
SHADEPLOTCUSTOMDPI
 70
   300
  0
XRECORD
  5
5582
102
{ACAD_REACTORS
330
5581
102
}
330
5581
100
AcDbXrecord
280
     1
102
SHADEPLOT
 70
     0
102
SHADEPLOTRESLEVEL
 70
     2
102
SHADEPLOTCUSTOMDPI
 70
   300
  0
XRECORD
  5
5120
102
{ACAD_REACTORS
330
50C4
102
}
330
50C4
100
AcDbXrecord
280
     1
102
MATERIAL
148
0.0
149
0.0
149
0.0
 93
        0
 94
      127
282
     0
 72
     0
 77
     0
171
     0
175
     0
179
     0
273
     0
  0
XRECORD
  5
50C6
102
{ACAD_REACTORS
330
50C4
102
}
330
50C4
100
AcDbXrecord
280
     1
270
     1
271
     1
  0
XRECORD
  5
50C5
102
{ACAD_REACTORS
330
50C4
102
}
330
50C4
100
AcDbXrecord
280
     1
270
     1
271
     1
  0
XRECORD
  5
50C9
102
{ACAD_REACTORS
330
50C4
102
}
330
50C4
100
AcDbXrecord
280
     1
270
     1
271
     1
  0
XRECORD
  5
50C8
102
{ACAD_REACTORS
330
50C4
102
}
330
50C4
100
AcDbXrecord
280
     1
270
     1
271
     1
  0
XRECORD
  5
50CA
102
{ACAD_REACTORS
330
50C4
102
}
330
50C4
100
AcDbXrecord
280
     1
270
     1
271
     1
  0
XRECORD
  5
50C7
102
{ACAD_REACTORS
330
50C4
102
}
330
50C4
100
AcDbXrecord
280
     1
270
     1
271
     1
  0
XRECORD
  5
511F
102
{ACAD_REACTORS
330
50BC
102
}
330
50BC
100
AcDbXrecord
280
     1
102
MATERIAL
148
0.0
149
0.0
149
0.0
 93
        0
 94
      127
282
     0
 72
     0
 77
     0
171
     0
175
     0
179
     0
273
     0
  0
XRECORD
  5
50BE
102
{ACAD_REACTORS
330
50BC
102
}
330
50BC
100
AcDbXrecord
280
     1
270
     1
271
     1
  0
XRECORD
  5
50BD
102
{ACAD_REACTORS
330
50BC
102
}
330
50BC
100
AcDbXrecord
280
     1
270
     1
271
     1
  0
XRECORD
  5
50C1
102
{ACAD_REACTORS
330
50BC
102
}
330
50BC
100
AcDbXrecord
280
     1
270
     1
271
     1
  0
XRECORD
  5
50C0
102
{ACAD_REACTORS
330
50BC
102
}
330
50BC
100
AcDbXrecord
280
     1
270
     1
271
     1
  0
XRECORD
  5
50C2
102
{ACAD_REACTORS
330
50BC
102
}
330
50BC
100
AcDbXrecord
280
     1
270
     1
271
     1
  0
XRECORD
  5
50BF
102
{ACAD_REACTORS
330
50BC
102
}
330
50BC
100
AcDbXrecord
280
     1
270
     1
271
     1
  0
XRECORD
  5
5121
102
{ACAD_REACTORS
330
50CC
102
}
330
50CC
100
AcDbXrecord
280
     1
102
MATERIAL
148
0.0
149
0.0
149
0.0
 93
        0
 94
      127
282
     0
 72
     0
 77
     0
171
     0
175
     0
179
     0
273
     0
  0
XRECORD
  5
50CE
102
{ACAD_REACTORS
330
50CC
102
}
330
50CC
100
AcDbXrecord
280
     1
270
     1
271
     1
  0
XRECORD
  5
50CD
102
{ACAD_REACTORS
330
50CC
102
}
330
50CC
100
AcDbXrecord
280
     1
270
     1
271
     1
  0
XRECORD
  5
50D1
102
{ACAD_REACTORS
330
50CC
102
}
330
50CC
100
AcDbXrecord
280
     1
270
     1
271
     1
  0
XRECORD
  5
50D0
102
{ACAD_REACTORS
330
50CC
102
}
330
50CC
100
AcDbXrecord
280
     1
270
     1
271
     1
  0
XRECORD
  5
50D2
102
{ACAD_REACTORS
330
50CC
102
}
330
50CC
100
AcDbXrecord
280
     1
270
     1
271
     1
  0
XRECORD
  5
50CF
102
{ACAD_REACTORS
330
50CC
102
}
330
50CC
100
AcDbXrecord
280
     1
270
     1
271
     1
  0
XRECORD
  5
55B7
102
{ACAD_REACTORS
330
55B6
102
}
330
55B6
100
AcDbXrecord
280
     1
102
DISPLAYNAME
  1
Imperial24
102
FLAGS
 90
        0
  0
XRECORD
  5
55BB
102
{ACAD_REACTORS
330
55BA
102
}
330
55BA
100
AcDbXrecord
280
     1
102
DISPLAYNAME
  1
Metric50
102
FLAGS
 90
        0
  0
CELLSTYLEMAP
  5
557E
102
{ACAD_REACTORS
330
5116
102
}
330
5116
100
AcDbCellStyleMap
 90
        3
300
CELLSTYLE
  1
TABLEFORMAT_BEGIN
 90
        5
170
     1
 91
        0
 92
    32768
 62
   257
 93
        1
300
CONTENTFORMAT
  1
CONTENTFORMAT_BEGIN
 90
        0
 91
        0
 92
        4
 93
        0
300

 40
0.0
140
1.0
 94
        5
 62
     0
340
2D3
144
0.25
309
CONTENTFORMAT_END
171
     1
301
MARGIN
  1
CELLMARGIN_BEGIN
 40
0.06
 40
0.06
 40
0.06
 40
0.06
 40
0.18
 40
0.18
309
CELLMARGIN_END
 94
        6
 95
        1
302
GRIDFORMAT
  1
GRIDFORMAT_BEGIN
 90
        0
 91
        1
 62
     0
 92
       -2
340
0
 93
        0
 40
0.045
309
GRIDFORMAT_END
 95
        2
302
GRIDFORMAT
  1
GRIDFORMAT_BEGIN
 90
        0
 91
        1
 62
     0
 92
       -2
340
0
 93
        0
 40
0.045
309
GRIDFORMAT_END
 95
        4
302
GRIDFORMAT
  1
GRIDFORMAT_BEGIN
 90
        0
 91
        1
 62
     0
 92
       -2
340
0
 93
        0
 40
0.045
309
GRIDFORMAT_END
 95
        8
302
GRIDFORMAT
  1
GRIDFORMAT_BEGIN
 90
        0
 91
        1
 62
     0
 92
       -2
340
0
 93
        0
 40
0.045
309
GRIDFORMAT_END
 95
       16
302
GRIDFORMAT
  1
GRIDFORMAT_BEGIN
 90
        0
 91
        1
 62
     0
 92
       -2
340
0
 93
        0
 40
0.045
309
GRIDFORMAT_END
 95
       32
302
GRIDFORMAT
  1
GRIDFORMAT_BEGIN
 90
        0
 91
        1
 62
     0
 92
       -2
340
0
 93
        0
 40
0.045
309
GRIDFORMAT_END
309
TABLEFORMAT_END
  1
CELLSTYLE_BEGIN
 90
        1
 91
        1
300
_TITLE
309
CELLSTYLE_END
300
CELLSTYLE
  1
TABLEFORMAT_BEGIN
 90
        5
170
     1
 91
        0
 92
        0
 62
   257
 93
        1
300
CONTENTFORMAT
  1
CONTENTFORMAT_BEGIN
 90
        0
 91
        0
 92
        4
 93
        0
300

 40
0.0
140
1.0
 94
        5
 62
     0
340
2D3
144
0.18
309
CONTENTFORMAT_END
171
     1
301
MARGIN
  1
CELLMARGIN_BEGIN
 40
0.06
 40
0.06
 40
0.06
 40
0.06
 40
0.18
 40
0.18
309
CELLMARGIN_END
 94
        6
 95
        1
302
GRIDFORMAT
  1
GRIDFORMAT_BEGIN
 90
        0
 91
        1
 62
     0
 92
       -2
340
0
 93
        0
 40
0.045
309
GRIDFORMAT_END
 95
        2
302
GRIDFORMAT
  1
GRIDFORMAT_BEGIN
 90
        0
 91
        1
 62
     0
 92
       -2
340
0
 93
        0
 40
0.045
309
GRIDFORMAT_END
 95
        4
302
GRIDFORMAT
  1
GRIDFORMAT_BEGIN
 90
        0
 91
        1
 62
     0
 92
       -2
340
0
 93
        0
 40
0.045
309
GRIDFORMAT_END
 95
        8
302
GRIDFORMAT
  1
GRIDFORMAT_BEGIN
 90
        0
 91
        1
 62
     0
 92
       -2
340
0
 93
        0
 40
0.045
309
GRIDFORMAT_END
 95
       16
302
GRIDFORMAT
  1
GRIDFORMAT_BEGIN
 90
        0
 91
        1
 62
     0
 92
       -2
340
0
 93
        0
 40
0.045
309
GRIDFORMAT_END
 95
       32
302
GRIDFORMAT
  1
GRIDFORMAT_BEGIN
 90
        0
 91
        1
 62
     0
 92
       -2
340
0
 93
        0
 40
0.045
309
GRIDFORMAT_END
309
TABLEFORMAT_END
  1
CELLSTYLE_BEGIN
 90
        2
 91
        1
300
_HEADER
309
CELLSTYLE_END
300
CELLSTYLE
  1
TABLEFORMAT_BEGIN
 90
        5
170
     1
 91
        0
 92
        0
 62
   257
 93
        1
300
CONTENTFORMAT
  1
CONTENTFORMAT_BEGIN
 90
        0
 91
        0
 92
        4
 93
        0
300

 40
0.0
140
1.0
 94
        2
 62
     0
340
2D3
144
0.18
309
CONTENTFORMAT_END
171
     1
301
MARGIN
  1
CELLMARGIN_BEGIN
 40
0.06
 40
0.06
 40
0.06
 40
0.06
 40
0.18
 40
0.18
309
CELLMARGIN_END
 94
        6
 95
        1
302
GRIDFORMAT
  1
GRIDFORMAT_BEGIN
 90
        0
 91
        1
 62
     0
 92
       -2
340
0
 93
        0
 40
0.045
309
GRIDFORMAT_END
 95
        2
302
GRIDFORMAT
  1
GRIDFORMAT_BEGIN
 90
        0
 91
        1
 62
     0
 92
       -2
340
0
 93
        0
 40
0.045
309
GRIDFORMAT_END
 95
        4
302
GRIDFORMAT
  1
GRIDFORMAT_BEGIN
 90
        0
 91
        1
 62
     0
 92
       -2
340
0
 93
        0
 40
0.045
309
GRIDFORMAT_END
 95
        8
302
GRIDFORMAT
  1
GRIDFORMAT_BEGIN
 90
        0
 91
        1
 62
     0
 92
       -2
340
0
 93
        0
 40
0.045
309
GRIDFORMAT_END
 95
       16
302
GRIDFORMAT
  1
GRIDFORMAT_BEGIN
 90
        0
 91
        1
 62
     0
 92
       -2
340
0
 93
        0
 40
0.045
309
GRIDFORMAT_END
 95
       32
302
GRIDFORMAT
  1
GRIDFORMAT_BEGIN
 90
        0
 91
        1
 62
     0
 92
       -2
340
0
 93
        0
 40
0.045
309
GRIDFORMAT_END
309
TABLEFORMAT_END
  1
CELLSTYLE_BEGIN
 90
        3
 91
        2
300
_DATA
309
CELLSTYLE_END
  0
XRECORD
  5
5585
102
{ACAD_REACTORS
330
5116
102
}
330
5116
100
AcDbXrecord
280
     1
102
ACAD_ROUNDTRIP_PRE2007_TABLESTYLE
 90
        4
 91
        0
  1

 92
        4
 93
        0
  2

 94
        4
 95
        0
  3

  0
XRECORD
  5
5591
102
{ACAD_REACTORS
330
5590
102
}
330
5590
100
AcDbXrecord
280
     1
102
RTVSPost2010Prop28
280
     1
102
RTVSPost2010PropOp28
 70
     1
102
RTVSPost2010Prop29
280
     1
102
RTVSPost2010PropOp29
 70
     1
102
RTVSPost2010Prop30
280
     0
102
RTVSPost2010PropOp30
 70
     1
102
RTVSPost2010Prop31
280
     0
102
RTVSPost2010PropOp31
 70
     1
102
RTVSPost2010Prop32
280
     0
102
RTVSPost2010PropOp32
 70
     1
102
RTVSPost2010Prop33
280
     0
102
RTVSPost2010PropOp33
 70
     1
102
RTVSPost2010Prop34
280
     0
102
RTVSPost2010PropOp34
 70
     1
102
RTVSPost2010Prop35
280
     0
102
RTVSPost2010PropOp35
 70
     1
102
RTVSPost2010Prop36
280
     0
102
RTVSPost2010PropOp36
 70
     1
102
RTVSPost2010Prop37
 90
       50
102
RTVSPost2010PropOp37
 70
     1
102
RTVSPost2010Prop38
140
0.0
102
RTVSPost2010PropOp38
 70
     1
102
RTVSPost2010Prop39
140
1.0
102
RTVSPost2010PropOp39
 70
     1
102
RTVSPost2010Prop40
 90
        0
102
RTVSPost2010PropOp40
 70
     1
102
RTVSPost2010Prop41ColorIndex
 90
       18
102
RTVSPost2010Prop41ColorRGB
 90
        0
102
RTVSPost2010PropOp41
 70
     1
102
RTVSPost2010Prop42
 90
       50
102
RTVSPost2010PropOp42
 70
     1
102
RTVSPost2010Prop43
 90
        3
102
RTVSPost2010PropOp43
 70
     1
102
RTVSPost2010Prop44ColorIndex
 90
        5
102
RTVSPost2010Prop44ColorRGB
 90
      255
102
RTVSPost2010PropOp44
 70
     1
102
RTVSPost2010Prop45
280
     0
102
RTVSPost2010PropOp45
 70
     1
102
RTVSPost2010Prop46
 90
       50
102
RTVSPost2010PropOp46
 70
     1
102
RTVSPost2010Prop47
 90
       50
102
RTVSPost2010PropOp47
 70
     1
102
RTVSPost2010Prop48
 90
       50
102
RTVSPost2010PropOp48
 70
     1
102
RTVSPost2010Prop49
280
     0
102
RTVSPost2010PropOp49
 70
     1
102
RTVSPost2010Prop50
 90
       50
102
RTVSPost2010PropOp50
 70
     1
102
RTVSPost2010Prop51ColorIndex
 90
      256
102
RTVSPost2010Prop51ColorRGB
 90
-16777216
102
RTVSPost2010PropOp51
 70
     0
102
RTVSPost2010Prop52
140
1.0
102
RTVSPost2010PropOp52
 70
     0
102
RTVSPost2010Prop53
 90
        2
102
RTVSPost2010PropOp53
 70
     1
102
RTVSPost2010Prop54
  1
strokes_ogs.tif
102
RTVSPost2010PropOp54
 70
     1
102
RTVSPost2010Prop55
280
     0
102
RTVSPost2010PropOp55
 70
     1
102
RTVSPost2010Prop56
140
1.0
102
RTVSPost2010PropOp56
 70
     1
102
RTVSPost2010Prop57
140
1.0
102
RTVSPost2010PropOp57
 70
     1
102
RTVSPropertyOp0
 70
     1
102
RTVSPropertyOp1
 70
     1
102
RTVSPropertyOp2
 70
     1
102
RTVSPropertyOp3
 70
     1
102
RTVSPropertyOp4
 70
     1
102
RTVSPropertyOp5
 70
     1
102
RTVSPropertyOp6
 70
     1
102
RTVSPropertyOp7
 70
     1
102
RTVSPropertyOp8
 70
     1
102
RTVSPropertyOp9
 70
     1
102
RTVSPropertyOp10
 70
     1
102
RTVSPropertyOp11
 70
     1
102
RTVSPropertyOp12
 70
     1
102
RTVSPropertyOp13
 70
     1
102
RTVSPropertyOp14
 70
     1
102
RTVSPropertyOp15
 70
     1
102
RTVSPropertyOp16
 70
     1
102
RTVSPropertyOp17
 70
     1
102
RTVSPropertyOp18
 70
     1
102
RTVSPropertyOp19
 70
     1
102
RTVSPropertyOp20
 70
     1
102
RTVSPropertyOp21
 70
     1
102
RTVSPropertyOp22
 70
     1
102
RTVSPropertyOp23
 70
     1
102
RTVSPropertyOp24
 70
     1
102
RTVSPropertyOp25
 70
     1
102
RTVSPropertyOp26
 70
     1
102
RTVSPropertyOp27
 70
     1
102
RTVSPropertyOp28
 70
     1
102
RTVSPropertyOp29
 70
     1
102
RTVSPropertyOp30
 70
     1
102
RTVSPropertyOp31
 70
     1
102
RTVSPropertyOp32
 70
     1
102
RTVSPropertyOp33
 70
     1
102
RTVSPropertyOp34
 70
     1
102
RTVSPropertyOp35
 70
     1
102
RTVSPropertyOp36
 70
     1
102
RTVSPropertyOp37
 70
     1
102
RTVSPropertyOp38
 70
     1
102
RTVSPropertyOp39
 70
     1
102
RTVSPropertyOp40
 70
     1
102
RTVSPropertyOp41
 70
     1
102
RTVSPropertyOp42
 70
     1
102
RTVSPropertyOp43
 70
     1
102
RTVSPropertyOp44
 70
     1
102
RTVSPropertyOp45
 70
     1
102
RTVSPropertyOp46
 70
     1
102
RTVSPropertyOp47
 70
     1
102
RTVSPropertyOp48
 70
     1
102
RTVSPropertyOp49
 70
     1
102
RTVSPropertyOp50
 70
     1
102
RTVSPropertyOp51
 70
     0
102
RTVSPropertyOp52
 70
     0
102
RTVSPropertyOp53
 70
     1
102
RTVSPropertyOp54
 70
     1
102
RTVSPropertyOp55
 70
     1
102
RTVSPropertyOp56
 70
     1
102
RTVSPropertyOp57
 70
     1
102
RTVSPropertyOp58
 70
     1
102
RTVSPropertyOp59
 70
     1
102
RTVSPropertyOp60
 70
     1
102
RTVSPropertyOp61
 70
     1
102
RTVSPropertyOp62
 70
     1
  0
XRECORD
  5
558F
102
{ACAD_REACTORS
330
558E
102
}
330
558E
100
AcDbXrecord
280
     1
102
RTVSPost2010Prop28
280
     0
102
RTVSPost2010PropOp28
 70
     1
102
RTVSPost2010Prop29
280
     1
102
RTVSPost2010PropOp29
 70
     1
102
RTVSPost2010Prop30
280
     1
102
RTVSPost2010PropOp30
 70
     1
102
RTVSPost2010Prop31
280
     0
102
RTVSPost2010PropOp31
 70
     1
102
RTVSPost2010Prop32
280
     0
102
RTVSPost2010PropOp32
 70
     1
102
RTVSPost2010Prop33
280
     0
102
RTVSPost2010PropOp33
 70
     1
102
RTVSPost2010Prop34
280
     0
102
RTVSPost2010PropOp34
 70
     1
102
RTVSPost2010Prop35
280
     0
102
RTVSPost2010PropOp35
 70
     1
102
RTVSPost2010Prop36
280
     0
102
RTVSPost2010PropOp36
 70
     1
102
RTVSPost2010Prop37
 90
       50
102
RTVSPost2010PropOp37
 70
     1
102
RTVSPost2010Prop38
140
0.0
102
RTVSPost2010PropOp38
 70
     1
102
RTVSPost2010Prop39
140
1.0
102
RTVSPost2010PropOp39
 70
     1
102
RTVSPost2010Prop40
 90
        0
102
RTVSPost2010PropOp40
 70
     1
102
RTVSPost2010Prop41ColorIndex
 90
       18
102
RTVSPost2010Prop41ColorRGB
 90
        0
102
RTVSPost2010PropOp41
 70
     1
102
RTVSPost2010Prop42
 90
       50
102
RTVSPost2010PropOp42
 70
     1
102
RTVSPost2010Prop43
 90
        3
102
RTVSPost2010PropOp43
 70
     1
102
RTVSPost2010Prop44ColorIndex
 90
        5
102
RTVSPost2010Prop44ColorRGB
 90
      255
102
RTVSPost2010PropOp44
 70
     1
102
RTVSPost2010Prop45
280
     0
102
RTVSPost2010PropOp45
 70
     1
102
RTVSPost2010Prop46
 90
       50
102
RTVSPost2010PropOp46
 70
     1
102
RTVSPost2010Prop47
 90
       50
102
RTVSPost2010PropOp47
 70
     1
102
RTVSPost2010Prop48
 90
       50
102
RTVSPost2010PropOp48
 70
     1
102
RTVSPost2010Prop49
280
     0
102
RTVSPost2010PropOp49
 70
     1
102
RTVSPost2010Prop50
 90
       50
102
RTVSPost2010PropOp50
 70
     1
102
RTVSPost2010Prop51ColorIndex
 90
      256
102
RTVSPost2010Prop51ColorRGB
 90
-16777216
102
RTVSPost2010PropOp51
 70
     0
102
RTVSPost2010Prop52
140
1.0
102
RTVSPost2010PropOp52
 70
     0
102
RTVSPost2010Prop53
 90
        2
102
RTVSPost2010PropOp53
 70
     1
102
RTVSPost2010Prop54
  1
strokes_ogs.tif
102
RTVSPost2010PropOp54
 70
     1
102
RTVSPost2010Prop55
280
     0
102
RTVSPost2010PropOp55
 70
     1
102
RTVSPost2010Prop56
140
1.0
102
RTVSPost2010PropOp56
 70
     1
102
RTVSPost2010Prop57
140
1.0
102
RTVSPost2010PropOp57
 70
     1
102
RTVSPropertyOp0
 70
     1
102
RTVSPropertyOp1
 70
     1
102
RTVSPropertyOp2
 70
     1
102
RTVSPropertyOp3
 70
     1
102
RTVSPropertyOp4
 70
     1
102
RTVSPropertyOp5
 70
     1
102
RTVSPropertyOp6
 70
     1
102
RTVSPropertyOp7
 70
     1
102
RTVSPropertyOp8
 70
     1
102
RTVSPropertyOp9
 70
     1
102
RTVSPropertyOp10
 70
     1
102
RTVSPropertyOp11
 70
     1
102
RTVSPropertyOp12
 70
     1
102
RTVSPropertyOp13
 70
     1
102
RTVSPropertyOp14
 70
     1
102
RTVSPropertyOp15
 70
     1
102
RTVSPropertyOp16
 70
     1
102
RTVSPropertyOp17
 70
     1
102
RTVSPropertyOp18
 70
     1
102
RTVSPropertyOp19
 70
     1
102
RTVSPropertyOp20
 70
     1
102
RTVSPropertyOp21
 70
     1
102
RTVSPropertyOp22
 70
     1
102
RTVSPropertyOp23
 70
     1
102
RTVSPropertyOp24
 70
     1
102
RTVSPropertyOp25
 70
     1
102
RTVSPropertyOp26
 70
     1
102
RTVSPropertyOp27
 70
     1
102
RTVSPropertyOp28
 70
     1
102
RTVSPropertyOp29
 70
     1
102
RTVSPropertyOp30
 70
     1
102
RTVSPropertyOp31
 70
     1
102
RTVSPropertyOp32
 70
     1
102
RTVSPropertyOp33
 70
     1
102
RTVSPropertyOp34
 70
     1
102
RTVSPropertyOp35
 70
     1
102
RTVSPropertyOp36
 70
     1
102
RTVSPropertyOp37
 70
     1
102
RTVSPropertyOp38
 70
     1
102
RTVSPropertyOp39
 70
     1
102
RTVSPropertyOp40
 70
     1
102
RTVSPropertyOp41
 70
     1
102
RTVSPropertyOp42
 70
     1
102
RTVSPropertyOp43
 70
     1
102
RTVSPropertyOp44
 70
     1
102
RTVSPropertyOp45
 70
     1
102
RTVSPropertyOp46
 70
     1
102
RTVSPropertyOp47
 70
     1
102
RTVSPropertyOp48
 70
     1
102
RTVSPropertyOp49
 70
     1
102
RTVSPropertyOp50
 70
     1
102
RTVSPropertyOp51
 70
     0
102
RTVSPropertyOp52
 70
     0
102
RTVSPropertyOp53
 70
     1
102
RTVSPropertyOp54
 70
     1
102
RTVSPropertyOp55
 70
     1
102
RTVSPropertyOp56
 70
     1
102
RTVSPropertyOp57
 70
     1
102
RTVSPropertyOp58
 70
     1
102
RTVSPropertyOp59
 70
     1
102
RTVSPropertyOp60
 70
     1
102
RTVSPropertyOp61
 70
     1
102
RTVSPropertyOp62
 70
     1
  0
XRECORD
  5
559D
102
{ACAD_REACTORS
330
559C
102
}
330
559C
100
AcDbXrecord
280
     1
102
RTVSPost2010Prop28
280
     0
102
RTVSPost2010PropOp28
 70
     1
102
RTVSPost2010Prop29
280
     1
102
RTVSPost2010PropOp29
 70
     1
102
RTVSPost2010Prop30
280
     1
102
RTVSPost2010PropOp30
 70
     1
102
RTVSPost2010Prop31
280
     0
102
RTVSPost2010PropOp31
 70
     1
102
RTVSPost2010Prop32
280
     0
102
RTVSPost2010PropOp32
 70
     1
102
RTVSPost2010Prop33
280
     0
102
RTVSPost2010PropOp33
 70
     1
102
RTVSPost2010Prop34
280
     0
102
RTVSPost2010PropOp34
 70
     1
102
RTVSPost2010Prop35
280
     0
102
RTVSPost2010PropOp35
 70
     1
102
RTVSPost2010Prop36
280
     0
102
RTVSPost2010PropOp36
 70
     1
102
RTVSPost2010Prop37
 90
       50
102
RTVSPost2010PropOp37
 70
     1
102
RTVSPost2010Prop38
140
0.0
102
RTVSPost2010PropOp38
 70
     1
102
RTVSPost2010Prop39
140
1.0
102
RTVSPost2010PropOp39
 70
     1
102
RTVSPost2010Prop40
 90
        0
102
RTVSPost2010PropOp40
 70
     1
102
RTVSPost2010Prop41ColorIndex
 90
       18
102
RTVSPost2010Prop41ColorRGB
 90
        0
102
RTVSPost2010PropOp41
 70
     1
102
RTVSPost2010Prop42
 90
       50
102
RTVSPost2010PropOp42
 70
     1
102
RTVSPost2010Prop43
 90
        3
102
RTVSPost2010PropOp43
 70
     1
102
RTVSPost2010Prop44ColorIndex
 90
        5
102
RTVSPost2010Prop44ColorRGB
 90
      255
102
RTVSPost2010PropOp44
 70
     1
102
RTVSPost2010Prop45
280
     0
102
RTVSPost2010PropOp45
 70
     1
102
RTVSPost2010Prop46
 90
       50
102
RTVSPost2010PropOp46
 70
     1
102
RTVSPost2010Prop47
 90
       50
102
RTVSPost2010PropOp47
 70
     1
102
RTVSPost2010Prop48
 90
       50
102
RTVSPost2010PropOp48
 70
     1
102
RTVSPost2010Prop49
280
     0
102
RTVSPost2010PropOp49
 70
     1
102
RTVSPost2010Prop50
 90
       50
102
RTVSPost2010PropOp50
 70
     1
102
RTVSPost2010Prop51ColorIndex
 90
      256
102
RTVSPost2010Prop51ColorRGB
 90
-16777216
102
RTVSPost2010PropOp51
 70
     0
102
RTVSPost2010Prop52
140
1.0
102
RTVSPost2010PropOp52
 70
     0
102
RTVSPost2010Prop53
 90
        2
102
RTVSPost2010PropOp53
 70
     1
102
RTVSPost2010Prop54
  1
strokes_ogs.tif
102
RTVSPost2010PropOp54
 70
     1
102
RTVSPost2010Prop55
280
     0
102
RTVSPost2010PropOp55
 70
     1
102
RTVSPost2010Prop56
140
1.0
102
RTVSPost2010PropOp56
 70
     1
102
RTVSPost2010Prop57
140
1.0
102
RTVSPost2010PropOp57
 70
     1
102
RTVSPropertyOp0
 70
     1
102
RTVSPropertyOp1
 70
     1
102
RTVSPropertyOp2
 70
     1
102
RTVSPropertyOp3
 70
     1
102
RTVSPropertyOp4
 70
     1
102
RTVSPropertyOp5
 70
     1
102
RTVSPropertyOp6
 70
     1
102
RTVSPropertyOp7
 70
     1
102
RTVSPropertyOp8
 70
     1
102
RTVSPropertyOp9
 70
     1
102
RTVSPropertyOp10
 70
     1
102
RTVSPropertyOp11
 70
     1
102
RTVSPropertyOp12
 70
     1
102
RTVSPropertyOp13
 70
     1
102
RTVSPropertyOp14
 70
     1
102
RTVSPropertyOp15
 70
     1
102
RTVSPropertyOp16
 70
     1
102
RTVSPropertyOp17
 70
     1
102
RTVSPropertyOp18
 70
     1
102
RTVSPropertyOp19
 70
     1
102
RTVSPropertyOp20
 70
     1
102
RTVSPropertyOp21
 70
     1
102
RTVSPropertyOp22
 70
     1
102
RTVSPropertyOp23
 70
     1
102
RTVSPropertyOp24
 70
     1
102
RTVSPropertyOp25
 70
     1
102
RTVSPropertyOp26
 70
     1
102
RTVSPropertyOp27
 70
     1
102
RTVSPropertyOp28
 70
     1
102
RTVSPropertyOp29
 70
     1
102
RTVSPropertyOp30
 70
     1
102
RTVSPropertyOp31
 70
     1
102
RTVSPropertyOp32
 70
     1
102
RTVSPropertyOp33
 70
     1
102
RTVSPropertyOp34
 70
     1
102
RTVSPropertyOp35
 70
     1
102
RTVSPropertyOp36
 70
     1
102
RTVSPropertyOp37
 70
     1
102
RTVSPropertyOp38
 70
     1
102
RTVSPropertyOp39
 70
     1
102
RTVSPropertyOp40
 70
     1
102
RTVSPropertyOp41
 70
     1
102
RTVSPropertyOp42
 70
     1
102
RTVSPropertyOp43
 70
     1
102
RTVSPropertyOp44
 70
     1
102
RTVSPropertyOp45
 70
     1
102
RTVSPropertyOp46
 70
     1
102
RTVSPropertyOp47
 70
     1
102
RTVSPropertyOp48
 70
     1
102
RTVSPropertyOp49
 70
     1
102
RTVSPropertyOp50
 70
     1
102
RTVSPropertyOp51
 70
     0
102
RTVSPropertyOp52
 70
     0
102
RTVSPropertyOp53
 70
     1
102
RTVSPropertyOp54
 70
     1
102
RTVSPropertyOp55
 70
     1
102
RTVSPropertyOp56
 70
     1
102
RTVSPropertyOp57
 70
     1
102
RTVSPropertyOp58
 70
     1
102
RTVSPropertyOp59
 70
     1
102
RTVSPropertyOp60
 70
     1
102
RTVSPropertyOp61
 70
     1
102
RTVSPropertyOp62
 70
     1
  0
XRECORD
  5
55A5
102
{ACAD_REACTORS
330
55A4
102
}
330
55A4
100
AcDbXrecord
280
     1
102
RTVSPost2010Prop28
280
     0
102
RTVSPost2010PropOp28
 70
     1
102
RTVSPost2010Prop29
280
     1
102
RTVSPost2010PropOp29
 70
     1
102
RTVSPost2010Prop30
280
     1
102
RTVSPost2010PropOp30
 70
     1
102
RTVSPost2010Prop31
280
     0
102
RTVSPost2010PropOp31
 70
     1
102
RTVSPost2010Prop32
280
     0
102
RTVSPost2010PropOp32
 70
     1
102
RTVSPost2010Prop33
280
     0
102
RTVSPost2010PropOp33
 70
     1
102
RTVSPost2010Prop34
280
     0
102
RTVSPost2010PropOp34
 70
     1
102
RTVSPost2010Prop35
280
     0
102
RTVSPost2010PropOp35
 70
     1
102
RTVSPost2010Prop36
280
     0
102
RTVSPost2010PropOp36
 70
     1
102
RTVSPost2010Prop37
 90
       50
102
RTVSPost2010PropOp37
 70
     1
102
RTVSPost2010Prop38
140
0.0
102
RTVSPost2010PropOp38
 70
     1
102
RTVSPost2010Prop39
140
1.0
102
RTVSPost2010PropOp39
 70
     1
102
RTVSPost2010Prop40
 90
        0
102
RTVSPost2010PropOp40
 70
     1
102
RTVSPost2010Prop41ColorIndex
 90
       18
102
RTVSPost2010Prop41ColorRGB
 90
        0
102
RTVSPost2010PropOp41
 70
     1
102
RTVSPost2010Prop42
 90
       50
102
RTVSPost2010PropOp42
 70
     1
102
RTVSPost2010Prop43
 90
        3
102
RTVSPost2010PropOp43
 70
     1
102
RTVSPost2010Prop44ColorIndex
 90
        5
102
RTVSPost2010Prop44ColorRGB
 90
      255
102
RTVSPost2010PropOp44
 70
     1
102
RTVSPost2010Prop45
280
     0
102
RTVSPost2010PropOp45
 70
     1
102
RTVSPost2010Prop46
 90
       50
102
RTVSPost2010PropOp46
 70
     1
102
RTVSPost2010Prop47
 90
       50
102
RTVSPost2010PropOp47
 70
     1
102
RTVSPost2010Prop48
 90
       50
102
RTVSPost2010PropOp48
 70
     1
102
RTVSPost2010Prop49
280
     0
102
RTVSPost2010PropOp49
 70
     1
102
RTVSPost2010Prop50
 90
       50
102
RTVSPost2010PropOp50
 70
     1
102
RTVSPost2010Prop51ColorIndex
 90
      256
102
RTVSPost2010Prop51ColorRGB
 90
-16777216
102
RTVSPost2010PropOp51
 70
     0
102
RTVSPost2010Prop52
140
1.0
102
RTVSPost2010PropOp52
 70
     0
102
RTVSPost2010Prop53
 90
        2
102
RTVSPost2010PropOp53
 70
     1
102
RTVSPost2010Prop54
  1
strokes_ogs.tif
102
RTVSPost2010PropOp54
 70
     1
102
RTVSPost2010Prop55
280
     0
102
RTVSPost2010PropOp55
 70
     1
102
RTVSPost2010Prop56
140
1.0
102
RTVSPost2010PropOp56
 70
     1
102
RTVSPost2010Prop57
140
1.0
102
RTVSPost2010PropOp57
 70
     1
102
RTVSPropertyOp0
 70
     1
102
RTVSPropertyOp1
 70
     1
102
RTVSPropertyOp2
 70
     1
102
RTVSPropertyOp3
 70
     1
102
RTVSPropertyOp4
 70
     1
102
RTVSPropertyOp5
 70
     1
102
RTVSPropertyOp6
 70
     1
102
RTVSPropertyOp7
 70
     1
102
RTVSPropertyOp8
 70
     1
102
RTVSPropertyOp9
 70
     1
102
RTVSPropertyOp10
 70
     1
102
RTVSPropertyOp11
 70
     1
102
RTVSPropertyOp12
 70
     1
102
RTVSPropertyOp13
 70
     1
102
RTVSPropertyOp14
 70
     1
102
RTVSPropertyOp15
 70
     1
102
RTVSPropertyOp16
 70
     1
102
RTVSPropertyOp17
 70
     1
102
RTVSPropertyOp18
 70
     1
102
RTVSPropertyOp19
 70
     1
102
RTVSPropertyOp20
 70
     1
102
RTVSPropertyOp21
 70
     1
102
RTVSPropertyOp22
 70
     1
102
RTVSPropertyOp23
 70
     1
102
RTVSPropertyOp24
 70
     1
102
RTVSPropertyOp25
 70
     1
102
RTVSPropertyOp26
 70
     1
102
RTVSPropertyOp27
 70
     1
102
RTVSPropertyOp28
 70
     1
102
RTVSPropertyOp29
 70
     1
102
RTVSPropertyOp30
 70
     1
102
RTVSPropertyOp31
 70
     1
102
RTVSPropertyOp32
 70
     1
102
RTVSPropertyOp33
 70
     1
102
RTVSPropertyOp34
 70
     1
102
RTVSPropertyOp35
 70
     1
102
RTVSPropertyOp36
 70
     1
102
RTVSPropertyOp37
 70
     1
102
RTVSPropertyOp38
 70
     1
102
RTVSPropertyOp39
 70
     1
102
RTVSPropertyOp40
 70
     1
102
RTVSPropertyOp41
 70
     1
102
RTVSPropertyOp42
 70
     1
102
RTVSPropertyOp43
 70
     1
102
RTVSPropertyOp44
 70
     1
102
RTVSPropertyOp45
 70
     1
102
RTVSPropertyOp46
 70
     1
102
RTVSPropertyOp47
 70
     1
102
RTVSPropertyOp48
 70
     1
102
RTVSPropertyOp49
 70
     1
102
RTVSPropertyOp50
 70
     1
102
RTVSPropertyOp51
 70
     0
102
RTVSPropertyOp52
 70
     0
102
RTVSPropertyOp53
 70
     1
102
RTVSPropertyOp54
 70
     1
102
RTVSPropertyOp55
 70
     1
102
RTVSPropertyOp56
 70
     1
102
RTVSPropertyOp57
 70
     1
102
RTVSPropertyOp58
 70
     1
102
RTVSPropertyOp59
 70
     1
102
RTVSPropertyOp60
 70
     1
102
RTVSPropertyOp61
 70
     1
102
RTVSPropertyOp62
 70
     1
  0
XRECORD
  5
5597
102
{ACAD_REACTORS
330
5596
102
}
330
5596
100
AcDbXrecord
280
     1
102
RTVSPost2010Prop28
280
     0
102
RTVSPost2010PropOp28
 70
     1
102
RTVSPost2010Prop29
280
     1
102
RTVSPost2010PropOp29
 70
     1
102
RTVSPost2010Prop30
280
     1
102
RTVSPost2010PropOp30
 70
     1
102
RTVSPost2010Prop31
280
     0
102
RTVSPost2010PropOp31
 70
     1
102
RTVSPost2010Prop32
280
     0
102
RTVSPost2010PropOp32
 70
     1
102
RTVSPost2010Prop33
280
     0
102
RTVSPost2010PropOp33
 70
     1
102
RTVSPost2010Prop34
280
     0
102
RTVSPost2010PropOp34
 70
     1
102
RTVSPost2010Prop35
280
     0
102
RTVSPost2010PropOp35
 70
     1
102
RTVSPost2010Prop36
280
     0
102
RTVSPost2010PropOp36
 70
     1
102
RTVSPost2010Prop37
 90
       50
102
RTVSPost2010PropOp37
 70
     1
102
RTVSPost2010Prop38
140
0.0
102
RTVSPost2010PropOp38
 70
     1
102
RTVSPost2010Prop39
140
1.0
102
RTVSPost2010PropOp39
 70
     1
102
RTVSPost2010Prop40
 90
        0
102
RTVSPost2010PropOp40
 70
     1
102
RTVSPost2010Prop41ColorIndex
 90
       18
102
RTVSPost2010Prop41ColorRGB
 90
        0
102
RTVSPost2010PropOp41
 70
     1
102
RTVSPost2010Prop42
 90
       50
102
RTVSPost2010PropOp42
 70
     1
102
RTVSPost2010Prop43
 90
        3
102
RTVSPost2010PropOp43
 70
     1
102
RTVSPost2010Prop44ColorIndex
 90
        5
102
RTVSPost2010Prop44ColorRGB
 90
      255
102
RTVSPost2010PropOp44
 70
     1
102
RTVSPost2010Prop45
280
     0
102
RTVSPost2010PropOp45
 70
     1
102
RTVSPost2010Prop46
 90
       50
102
RTVSPost2010PropOp46
 70
     1
102
RTVSPost2010Prop47
 90
       50
102
RTVSPost2010PropOp47
 70
     1
102
RTVSPost2010Prop48
 90
       50
102
RTVSPost2010PropOp48
 70
     1
102
RTVSPost2010Prop49
280
     0
102
RTVSPost2010PropOp49
 70
     1
102
RTVSPost2010Prop50
 90
       50
102
RTVSPost2010PropOp50
 70
     1
102
RTVSPost2010Prop51ColorIndex
 90
      256
102
RTVSPost2010Prop51ColorRGB
 90
-16777216
102
RTVSPost2010PropOp51
 70
     0
102
RTVSPost2010Prop52
140
1.0
102
RTVSPost2010PropOp52
 70
     0
102
RTVSPost2010Prop53
 90
        2
102
RTVSPost2010PropOp53
 70
     1
102
RTVSPost2010Prop54
  1
strokes_ogs.tif
102
RTVSPost2010PropOp54
 70
     1
102
RTVSPost2010Prop55
280
     0
102
RTVSPost2010PropOp55
 70
     1
102
RTVSPost2010Prop56
140
1.0
102
RTVSPost2010PropOp56
 70
     1
102
RTVSPost2010Prop57
140
1.0
102
RTVSPost2010PropOp57
 70
     1
102
RTVSPropertyOp0
 70
     1
102
RTVSPropertyOp1
 70
     1
102
RTVSPropertyOp2
 70
     1
102
RTVSPropertyOp3
 70
     1
102
RTVSPropertyOp4
 70
     1
102
RTVSPropertyOp5
 70
     1
102
RTVSPropertyOp6
 70
     1
102
RTVSPropertyOp7
 70
     1
102
RTVSPropertyOp8
 70
     1
102
RTVSPropertyOp9
 70
     1
102
RTVSPropertyOp10
 70
     1
102
RTVSPropertyOp11
 70
     1
102
RTVSPropertyOp12
 70
     1
102
RTVSPropertyOp13
 70
     1
102
RTVSPropertyOp14
 70
     1
102
RTVSPropertyOp15
 70
     1
102
RTVSPropertyOp16
 70
     1
102
RTVSPropertyOp17
 70
     1
102
RTVSPropertyOp18
 70
     1
102
RTVSPropertyOp19
 70
     1
102
RTVSPropertyOp20
 70
     1
102
RTVSPropertyOp21
 70
     1
102
RTVSPropertyOp22
 70
     1
102
RTVSPropertyOp23
 70
     1
102
RTVSPropertyOp24
 70
     1
102
RTVSPropertyOp25
 70
     1
102
RTVSPropertyOp26
 70
     1
102
RTVSPropertyOp27
 70
     1
102
RTVSPropertyOp28
 70
     1
102
RTVSPropertyOp29
 70
     1
102
RTVSPropertyOp30
 70
     1
102
RTVSPropertyOp31
 70
     1
102
RTVSPropertyOp32
 70
     1
102
RTVSPropertyOp33
 70
     1
102
RTVSPropertyOp34
 70
     1
102
RTVSPropertyOp35
 70
     1
102
RTVSPropertyOp36
 70
     1
102
RTVSPropertyOp37
 70
     1
102
RTVSPropertyOp38
 70
     1
102
RTVSPropertyOp39
 70
     1
102
RTVSPropertyOp40
 70
     1
102
RTVSPropertyOp41
 70
     1
102
RTVSPropertyOp42
 70
     1
102
RTVSPropertyOp43
 70
     1
102
RTVSPropertyOp44
 70
     1
102
RTVSPropertyOp45
 70
     1
102
RTVSPropertyOp46
 70
     1
102
RTVSPropertyOp47
 70
     1
102
RTVSPropertyOp48
 70
     1
102
RTVSPropertyOp49
 70
     1
102
RTVSPropertyOp50
 70
     1
102
RTVSPropertyOp51
 70
     0
102
RTVSPropertyOp52
 70
     0
102
RTVSPropertyOp53
 70
     1
102
RTVSPropertyOp54
 70
     1
102
RTVSPropertyOp55
 70
     1
102
RTVSPropertyOp56
 70
     1
102
RTVSPropertyOp57
 70
     1
102
RTVSPropertyOp58
 70
     1
102
RTVSPropertyOp59
 70
     1
102
RTVSPropertyOp60
 70
     1
102
RTVSPropertyOp61
 70
     1
102
RTVSPropertyOp62
 70
     1
  0
XRECORD
  5
559B
102
{ACAD_REACTORS
330
559A
102
}
330
559A
100
AcDbXrecord
280
     1
102
RTVSPost2010Prop28
280
     0
102
RTVSPost2010PropOp28
 70
     1
102
RTVSPost2010Prop29
280
     1
102
RTVSPost2010PropOp29
 70
     1
102
RTVSPost2010Prop30
280
     1
102
RTVSPost2010PropOp30
 70
     1
102
RTVSPost2010Prop31
280
     0
102
RTVSPost2010PropOp31
 70
     1
102
RTVSPost2010Prop32
280
     0
102
RTVSPost2010PropOp32
 70
     1
102
RTVSPost2010Prop33
280
     0
102
RTVSPost2010PropOp33
 70
     1
102
RTVSPost2010Prop34
280
     0
102
RTVSPost2010PropOp34
 70
     1
102
RTVSPost2010Prop35
280
     0
102
RTVSPost2010PropOp35
 70
     1
102
RTVSPost2010Prop36
280
     0
102
RTVSPost2010PropOp36
 70
     1
102
RTVSPost2010Prop37
 90
       50
102
RTVSPost2010PropOp37
 70
     1
102
RTVSPost2010Prop38
140
0.0
102
RTVSPost2010PropOp38
 70
     1
102
RTVSPost2010Prop39
140
1.0
102
RTVSPost2010PropOp39
 70
     1
102
RTVSPost2010Prop40
 90
        0
102
RTVSPost2010PropOp40
 70
     1
102
RTVSPost2010Prop41ColorIndex
 90
       18
102
RTVSPost2010Prop41ColorRGB
 90
        0
102
RTVSPost2010PropOp41
 70
     1
102
RTVSPost2010Prop42
 90
       50
102
RTVSPost2010PropOp42
 70
     1
102
RTVSPost2010Prop43
 90
        3
102
RTVSPost2010PropOp43
 70
     1
102
RTVSPost2010Prop44ColorIndex
 90
        5
102
RTVSPost2010Prop44ColorRGB
 90
      255
102
RTVSPost2010PropOp44
 70
     1
102
RTVSPost2010Prop45
280
     0
102
RTVSPost2010PropOp45
 70
     1
102
RTVSPost2010Prop46
 90
       50
102
RTVSPost2010PropOp46
 70
     1
102
RTVSPost2010Prop47
 90
       50
102
RTVSPost2010PropOp47
 70
     1
102
RTVSPost2010Prop48
 90
       50
102
RTVSPost2010PropOp48
 70
     1
102
RTVSPost2010Prop49
280
     0
102
RTVSPost2010PropOp49
 70
     1
102
RTVSPost2010Prop50
 90
       50
102
RTVSPost2010PropOp50
 70
     1
102
RTVSPost2010Prop51ColorIndex
 90
      256
102
RTVSPost2010Prop51ColorRGB
 90
-16777216
102
RTVSPost2010PropOp51
 70
     0
102
RTVSPost2010Prop52
140
1.0
102
RTVSPost2010PropOp52
 70
     0
102
RTVSPost2010Prop53
 90
        2
102
RTVSPost2010PropOp53
 70
     1
102
RTVSPost2010Prop54
  1
strokes_ogs.tif
102
RTVSPost2010PropOp54
 70
     1
102
RTVSPost2010Prop55
280
     0
102
RTVSPost2010PropOp55
 70
     1
102
RTVSPost2010Prop56
140
1.0
102
RTVSPost2010PropOp56
 70
     1
102
RTVSPost2010Prop57
140
1.0
102
RTVSPost2010PropOp57
 70
     1
102
RTVSPropertyOp0
 70
     1
102
RTVSPropertyOp1
 70
     1
102
RTVSPropertyOp2
 70
     1
102
RTVSPropertyOp3
 70
     1
102
RTVSPropertyOp4
 70
     1
102
RTVSPropertyOp5
 70
     1
102
RTVSPropertyOp6
 70
     1
102
RTVSPropertyOp7
 70
     1
102
RTVSPropertyOp8
 70
     1
102
RTVSPropertyOp9
 70
     1
102
RTVSPropertyOp10
 70
     1
102
RTVSPropertyOp11
 70
     1
102
RTVSPropertyOp12
 70
     1
102
RTVSPropertyOp13
 70
     1
102
RTVSPropertyOp14
 70
     1
102
RTVSPropertyOp15
 70
     1
102
RTVSPropertyOp16
 70
     1
102
RTVSPropertyOp17
 70
     1
102
RTVSPropertyOp18
 70
     1
102
RTVSPropertyOp19
 70
     1
102
RTVSPropertyOp20
 70
     1
102
RTVSPropertyOp21
 70
     1
102
RTVSPropertyOp22
 70
     1
102
RTVSPropertyOp23
 70
     1
102
RTVSPropertyOp24
 70
     1
102
RTVSPropertyOp25
 70
     1
102
RTVSPropertyOp26
 70
     1
102
RTVSPropertyOp27
 70
     1
102
RTVSPropertyOp28
 70
     1
102
RTVSPropertyOp29
 70
     1
102
RTVSPropertyOp30
 70
     1
102
RTVSPropertyOp31
 70
     1
102
RTVSPropertyOp32
 70
     1
102
RTVSPropertyOp33
 70
     1
102
RTVSPropertyOp34
 70
     1
102
RTVSPropertyOp35
 70
     1
102
RTVSPropertyOp36
 70
     1
102
RTVSPropertyOp37
 70
     1
102
RTVSPropertyOp38
 70
     1
102
RTVSPropertyOp39
 70
     1
102
RTVSPropertyOp40
 70
     1
102
RTVSPropertyOp41
 70
     1
102
RTVSPropertyOp42
 70
     1
102
RTVSPropertyOp43
 70
     1
102
RTVSPropertyOp44
 70
     1
102
RTVSPropertyOp45
 70
     1
102
RTVSPropertyOp46
 70
     1
102
RTVSPropertyOp47
 70
     1
102
RTVSPropertyOp48
 70
     1
102
RTVSPropertyOp49
 70
     1
102
RTVSPropertyOp50
 70
     1
102
RTVSPropertyOp51
 70
     0
102
RTVSPropertyOp52
 70
     0
102
RTVSPropertyOp53
 70
     1
102
RTVSPropertyOp54
 70
     1
102
RTVSPropertyOp55
 70
     1
102
RTVSPropertyOp56
 70
     1
102
RTVSPropertyOp57
 70
     1
102
RTVSPropertyOp58
 70
     1
102
RTVSPropertyOp59
 70
     1
102
RTVSPropertyOp60
 70
     1
102
RTVSPropertyOp61
 70
     1
102
RTVSPropertyOp62
 70
     1
  0
XRECORD
  5
55B5
102
{ACAD_REACTORS
330
55B4
102
}
330
55B4
100
AcDbXrecord
280
     1
102
RTVSPost2010Prop28
280
     0
102
RTVSPost2010PropOp28
 70
     1
102
RTVSPost2010Prop29
280
     1
102
RTVSPost2010PropOp29
 70
     1
102
RTVSPost2010Prop30
280
     1
102
RTVSPost2010PropOp30
 70
     1
102
RTVSPost2010Prop31
280
     0
102
RTVSPost2010PropOp31
 70
     1
102
RTVSPost2010Prop32
280
     0
102
RTVSPost2010PropOp32
 70
     1
102
RTVSPost2010Prop33
280
     0
102
RTVSPost2010PropOp33
 70
     1
102
RTVSPost2010Prop34
280
     0
102
RTVSPost2010PropOp34
 70
     1
102
RTVSPost2010Prop35
280
     0
102
RTVSPost2010PropOp35
 70
     1
102
RTVSPost2010Prop36
280
     0
102
RTVSPost2010PropOp36
 70
     1
102
RTVSPost2010Prop37
 90
       50
102
RTVSPost2010PropOp37
 70
     0
102
RTVSPost2010Prop38
140
0.0
102
RTVSPost2010PropOp38
 70
     0
102
RTVSPost2010Prop39
140
1.0
102
RTVSPost2010PropOp39
 70
     0
102
RTVSPost2010Prop40
 90
        0
102
RTVSPost2010PropOp40
 70
     0
102
RTVSPost2010Prop41ColorIndex
 90
       18
102
RTVSPost2010Prop41ColorRGB
 90
        0
102
RTVSPost2010PropOp41
 70
     0
102
RTVSPost2010Prop42
 90
       50
102
RTVSPost2010PropOp42
 70
     0
102
RTVSPost2010Prop43
 90
        3
102
RTVSPost2010PropOp43
 70
     0
102
RTVSPost2010Prop44ColorIndex
 90
        5
102
RTVSPost2010Prop44ColorRGB
 90
      255
102
RTVSPost2010PropOp44
 70
     0
102
RTVSPost2010Prop45
280
     0
102
RTVSPost2010PropOp45
 70
     1
102
RTVSPost2010Prop46
 90
       50
102
RTVSPost2010PropOp46
 70
     0
102
RTVSPost2010Prop47
 90
       50
102
RTVSPost2010PropOp47
 70
     0
102
RTVSPost2010Prop48
 90
       50
102
RTVSPost2010PropOp48
 70
     0
102
RTVSPost2010Prop49
280
     0
102
RTVSPost2010PropOp49
 70
     1
102
RTVSPost2010Prop50
 90
       50
102
RTVSPost2010PropOp50
 70
     0
102
RTVSPost2010Prop51ColorIndex
 90
      256
102
RTVSPost2010Prop51ColorRGB
 90
-16777216
102
RTVSPost2010PropOp51
 70
     0
102
RTVSPost2010Prop52
140
1.0
102
RTVSPost2010PropOp52
 70
     0
102
RTVSPost2010Prop53
 90
        2
102
RTVSPost2010PropOp53
 70
     0
102
RTVSPost2010Prop54
  1
strokes_ogs.tif
102
RTVSPost2010PropOp54
 70
     0
102
RTVSPost2010Prop55
280
     0
102
RTVSPost2010PropOp55
 70
     1
102
RTVSPost2010Prop56
140
1.0
102
RTVSPost2010PropOp56
 70
     0
102
RTVSPost2010Prop57
140
1.0
102
RTVSPost2010PropOp57
 70
     0
102
RTVSPropertyOp0
 70
     0
102
RTVSPropertyOp1
 70
     0
102
RTVSPropertyOp2
 70
     0
102
RTVSPropertyOp3
 70
     0
102
RTVSPropertyOp4
 70
     0
102
RTVSPropertyOp5
 70
     0
102
RTVSPropertyOp6
 70
     0
102
RTVSPropertyOp7
 70
     0
102
RTVSPropertyOp8
 70
     0
102
RTVSPropertyOp9
 70
     0
102
RTVSPropertyOp10
 70
     0
102
RTVSPropertyOp11
 70
     0
102
RTVSPropertyOp12
 70
     0
102
RTVSPropertyOp13
 70
     0
102
RTVSPropertyOp14
 70
     2
102
RTVSPropertyOp15
 70
     0
102
RTVSPropertyOp16
 70
     0
102
RTVSPropertyOp17
 70
     0
102
RTVSPropertyOp18
 70
     0
102
RTVSPropertyOp19
 70
     0
102
RTVSPropertyOp20
 70
     0
102
RTVSPropertyOp21
 70
     0
102
RTVSPropertyOp22
 70
     0
102
RTVSPropertyOp23
 70
     0
102
RTVSPropertyOp24
 70
     0
102
RTVSPropertyOp25
 70
     0
102
RTVSPropertyOp26
 70
     0
102
RTVSPropertyOp27
 70
     0
102
RTVSPropertyOp28
 70
     1
102
RTVSPropertyOp29
 70
     1
102
RTVSPropertyOp30
 70
     1
102
RTVSPropertyOp31
 70
     1
102
RTVSPropertyOp32
 70
     1
102
RTVSPropertyOp33
 70
     1
102
RTVSPropertyOp34
 70
     1
102
RTVSPropertyOp35
 70
     1
102
RTVSPropertyOp36
 70
     1
102
RTVSPropertyOp37
 70
     0
102
RTVSPropertyOp38
 70
     0
102
RTVSPropertyOp39
 70
     0
102
RTVSPropertyOp40
 70
     0
102
RTVSPropertyOp41
 70
     0
102
RTVSPropertyOp42
 70
     0
102
RTVSPropertyOp43
 70
     0
102
RTVSPropertyOp44
 70
     0
102
RTVSPropertyOp45
 70
     1
102
RTVSPropertyOp46
 70
     0
102
RTVSPropertyOp47
 70
     0
102
RTVSPropertyOp48
 70
     0
102
RTVSPropertyOp49
 70
     1
102
RTVSPropertyOp50
 70
     0
102
RTVSPropertyOp51
 70
     0
102
RTVSPropertyOp52
 70
     0
102
RTVSPropertyOp53
 70
     0
102
RTVSPropertyOp54
 70
     0
102
RTVSPropertyOp55
 70
     1
102
RTVSPropertyOp56
 70
     0
102
RTVSPropertyOp57
 70
     0
102
RTVSPropertyOp58
 70
     0
102
RTVSPropertyOp59
 70
     0
102
RTVSPropertyOp60
 70
     0
102
RTVSPropertyOp61
 70
     0
102
RTVSPropertyOp62
 70
     0
  0
XRECORD
  5
55A3
102
{ACAD_REACTORS
330
55A2
102
}
330
55A2
100
AcDbXrecord
280
     1
102
RTVSPost2010Prop28
280
     0
102
RTVSPost2010PropOp28
 70
     1
102
RTVSPost2010Prop29
280
     1
102
RTVSPost2010PropOp29
 70
     1
102
RTVSPost2010Prop30
280
     1
102
RTVSPost2010PropOp30
 70
     1
102
RTVSPost2010Prop31
280
     0
102
RTVSPost2010PropOp31
 70
     1
102
RTVSPost2010Prop32
280
     0
102
RTVSPost2010PropOp32
 70
     1
102
RTVSPost2010Prop33
280
     0
102
RTVSPost2010PropOp33
 70
     1
102
RTVSPost2010Prop34
280
     0
102
RTVSPost2010PropOp34
 70
     1
102
RTVSPost2010Prop35
280
     0
102
RTVSPost2010PropOp35
 70
     1
102
RTVSPost2010Prop36
280
     0
102
RTVSPost2010PropOp36
 70
     1
102
RTVSPost2010Prop37
 90
       50
102
RTVSPost2010PropOp37
 70
     1
102
RTVSPost2010Prop38
140
0.0
102
RTVSPost2010PropOp38
 70
     1
102
RTVSPost2010Prop39
140
1.0
102
RTVSPost2010PropOp39
 70
     1
102
RTVSPost2010Prop40
 90
        0
102
RTVSPost2010PropOp40
 70
     1
102
RTVSPost2010Prop41ColorIndex
 90
       18
102
RTVSPost2010Prop41ColorRGB
 90
        0
102
RTVSPost2010PropOp41
 70
     1
102
RTVSPost2010Prop42
 90
       50
102
RTVSPost2010PropOp42
 70
     1
102
RTVSPost2010Prop43
 90
        3
102
RTVSPost2010PropOp43
 70
     1
102
RTVSPost2010Prop44ColorIndex
 90
        5
102
RTVSPost2010Prop44ColorRGB
 90
      255
102
RTVSPost2010PropOp44
 70
     1
102
RTVSPost2010Prop45
280
     0
102
RTVSPost2010PropOp45
 70
     1
102
RTVSPost2010Prop46
 90
       50
102
RTVSPost2010PropOp46
 70
     1
102
RTVSPost2010Prop47
 90
       50
102
RTVSPost2010PropOp47
 70
     1
102
RTVSPost2010Prop48
 90
       50
102
RTVSPost2010PropOp48
 70
     1
102
RTVSPost2010Prop49
280
     0
102
RTVSPost2010PropOp49
 70
     1
102
RTVSPost2010Prop50
 90
       50
102
RTVSPost2010PropOp50
 70
     1
102
RTVSPost2010Prop51ColorIndex
 90
      256
102
RTVSPost2010Prop51ColorRGB
 90
-16777216
102
RTVSPost2010PropOp51
 70
     0
102
RTVSPost2010Prop52
140
1.0
102
RTVSPost2010PropOp52
 70
     0
102
RTVSPost2010Prop53
 90
        2
102
RTVSPost2010PropOp53
 70
     1
102
RTVSPost2010Prop54
  1
strokes_ogs.tif
102
RTVSPost2010PropOp54
 70
     1
102
RTVSPost2010Prop55
280
     0
102
RTVSPost2010PropOp55
 70
     1
102
RTVSPost2010Prop56
140
1.0
102
RTVSPost2010PropOp56
 70
     1
102
RTVSPost2010Prop57
140
1.0
102
RTVSPost2010PropOp57
 70
     1
102
RTVSPropertyOp0
 70
     1
102
RTVSPropertyOp1
 70
     1
102
RTVSPropertyOp2
 70
     1
102
RTVSPropertyOp3
 70
     1
102
RTVSPropertyOp4
 70
     1
102
RTVSPropertyOp5
 70
     1
102
RTVSPropertyOp6
 70
     1
102
RTVSPropertyOp7
 70
     1
102
RTVSPropertyOp8
 70
     1
102
RTVSPropertyOp9
 70
     1
102
RTVSPropertyOp10
 70
     1
102
RTVSPropertyOp11
 70
     1
102
RTVSPropertyOp12
 70
     1
102
RTVSPropertyOp13
 70
     1
102
RTVSPropertyOp14
 70
     1
102
RTVSPropertyOp15
 70
     1
102
RTVSPropertyOp16
 70
     1
102
RTVSPropertyOp17
 70
     1
102
RTVSPropertyOp18
 70
     1
102
RTVSPropertyOp19
 70
     1
102
RTVSPropertyOp20
 70
     1
102
RTVSPropertyOp21
 70
     1
102
RTVSPropertyOp22
 70
     1
102
RTVSPropertyOp23
 70
     1
102
RTVSPropertyOp24
 70
     1
102
RTVSPropertyOp25
 70
     1
102
RTVSPropertyOp26
 70
     1
102
RTVSPropertyOp27
 70
     1
102
RTVSPropertyOp28
 70
     1
102
RTVSPropertyOp29
 70
     1
102
RTVSPropertyOp30
 70
     1
102
RTVSPropertyOp31
 70
     1
102
RTVSPropertyOp32
 70
     1
102
RTVSPropertyOp33
 70
     1
102
RTVSPropertyOp34
 70
     1
102
RTVSPropertyOp35
 70
     1
102
RTVSPropertyOp36
 70
     1
102
RTVSPropertyOp37
 70
     1
102
RTVSPropertyOp38
 70
     1
102
RTVSPropertyOp39
 70
     1
102
RTVSPropertyOp40
 70
     1
102
RTVSPropertyOp41
 70
     1
102
RTVSPropertyOp42
 70
     1
102
RTVSPropertyOp43
 70
     1
102
RTVSPropertyOp44
 70
     1
102
RTVSPropertyOp45
 70
     1
102
RTVSPropertyOp46
 70
     1
102
RTVSPropertyOp47
 70
     1
102
RTVSPropertyOp48
 70
     1
102
RTVSPropertyOp49
 70
     1
102
RTVSPropertyOp50
 70
     1
102
RTVSPropertyOp51
 70
     0
102
RTVSPropertyOp52
 70
     0
102
RTVSPropertyOp53
 70
     1
102
RTVSPropertyOp54
 70
     1
102
RTVSPropertyOp55
 70
     1
102
RTVSPropertyOp56
 70
     1
102
RTVSPropertyOp57
 70
     1
102
RTVSPropertyOp58
 70
     1
102
RTVSPropertyOp59
 70
     1
102
RTVSPropertyOp60
 70
     1
102
RTVSPropertyOp61
 70
     1
102
RTVSPropertyOp62
 70
     1
  0
XRECORD
  5
5587
102
{ACAD_REACTORS
330
5586
102
}
330
5586
100
AcDbXrecord
280
     1
102
RTVSPost2010Prop28
280
     0
102
RTVSPost2010PropOp28
 70
     1
102
RTVSPost2010Prop29
280
     1
102
RTVSPost2010PropOp29
 70
     1
102
RTVSPost2010Prop30
280
     1
102
RTVSPost2010PropOp30
 70
     1
102
RTVSPost2010Prop31
280
     0
102
RTVSPost2010PropOp31
 70
     1
102
RTVSPost2010Prop32
280
     0
102
RTVSPost2010PropOp32
 70
     1
102
RTVSPost2010Prop33
280
     0
102
RTVSPost2010PropOp33
 70
     1
102
RTVSPost2010Prop34
280
     0
102
RTVSPost2010PropOp34
 70
     1
102
RTVSPost2010Prop35
280
     0
102
RTVSPost2010PropOp35
 70
     1
102
RTVSPost2010Prop36
280
     0
102
RTVSPost2010PropOp36
 70
     1
102
RTVSPost2010Prop37
 90
       50
102
RTVSPost2010PropOp37
 70
     1
102
RTVSPost2010Prop38
140
0.0
102
RTVSPost2010PropOp38
 70
     1
102
RTVSPost2010Prop39
140
1.0
102
RTVSPost2010PropOp39
 70
     1
102
RTVSPost2010Prop40
 90
        0
102
RTVSPost2010PropOp40
 70
     1
102
RTVSPost2010Prop41ColorIndex
 90
       18
102
RTVSPost2010Prop41ColorRGB
 90
        0
102
RTVSPost2010PropOp41
 70
     1
102
RTVSPost2010Prop42
 90
       50
102
RTVSPost2010PropOp42
 70
     1
102
RTVSPost2010Prop43
 90
        3
102
RTVSPost2010PropOp43
 70
     1
102
RTVSPost2010Prop44ColorIndex
 90
        5
102
RTVSPost2010Prop44ColorRGB
 90
      255
102
RTVSPost2010PropOp44
 70
     1
102
RTVSPost2010Prop45
280
     0
102
RTVSPost2010PropOp45
 70
     1
102
RTVSPost2010Prop46
 90
       50
102
RTVSPost2010PropOp46
 70
     1
102
RTVSPost2010Prop47
 90
       50
102
RTVSPost2010PropOp47
 70
     1
102
RTVSPost2010Prop48
 90
       50
102
RTVSPost2010PropOp48
 70
     1
102
RTVSPost2010Prop49
280
     0
102
RTVSPost2010PropOp49
 70
     1
102
RTVSPost2010Prop50
 90
       50
102
RTVSPost2010PropOp50
 70
     1
102
RTVSPost2010Prop51ColorIndex
 90
      256
102
RTVSPost2010Prop51ColorRGB
 90
-16777216
102
RTVSPost2010PropOp51
 70
     0
102
RTVSPost2010Prop52
140
1.0
102
RTVSPost2010PropOp52
 70
     0
102
RTVSPost2010Prop53
 90
        2
102
RTVSPost2010PropOp53
 70
     1
102
RTVSPost2010Prop54
  1
strokes_ogs.tif
102
RTVSPost2010PropOp54
 70
     1
102
RTVSPost2010Prop55
280
     0
102
RTVSPost2010PropOp55
 70
     1
102
RTVSPost2010Prop56
140
1.0
102
RTVSPost2010PropOp56
 70
     1
102
RTVSPost2010Prop57
140
1.0
102
RTVSPost2010PropOp57
 70
     1
102
RTVSPropertyOp0
 70
     1
102
RTVSPropertyOp1
 70
     1
102
RTVSPropertyOp2
 70
     1
102
RTVSPropertyOp3
 70
     1
102
RTVSPropertyOp4
 70
     1
102
RTVSPropertyOp5
 70
     1
102
RTVSPropertyOp6
 70
     1
102
RTVSPropertyOp7
 70
     1
102
RTVSPropertyOp8
 70
     1
102
RTVSPropertyOp9
 70
     1
102
RTVSPropertyOp10
 70
     1
102
RTVSPropertyOp11
 70
     1
102
RTVSPropertyOp12
 70
     1
102
RTVSPropertyOp13
 70
     1
102
RTVSPropertyOp14
 70
     1
102
RTVSPropertyOp15
 70
     1
102
RTVSPropertyOp16
 70
     1
102
RTVSPropertyOp17
 70
     1
102
RTVSPropertyOp18
 70
     1
102
RTVSPropertyOp19
 70
     1
102
RTVSPropertyOp20
 70
     1
102
RTVSPropertyOp21
 70
     1
102
RTVSPropertyOp22
 70
     1
102
RTVSPropertyOp23
 70
     1
102
RTVSPropertyOp24
 70
     1
102
RTVSPropertyOp25
 70
     1
102
RTVSPropertyOp26
 70
     1
102
RTVSPropertyOp27
 70
     1
102
RTVSPropertyOp28
 70
     1
102
RTVSPropertyOp29
 70
     1
102
RTVSPropertyOp30
 70
     1
102
RTVSPropertyOp31
 70
     1
102
RTVSPropertyOp32
 70
     1
102
RTVSPropertyOp33
 70
     1
102
RTVSPropertyOp34
 70
     1
102
RTVSPropertyOp35
 70
     1
102
RTVSPropertyOp36
 70
     1
102
RTVSPropertyOp37
 70
     1
102
RTVSPropertyOp38
 70
     1
102
RTVSPropertyOp39
 70
     1
102
RTVSPropertyOp40
 70
     1
102
RTVSPropertyOp41
 70
     1
102
RTVSPropertyOp42
 70
     1
102
RTVSPropertyOp43
 70
     1
102
RTVSPropertyOp44
 70
     1
102
RTVSPropertyOp45
 70
     1
102
RTVSPropertyOp46
 70
     1
102
RTVSPropertyOp47
 70
     1
102
RTVSPropertyOp48
 70
     1
102
RTVSPropertyOp49
 70
     1
102
RTVSPropertyOp50
 70
     1
102
RTVSPropertyOp51
 70
     0
102
RTVSPropertyOp52
 70
     0
102
RTVSPropertyOp53
 70
     1
102
RTVSPropertyOp54
 70
     1
102
RTVSPropertyOp55
 70
     1
102
RTVSPropertyOp56
 70
     1
102
RTVSPropertyOp57
 70
     1
102
RTVSPropertyOp58
 70
     1
102
RTVSPropertyOp59
 70
     1
102
RTVSPropertyOp60
 70
     1
102
RTVSPropertyOp61
 70
     1
102
RTVSPropertyOp62
 70
     1
  0
XRECORD
  5
5589
102
{ACAD_REACTORS
330
5588
102
}
330
5588
100
AcDbXrecord
280
     1
102
RTVSPost2010Prop28
280
     0
102
RTVSPost2010PropOp28
 70
     1
102
RTVSPost2010Prop29
280
     1
102
RTVSPost2010PropOp29
 70
     1
102
RTVSPost2010Prop30
280
     1
102
RTVSPost2010PropOp30
 70
     1
102
RTVSPost2010Prop31
280
     0
102
RTVSPost2010PropOp31
 70
     1
102
RTVSPost2010Prop32
280
     0
102
RTVSPost2010PropOp32
 70
     1
102
RTVSPost2010Prop33
280
     0
102
RTVSPost2010PropOp33
 70
     1
102
RTVSPost2010Prop34
280
     0
102
RTVSPost2010PropOp34
 70
     1
102
RTVSPost2010Prop35
280
     0
102
RTVSPost2010PropOp35
 70
     1
102
RTVSPost2010Prop36
280
     0
102
RTVSPost2010PropOp36
 70
     1
102
RTVSPost2010Prop37
 90
       50
102
RTVSPost2010PropOp37
 70
     1
102
RTVSPost2010Prop38
140
0.0
102
RTVSPost2010PropOp38
 70
     1
102
RTVSPost2010Prop39
140
1.0
102
RTVSPost2010PropOp39
 70
     1
102
RTVSPost2010Prop40
 90
        0
102
RTVSPost2010PropOp40
 70
     1
102
RTVSPost2010Prop41ColorIndex
 90
       18
102
RTVSPost2010Prop41ColorRGB
 90
        0
102
RTVSPost2010PropOp41
 70
     1
102
RTVSPost2010Prop42
 90
       50
102
RTVSPost2010PropOp42
 70
     1
102
RTVSPost2010Prop43
 90
        3
102
RTVSPost2010PropOp43
 70
     1
102
RTVSPost2010Prop44ColorIndex
 90
        5
102
RTVSPost2010Prop44ColorRGB
 90
      255
102
RTVSPost2010PropOp44
 70
     1
102
RTVSPost2010Prop45
280
     0
102
RTVSPost2010PropOp45
 70
     1
102
RTVSPost2010Prop46
 90
       50
102
RTVSPost2010PropOp46
 70
     1
102
RTVSPost2010Prop47
 90
       50
102
RTVSPost2010PropOp47
 70
     1
102
RTVSPost2010Prop48
 90
       50
102
RTVSPost2010PropOp48
 70
     1
102
RTVSPost2010Prop49
280
     0
102
RTVSPost2010PropOp49
 70
     1
102
RTVSPost2010Prop50
 90
       50
102
RTVSPost2010PropOp50
 70
     1
102
RTVSPost2010Prop51ColorIndex
 90
      256
102
RTVSPost2010Prop51ColorRGB
 90
-16777216
102
RTVSPost2010PropOp51
 70
     0
102
RTVSPost2010Prop52
140
1.0
102
RTVSPost2010PropOp52
 70
     0
102
RTVSPost2010Prop53
 90
        2
102
RTVSPost2010PropOp53
 70
     1
102
RTVSPost2010Prop54
  1
strokes_ogs.tif
102
RTVSPost2010PropOp54
 70
     1
102
RTVSPost2010Prop55
280
     0
102
RTVSPost2010PropOp55
 70
     1
102
RTVSPost2010Prop56
140
1.0
102
RTVSPost2010PropOp56
 70
     1
102
RTVSPost2010Prop57
140
1.0
102
RTVSPost2010PropOp57
 70
     1
102
RTVSPropertyOp0
 70
     1
102
RTVSPropertyOp1
 70
     1
102
RTVSPropertyOp2
 70
     1
102
RTVSPropertyOp3
 70
     1
102
RTVSPropertyOp4
 70
     1
102
RTVSPropertyOp5
 70
     1
102
RTVSPropertyOp6
 70
     1
102
RTVSPropertyOp7
 70
     1
102
RTVSPropertyOp8
 70
     1
102
RTVSPropertyOp9
 70
     1
102
RTVSPropertyOp10
 70
     1
102
RTVSPropertyOp11
 70
     1
102
RTVSPropertyOp12
 70
     1
102
RTVSPropertyOp13
 70
     1
102
RTVSPropertyOp14
 70
     1
102
RTVSPropertyOp15
 70
     1
102
RTVSPropertyOp16
 70
     1
102
RTVSPropertyOp17
 70
     1
102
RTVSPropertyOp18
 70
     1
102
RTVSPropertyOp19
 70
     1
102
RTVSPropertyOp20
 70
     1
102
RTVSPropertyOp21
 70
     1
102
RTVSPropertyOp22
 70
     1
102
RTVSPropertyOp23
 70
     1
102
RTVSPropertyOp24
 70
     1
102
RTVSPropertyOp25
 70
     1
102
RTVSPropertyOp26
 70
     1
102
RTVSPropertyOp27
 70
     1
102
RTVSPropertyOp28
 70
     1
102
RTVSPropertyOp29
 70
     1
102
RTVSPropertyOp30
 70
     1
102
RTVSPropertyOp31
 70
     1
102
RTVSPropertyOp32
 70
     1
102
RTVSPropertyOp33
 70
     1
102
RTVSPropertyOp34
 70
     1
102
RTVSPropertyOp35
 70
     1
102
RTVSPropertyOp36
 70
     1
102
RTVSPropertyOp37
 70
     1
102
RTVSPropertyOp38
 70
     1
102
RTVSPropertyOp39
 70
     1
102
RTVSPropertyOp40
 70
     1
102
RTVSPropertyOp41
 70
     1
102
RTVSPropertyOp42
 70
     1
102
RTVSPropertyOp43
 70
     1
102
RTVSPropertyOp44
 70
     1
102
RTVSPropertyOp45
 70
     1
102
RTVSPropertyOp46
 70
     1
102
RTVSPropertyOp47
 70
     1
102
RTVSPropertyOp48
 70
     1
102
RTVSPropertyOp49
 70
     1
102
RTVSPropertyOp50
 70
     1
102
RTVSPropertyOp51
 70
     0
102
RTVSPropertyOp52
 70
     0
102
RTVSPropertyOp53
 70
     1
102
RTVSPropertyOp54
 70
     1
102
RTVSPropertyOp55
 70
     1
102
RTVSPropertyOp56
 70
     1
102
RTVSPropertyOp57
 70
     1
102
RTVSPropertyOp58
 70
     1
102
RTVSPropertyOp59
 70
     1
102
RTVSPropertyOp60
 70
     1
102
RTVSPropertyOp61
 70
     1
102
RTVSPropertyOp62
 70
     1
  0
XRECORD
  5
558B
102
{ACAD_REACTORS
330
558A
102
}
330
558A
100
AcDbXrecord
280
     1
102
RTVSPost2010Prop28
280
     0
102
RTVSPost2010PropOp28
 70
     1
102
RTVSPost2010Prop29
280
     1
102
RTVSPost2010PropOp29
 70
     1
102
RTVSPost2010Prop30
280
     1
102
RTVSPost2010PropOp30
 70
     1
102
RTVSPost2010Prop31
280
     0
102
RTVSPost2010PropOp31
 70
     1
102
RTVSPost2010Prop32
280
     0
102
RTVSPost2010PropOp32
 70
     1
102
RTVSPost2010Prop33
280
     0
102
RTVSPost2010PropOp33
 70
     1
102
RTVSPost2010Prop34
280
     0
102
RTVSPost2010PropOp34
 70
     1
102
RTVSPost2010Prop35
280
     0
102
RTVSPost2010PropOp35
 70
     1
102
RTVSPost2010Prop36
280
     0
102
RTVSPost2010PropOp36
 70
     1
102
RTVSPost2010Prop37
 90
       50
102
RTVSPost2010PropOp37
 70
     1
102
RTVSPost2010Prop38
140
0.0
102
RTVSPost2010PropOp38
 70
     1
102
RTVSPost2010Prop39
140
1.0
102
RTVSPost2010PropOp39
 70
     1
102
RTVSPost2010Prop40
 90
        0
102
RTVSPost2010PropOp40
 70
     1
102
RTVSPost2010Prop41ColorIndex
 90
       18
102
RTVSPost2010Prop41ColorRGB
 90
        0
102
RTVSPost2010PropOp41
 70
     1
102
RTVSPost2010Prop42
 90
       50
102
RTVSPost2010PropOp42
 70
     1
102
RTVSPost2010Prop43
 90
        3
102
RTVSPost2010PropOp43
 70
     1
102
RTVSPost2010Prop44ColorIndex
 90
        5
102
RTVSPost2010Prop44ColorRGB
 90
      255
102
RTVSPost2010PropOp44
 70
     1
102
RTVSPost2010Prop45
280
     0
102
RTVSPost2010PropOp45
 70
     1
102
RTVSPost2010Prop46
 90
       50
102
RTVSPost2010PropOp46
 70
     1
102
RTVSPost2010Prop47
 90
       50
102
RTVSPost2010PropOp47
 70
     1
102
RTVSPost2010Prop48
 90
       50
102
RTVSPost2010PropOp48
 70
     1
102
RTVSPost2010Prop49
280
     0
102
RTVSPost2010PropOp49
 70
     1
102
RTVSPost2010Prop50
 90
       50
102
RTVSPost2010PropOp50
 70
     1
102
RTVSPost2010Prop51ColorIndex
 90
      256
102
RTVSPost2010Prop51ColorRGB
 90
-16777216
102
RTVSPost2010PropOp51
 70
     0
102
RTVSPost2010Prop52
140
1.0
102
RTVSPost2010PropOp52
 70
     0
102
RTVSPost2010Prop53
 90
        2
102
RTVSPost2010PropOp53
 70
     1
102
RTVSPost2010Prop54
  1
strokes_ogs.tif
102
RTVSPost2010PropOp54
 70
     1
102
RTVSPost2010Prop55
280
     0
102
RTVSPost2010PropOp55
 70
     1
102
RTVSPost2010Prop56
140
1.0
102
RTVSPost2010PropOp56
 70
     1
102
RTVSPost2010Prop57
140
1.0
102
RTVSPost2010PropOp57
 70
     1
102
RTVSPropertyOp0
 70
     1
102
RTVSPropertyOp1
 70
     1
102
RTVSPropertyOp2
 70
     1
102
RTVSPropertyOp3
 70
     1
102
RTVSPropertyOp4
 70
     1
102
RTVSPropertyOp5
 70
     1
102
RTVSPropertyOp6
 70
     1
102
RTVSPropertyOp7
 70
     1
102
RTVSPropertyOp8
 70
     1
102
RTVSPropertyOp9
 70
     1
102
RTVSPropertyOp10
 70
     1
102
RTVSPropertyOp11
 70
     1
102
RTVSPropertyOp12
 70
     1
102
RTVSPropertyOp13
 70
     1
102
RTVSPropertyOp14
 70
     1
102
RTVSPropertyOp15
 70
     1
102
RTVSPropertyOp16
 70
     1
102
RTVSPropertyOp17
 70
     1
102
RTVSPropertyOp18
 70
     1
102
RTVSPropertyOp19
 70
     1
102
RTVSPropertyOp20
 70
     1
102
RTVSPropertyOp21
 70
     1
102
RTVSPropertyOp22
 70
     1
102
RTVSPropertyOp23
 70
     1
102
RTVSPropertyOp24
 70
     1
102
RTVSPropertyOp25
 70
     1
102
RTVSPropertyOp26
 70
     1
102
RTVSPropertyOp27
 70
     1
102
RTVSPropertyOp28
 70
     1
102
RTVSPropertyOp29
 70
     1
102
RTVSPropertyOp30
 70
     1
102
RTVSPropertyOp31
 70
     1
102
RTVSPropertyOp32
 70
     1
102
RTVSPropertyOp33
 70
     1
102
RTVSPropertyOp34
 70
     1
102
RTVSPropertyOp35
 70
     1
102
RTVSPropertyOp36
 70
     1
102
RTVSPropertyOp37
 70
     1
102
RTVSPropertyOp38
 70
     1
102
RTVSPropertyOp39
 70
     1
102
RTVSPropertyOp40
 70
     1
102
RTVSPropertyOp41
 70
     1
102
RTVSPropertyOp42
 70
     1
102
RTVSPropertyOp43
 70
     1
102
RTVSPropertyOp44
 70
     1
102
RTVSPropertyOp45
 70
     1
102
RTVSPropertyOp46
 70
     1
102
RTVSPropertyOp47
 70
     1
102
RTVSPropertyOp48
 70
     1
102
RTVSPropertyOp49
 70
     1
102
RTVSPropertyOp50
 70
     1
102
RTVSPropertyOp51
 70
     0
102
RTVSPropertyOp52
 70
     0
102
RTVSPropertyOp53
 70
     1
102
RTVSPropertyOp54
 70
     1
102
RTVSPropertyOp55
 70
     1
102
RTVSPropertyOp56
 70
     1
102
RTVSPropertyOp57
 70
     1
102
RTVSPropertyOp58
 70
     1
102
RTVSPropertyOp59
 70
     1
102
RTVSPropertyOp60
 70
     1
102
RTVSPropertyOp61
 70
     1
102
RTVSPropertyOp62
 70
     1
  0
XRECORD
  5
558D
102
{ACAD_REACTORS
330
558C
102
}
330
558C
100
AcDbXrecord
280
     1
102
RTVSPost2010Prop28
280
     0
102
RTVSPost2010PropOp28
 70
     1
102
RTVSPost2010Prop29
280
     1
102
RTVSPost2010PropOp29
 70
     1
102
RTVSPost2010Prop30
280
     1
102
RTVSPost2010PropOp30
 70
     1
102
RTVSPost2010Prop31
280
     0
102
RTVSPost2010PropOp31
 70
     1
102
RTVSPost2010Prop32
280
     0
102
RTVSPost2010PropOp32
 70
     1
102
RTVSPost2010Prop33
280
     0
102
RTVSPost2010PropOp33
 70
     1
102
RTVSPost2010Prop34
280
     0
102
RTVSPost2010PropOp34
 70
     1
102
RTVSPost2010Prop35
280
     0
102
RTVSPost2010PropOp35
 70
     1
102
RTVSPost2010Prop36
280
     0
102
RTVSPost2010PropOp36
 70
     1
102
RTVSPost2010Prop37
 90
       50
102
RTVSPost2010PropOp37
 70
     1
102
RTVSPost2010Prop38
140
0.0
102
RTVSPost2010PropOp38
 70
     1
102
RTVSPost2010Prop39
140
1.0
102
RTVSPost2010PropOp39
 70
     1
102
RTVSPost2010Prop40
 90
        0
102
RTVSPost2010PropOp40
 70
     1
102
RTVSPost2010Prop41ColorIndex
 90
       18
102
RTVSPost2010Prop41ColorRGB
 90
        0
102
RTVSPost2010PropOp41
 70
     1
102
RTVSPost2010Prop42
 90
       50
102
RTVSPost2010PropOp42
 70
     1
102
RTVSPost2010Prop43
 90
        3
102
RTVSPost2010PropOp43
 70
     1
102
RTVSPost2010Prop44ColorIndex
 90
        5
102
RTVSPost2010Prop44ColorRGB
 90
      255
102
RTVSPost2010PropOp44
 70
     1
102
RTVSPost2010Prop45
280
     0
102
RTVSPost2010PropOp45
 70
     1
102
RTVSPost2010Prop46
 90
       50
102
RTVSPost2010PropOp46
 70
     1
102
RTVSPost2010Prop47
 90
       50
102
RTVSPost2010PropOp47
 70
     1
102
RTVSPost2010Prop48
 90
       50
102
RTVSPost2010PropOp48
 70
     1
102
RTVSPost2010Prop49
280
     0
102
RTVSPost2010PropOp49
 70
     1
102
RTVSPost2010Prop50
 90
       50
102
RTVSPost2010PropOp50
 70
     1
102
RTVSPost2010Prop51ColorIndex
 90
      256
102
RTVSPost2010Prop51ColorRGB
 90
-16777216
102
RTVSPost2010PropOp51
 70
     0
102
RTVSPost2010Prop52
140
1.0
102
RTVSPost2010PropOp52
 70
     0
102
RTVSPost2010Prop53
 90
        2
102
RTVSPost2010PropOp53
 70
     1
102
RTVSPost2010Prop54
  1
strokes_ogs.tif
102
RTVSPost2010PropOp54
 70
     1
102
RTVSPost2010Prop55
280
     0
102
RTVSPost2010PropOp55
 70
     1
102
RTVSPost2010Prop56
140
1.0
102
RTVSPost2010PropOp56
 70
     1
102
RTVSPost2010Prop57
140
1.0
102
RTVSPost2010PropOp57
 70
     1
102
RTVSPropertyOp0
 70
     1
102
RTVSPropertyOp1
 70
     1
102
RTVSPropertyOp2
 70
     1
102
RTVSPropertyOp3
 70
     1
102
RTVSPropertyOp4
 70
     1
102
RTVSPropertyOp5
 70
     1
102
RTVSPropertyOp6
 70
     1
102
RTVSPropertyOp7
 70
     1
102
RTVSPropertyOp8
 70
     1
102
RTVSPropertyOp9
 70
     1
102
RTVSPropertyOp10
 70
     1
102
RTVSPropertyOp11
 70
     1
102
RTVSPropertyOp12
 70
     1
102
RTVSPropertyOp13
 70
     1
102
RTVSPropertyOp14
 70
     1
102
RTVSPropertyOp15
 70
     1
102
RTVSPropertyOp16
 70
     1
102
RTVSPropertyOp17
 70
     1
102
RTVSPropertyOp18
 70
     1
102
RTVSPropertyOp19
 70
     1
102
RTVSPropertyOp20
 70
     1
102
RTVSPropertyOp21
 70
     1
102
RTVSPropertyOp22
 70
     1
102
RTVSPropertyOp23
 70
     1
102
RTVSPropertyOp24
 70
     1
102
RTVSPropertyOp25
 70
     1
102
RTVSPropertyOp26
 70
     1
102
RTVSPropertyOp27
 70
     1
102
RTVSPropertyOp28
 70
     1
102
RTVSPropertyOp29
 70
     1
102
RTVSPropertyOp30
 70
     1
102
RTVSPropertyOp31
 70
     1
102
RTVSPropertyOp32
 70
     1
102
RTVSPropertyOp33
 70
     1
102
RTVSPropertyOp34
 70
     1
102
RTVSPropertyOp35
 70
     1
102
RTVSPropertyOp36
 70
     1
102
RTVSPropertyOp37
 70
     1
102
RTVSPropertyOp38
 70
     1
102
RTVSPropertyOp39
 70
     1
102
RTVSPropertyOp40
 70
     1
102
RTVSPropertyOp41
 70
     1
102
RTVSPropertyOp42
 70
     1
102
RTVSPropertyOp43
 70
     1
102
RTVSPropertyOp44
 70
     1
102
RTVSPropertyOp45
 70
     1
102
RTVSPropertyOp46
 70
     1
102
RTVSPropertyOp47
 70
     1
102
RTVSPropertyOp48
 70
     1
102
RTVSPropertyOp49
 70
     1
102
RTVSPropertyOp50
 70
     1
102
RTVSPropertyOp51
 70
     0
102
RTVSPropertyOp52
 70
     0
102
RTVSPropertyOp53
 70
     1
102
RTVSPropertyOp54
 70
     1
102
RTVSPropertyOp55
 70
     1
102
RTVSPropertyOp56
 70
     1
102
RTVSPropertyOp57
 70
     1
102
RTVSPropertyOp58
 70
     1
102
RTVSPropertyOp59
 70
     1
102
RTVSPropertyOp60
 70
     1
102
RTVSPropertyOp61
 70
     1
102
RTVSPropertyOp62
 70
     1
  0
XRECORD
  5
5595
102
{ACAD_REACTORS
330
5594
102
}
330
5594
100
AcDbXrecord
280
     1
102
RTVSPost2010Prop28
280
     0
102
RTVSPost2010PropOp28
 70
     1
102
RTVSPost2010Prop29
280
     1
102
RTVSPost2010PropOp29
 70
     1
102
RTVSPost2010Prop30
280
     1
102
RTVSPost2010PropOp30
 70
     1
102
RTVSPost2010Prop31
280
     0
102
RTVSPost2010PropOp31
 70
     1
102
RTVSPost2010Prop32
280
     0
102
RTVSPost2010PropOp32
 70
     1
102
RTVSPost2010Prop33
280
     0
102
RTVSPost2010PropOp33
 70
     1
102
RTVSPost2010Prop34
280
     0
102
RTVSPost2010PropOp34
 70
     1
102
RTVSPost2010Prop35
280
     0
102
RTVSPost2010PropOp35
 70
     1
102
RTVSPost2010Prop36
280
     0
102
RTVSPost2010PropOp36
 70
     1
102
RTVSPost2010Prop37
 90
       50
102
RTVSPost2010PropOp37
 70
     1
102
RTVSPost2010Prop38
140
0.0
102
RTVSPost2010PropOp38
 70
     1
102
RTVSPost2010Prop39
140
1.0
102
RTVSPost2010PropOp39
 70
     1
102
RTVSPost2010Prop40
 90
        0
102
RTVSPost2010PropOp40
 70
     1
102
RTVSPost2010Prop41ColorIndex
 90
       18
102
RTVSPost2010Prop41ColorRGB
 90
        0
102
RTVSPost2010PropOp41
 70
     1
102
RTVSPost2010Prop42
 90
       50
102
RTVSPost2010PropOp42
 70
     1
102
RTVSPost2010Prop43
 90
        3
102
RTVSPost2010PropOp43
 70
     1
102
RTVSPost2010Prop44ColorIndex
 90
        5
102
RTVSPost2010Prop44ColorRGB
 90
      255
102
RTVSPost2010PropOp44
 70
     1
102
RTVSPost2010Prop45
280
     0
102
RTVSPost2010PropOp45
 70
     1
102
RTVSPost2010Prop46
 90
       50
102
RTVSPost2010PropOp46
 70
     1
102
RTVSPost2010Prop47
 90
       50
102
RTVSPost2010PropOp47
 70
     1
102
RTVSPost2010Prop48
 90
       50
102
RTVSPost2010PropOp48
 70
     1
102
RTVSPost2010Prop49
280
     0
102
RTVSPost2010PropOp49
 70
     1
102
RTVSPost2010Prop50
 90
       50
102
RTVSPost2010PropOp50
 70
     1
102
RTVSPost2010Prop51ColorIndex
 90
      256
102
RTVSPost2010Prop51ColorRGB
 90
-16777216
102
RTVSPost2010PropOp51
 70
     0
102
RTVSPost2010Prop52
140
1.0
102
RTVSPost2010PropOp52
 70
     0
102
RTVSPost2010Prop53
 90
        2
102
RTVSPost2010PropOp53
 70
     1
102
RTVSPost2010Prop54
  1
strokes_ogs.tif
102
RTVSPost2010PropOp54
 70
     1
102
RTVSPost2010Prop55
280
     0
102
RTVSPost2010PropOp55
 70
     1
102
RTVSPost2010Prop56
140
1.0
102
RTVSPost2010PropOp56
 70
     1
102
RTVSPost2010Prop57
140
1.0
102
RTVSPost2010PropOp57
 70
     1
102
RTVSPropertyOp0
 70
     1
102
RTVSPropertyOp1
 70
     1
102
RTVSPropertyOp2
 70
     1
102
RTVSPropertyOp3
 70
     1
102
RTVSPropertyOp4
 70
     1
102
RTVSPropertyOp5
 70
     1
102
RTVSPropertyOp6
 70
     1
102
RTVSPropertyOp7
 70
     1
102
RTVSPropertyOp8
 70
     1
102
RTVSPropertyOp9
 70
     1
102
RTVSPropertyOp10
 70
     1
102
RTVSPropertyOp11
 70
     1
102
RTVSPropertyOp12
 70
     1
102
RTVSPropertyOp13
 70
     1
102
RTVSPropertyOp14
 70
     1
102
RTVSPropertyOp15
 70
     1
102
RTVSPropertyOp16
 70
     1
102
RTVSPropertyOp17
 70
     1
102
RTVSPropertyOp18
 70
     1
102
RTVSPropertyOp19
 70
     1
102
RTVSPropertyOp20
 70
     1
102
RTVSPropertyOp21
 70
     1
102
RTVSPropertyOp22
 70
     1
102
RTVSPropertyOp23
 70
     1
102
RTVSPropertyOp24
 70
     1
102
RTVSPropertyOp25
 70
     1
102
RTVSPropertyOp26
 70
     1
102
RTVSPropertyOp27
 70
     1
102
RTVSPropertyOp28
 70
     1
102
RTVSPropertyOp29
 70
     1
102
RTVSPropertyOp30
 70
     1
102
RTVSPropertyOp31
 70
     1
102
RTVSPropertyOp32
 70
     1
102
RTVSPropertyOp33
 70
     1
102
RTVSPropertyOp34
 70
     1
102
RTVSPropertyOp35
 70
     1
102
RTVSPropertyOp36
 70
     1
102
RTVSPropertyOp37
 70
     1
102
RTVSPropertyOp38
 70
     1
102
RTVSPropertyOp39
 70
     1
102
RTVSPropertyOp40
 70
     1
102
RTVSPropertyOp41
 70
     1
102
RTVSPropertyOp42
 70
     1
102
RTVSPropertyOp43
 70
     1
102
RTVSPropertyOp44
 70
     1
102
RTVSPropertyOp45
 70
     1
102
RTVSPropertyOp46
 70
     1
102
RTVSPropertyOp47
 70
     1
102
RTVSPropertyOp48
 70
     1
102
RTVSPropertyOp49
 70
     1
102
RTVSPropertyOp50
 70
     1
102
RTVSPropertyOp51
 70
     0
102
RTVSPropertyOp52
 70
     0
102
RTVSPropertyOp53
 70
     1
102
RTVSPropertyOp54
 70
     1
102
RTVSPropertyOp55
 70
     1
102
RTVSPropertyOp56
 70
     1
102
RTVSPropertyOp57
 70
     1
102
RTVSPropertyOp58
 70
     1
102
RTVSPropertyOp59
 70
     1
102
RTVSPropertyOp60
 70
     1
102
RTVSPropertyOp61
 70
     1
102
RTVSPropertyOp62
 70
     1
  0
XRECORD
  5
55B1
102
{ACAD_REACTORS
330
55B0
102
}
330
55B0
100
AcDbXrecord
280
     1
102
RTVSPost2010Prop28
280
     0
102
RTVSPost2010PropOp28
 70
     1
102
RTVSPost2010Prop29
280
     1
102
RTVSPost2010PropOp29
 70
     1
102
RTVSPost2010Prop30
280
     1
102
RTVSPost2010PropOp30
 70
     1
102
RTVSPost2010Prop31
280
     0
102
RTVSPost2010PropOp31
 70
     1
102
RTVSPost2010Prop32
280
     0
102
RTVSPost2010PropOp32
 70
     1
102
RTVSPost2010Prop33
280
     0
102
RTVSPost2010PropOp33
 70
     1
102
RTVSPost2010Prop34
280
     0
102
RTVSPost2010PropOp34
 70
     1
102
RTVSPost2010Prop35
280
     0
102
RTVSPost2010PropOp35
 70
     1
102
RTVSPost2010Prop36
280
     0
102
RTVSPost2010PropOp36
 70
     1
102
RTVSPost2010Prop37
 90
       50
102
RTVSPost2010PropOp37
 70
     0
102
RTVSPost2010Prop38
140
0.0
102
RTVSPost2010PropOp38
 70
     0
102
RTVSPost2010Prop39
140
1.0
102
RTVSPost2010PropOp39
 70
     0
102
RTVSPost2010Prop40
 90
        0
102
RTVSPost2010PropOp40
 70
     0
102
RTVSPost2010Prop41ColorIndex
 90
       18
102
RTVSPost2010Prop41ColorRGB
 90
        0
102
RTVSPost2010PropOp41
 70
     0
102
RTVSPost2010Prop42
 90
       50
102
RTVSPost2010PropOp42
 70
     0
102
RTVSPost2010Prop43
 90
        3
102
RTVSPost2010PropOp43
 70
     0
102
RTVSPost2010Prop44ColorIndex
 90
        5
102
RTVSPost2010Prop44ColorRGB
 90
      255
102
RTVSPost2010PropOp44
 70
     0
102
RTVSPost2010Prop45
280
     0
102
RTVSPost2010PropOp45
 70
     1
102
RTVSPost2010Prop46
 90
       50
102
RTVSPost2010PropOp46
 70
     0
102
RTVSPost2010Prop47
 90
       50
102
RTVSPost2010PropOp47
 70
     0
102
RTVSPost2010Prop48
 90
       50
102
RTVSPost2010PropOp48
 70
     0
102
RTVSPost2010Prop49
280
     0
102
RTVSPost2010PropOp49
 70
     1
102
RTVSPost2010Prop50
 90
       50
102
RTVSPost2010PropOp50
 70
     0
102
RTVSPost2010Prop51ColorIndex
 90
      256
102
RTVSPost2010Prop51ColorRGB
 90
-16777216
102
RTVSPost2010PropOp51
 70
     0
102
RTVSPost2010Prop52
140
1.0
102
RTVSPost2010PropOp52
 70
     0
102
RTVSPost2010Prop53
 90
        2
102
RTVSPost2010PropOp53
 70
     0
102
RTVSPost2010Prop54
  1
strokes_ogs.tif
102
RTVSPost2010PropOp54
 70
     0
102
RTVSPost2010Prop55
280
     0
102
RTVSPost2010PropOp55
 70
     1
102
RTVSPost2010Prop56
140
1.0
102
RTVSPost2010PropOp56
 70
     0
102
RTVSPost2010Prop57
140
1.0
102
RTVSPost2010PropOp57
 70
     0
102
RTVSPropertyOp0
 70
     0
102
RTVSPropertyOp1
 70
     0
102
RTVSPropertyOp2
 70
     0
102
RTVSPropertyOp3
 70
     0
102
RTVSPropertyOp4
 70
     0
102
RTVSPropertyOp5
 70
     0
102
RTVSPropertyOp6
 70
     0
102
RTVSPropertyOp7
 70
     0
102
RTVSPropertyOp8
 70
     0
102
RTVSPropertyOp9
 70
     0
102
RTVSPropertyOp10
 70
     0
102
RTVSPropertyOp11
 70
     0
102
RTVSPropertyOp12
 70
     0
102
RTVSPropertyOp13
 70
     0
102
RTVSPropertyOp14
 70
     2
102
RTVSPropertyOp15
 70
     0
102
RTVSPropertyOp16
 70
     0
102
RTVSPropertyOp17
 70
     0
102
RTVSPropertyOp18
 70
     0
102
RTVSPropertyOp19
 70
     0
102
RTVSPropertyOp20
 70
     0
102
RTVSPropertyOp21
 70
     0
102
RTVSPropertyOp22
 70
     0
102
RTVSPropertyOp23
 70
     0
102
RTVSPropertyOp24
 70
     0
102
RTVSPropertyOp25
 70
     0
102
RTVSPropertyOp26
 70
     0
102
RTVSPropertyOp27
 70
     0
102
RTVSPropertyOp28
 70
     1
102
RTVSPropertyOp29
 70
     1
102
RTVSPropertyOp30
 70
     1
102
RTVSPropertyOp31
 70
     1
102
RTVSPropertyOp32
 70
     1
102
RTVSPropertyOp33
 70
     1
102
RTVSPropertyOp34
 70
     1
102
RTVSPropertyOp35
 70
     1
102
RTVSPropertyOp36
 70
     1
102
RTVSPropertyOp37
 70
     0
102
RTVSPropertyOp38
 70
     0
102
RTVSPropertyOp39
 70
     0
102
RTVSPropertyOp40
 70
     0
102
RTVSPropertyOp41
 70
     0
102
RTVSPropertyOp42
 70
     0
102
RTVSPropertyOp43
 70
     0
102
RTVSPropertyOp44
 70
     0
102
RTVSPropertyOp45
 70
     1
102
RTVSPropertyOp46
 70
     0
102
RTVSPropertyOp47
 70
     0
102
RTVSPropertyOp48
 70
     0
102
RTVSPropertyOp49
 70
     1
102
RTVSPropertyOp50
 70
     0
102
RTVSPropertyOp51
 70
     0
102
RTVSPropertyOp52
 70
     0
102
RTVSPropertyOp53
 70
     0
102
RTVSPropertyOp54
 70
     0
102
RTVSPropertyOp55
 70
     1
102
RTVSPropertyOp56
 70
     0
102
RTVSPropertyOp57
 70
     0
102
RTVSPropertyOp58
 70
     0
102
RTVSPropertyOp59
 70
     0
102
RTVSPropertyOp60
 70
     0
102
RTVSPropertyOp61
 70
     0
102
RTVSPropertyOp62
 70
     0
  0
XRECORD
  5
55A1
102
{ACAD_REACTORS
330
55A0
102
}
330
55A0
100
AcDbXrecord
280
     1
102
RTVSPost2010Prop28
280
     0
102
RTVSPost2010PropOp28
 70
     1
102
RTVSPost2010Prop29
280
     1
102
RTVSPost2010PropOp29
 70
     1
102
RTVSPost2010Prop30
280
     1
102
RTVSPost2010PropOp30
 70
     1
102
RTVSPost2010Prop31
280
     0
102
RTVSPost2010PropOp31
 70
     1
102
RTVSPost2010Prop32
280
     0
102
RTVSPost2010PropOp32
 70
     1
102
RTVSPost2010Prop33
280
     0
102
RTVSPost2010PropOp33
 70
     1
102
RTVSPost2010Prop34
280
     0
102
RTVSPost2010PropOp34
 70
     1
102
RTVSPost2010Prop35
280
     0
102
RTVSPost2010PropOp35
 70
     1
102
RTVSPost2010Prop36
280
     0
102
RTVSPost2010PropOp36
 70
     1
102
RTVSPost2010Prop37
 90
       50
102
RTVSPost2010PropOp37
 70
     1
102
RTVSPost2010Prop38
140
0.0
102
RTVSPost2010PropOp38
 70
     1
102
RTVSPost2010Prop39
140
1.0
102
RTVSPost2010PropOp39
 70
     1
102
RTVSPost2010Prop40
 90
        0
102
RTVSPost2010PropOp40
 70
     1
102
RTVSPost2010Prop41ColorIndex
 90
       18
102
RTVSPost2010Prop41ColorRGB
 90
        0
102
RTVSPost2010PropOp41
 70
     1
102
RTVSPost2010Prop42
 90
       50
102
RTVSPost2010PropOp42
 70
     1
102
RTVSPost2010Prop43
 90
        3
102
RTVSPost2010PropOp43
 70
     1
102
RTVSPost2010Prop44ColorIndex
 90
        5
102
RTVSPost2010Prop44ColorRGB
 90
      255
102
RTVSPost2010PropOp44
 70
     1
102
RTVSPost2010Prop45
280
     0
102
RTVSPost2010PropOp45
 70
     1
102
RTVSPost2010Prop46
 90
       50
102
RTVSPost2010PropOp46
 70
     1
102
RTVSPost2010Prop47
 90
       50
102
RTVSPost2010PropOp47
 70
     1
102
RTVSPost2010Prop48
 90
       50
102
RTVSPost2010PropOp48
 70
     1
102
RTVSPost2010Prop49
280
     0
102
RTVSPost2010PropOp49
 70
     1
102
RTVSPost2010Prop50
 90
       50
102
RTVSPost2010PropOp50
 70
     1
102
RTVSPost2010Prop51ColorIndex
 90
      256
102
RTVSPost2010Prop51ColorRGB
 90
-16777216
102
RTVSPost2010PropOp51
 70
     0
102
RTVSPost2010Prop52
140
1.0
102
RTVSPost2010PropOp52
 70
     0
102
RTVSPost2010Prop53
 90
        2
102
RTVSPost2010PropOp53
 70
     1
102
RTVSPost2010Prop54
  1
strokes_ogs.tif
102
RTVSPost2010PropOp54
 70
     1
102
RTVSPost2010Prop55
280
     0
102
RTVSPost2010PropOp55
 70
     1
102
RTVSPost2010Prop56
140
1.0
102
RTVSPost2010PropOp56
 70
     1
102
RTVSPost2010Prop57
140
1.0
102
RTVSPost2010PropOp57
 70
     1
102
RTVSPropertyOp0
 70
     1
102
RTVSPropertyOp1
 70
     1
102
RTVSPropertyOp2
 70
     1
102
RTVSPropertyOp3
 70
     1
102
RTVSPropertyOp4
 70
     1
102
RTVSPropertyOp5
 70
     1
102
RTVSPropertyOp6
 70
     1
102
RTVSPropertyOp7
 70
     1
102
RTVSPropertyOp8
 70
     1
102
RTVSPropertyOp9
 70
     1
102
RTVSPropertyOp10
 70
     1
102
RTVSPropertyOp11
 70
     1
102
RTVSPropertyOp12
 70
     1
102
RTVSPropertyOp13
 70
     1
102
RTVSPropertyOp14
 70
     1
102
RTVSPropertyOp15
 70
     1
102
RTVSPropertyOp16
 70
     1
102
RTVSPropertyOp17
 70
     1
102
RTVSPropertyOp18
 70
     1
102
RTVSPropertyOp19
 70
     1
102
RTVSPropertyOp20
 70
     1
102
RTVSPropertyOp21
 70
     1
102
RTVSPropertyOp22
 70
     1
102
RTVSPropertyOp23
 70
     1
102
RTVSPropertyOp24
 70
     1
102
RTVSPropertyOp25
 70
     1
102
RTVSPropertyOp26
 70
     1
102
RTVSPropertyOp27
 70
     1
102
RTVSPropertyOp28
 70
     1
102
RTVSPropertyOp29
 70
     1
102
RTVSPropertyOp30
 70
     1
102
RTVSPropertyOp31
 70
     1
102
RTVSPropertyOp32
 70
     1
102
RTVSPropertyOp33
 70
     1
102
RTVSPropertyOp34
 70
     1
102
RTVSPropertyOp35
 70
     1
102
RTVSPropertyOp36
 70
     1
102
RTVSPropertyOp37
 70
     1
102
RTVSPropertyOp38
 70
     1
102
RTVSPropertyOp39
 70
     1
102
RTVSPropertyOp40
 70
     1
102
RTVSPropertyOp41
 70
     1
102
RTVSPropertyOp42
 70
     1
102
RTVSPropertyOp43
 70
     1
102
RTVSPropertyOp44
 70
     1
102
RTVSPropertyOp45
 70
     1
102
RTVSPropertyOp46
 70
     1
102
RTVSPropertyOp47
 70
     1
102
RTVSPropertyOp48
 70
     1
102
RTVSPropertyOp49
 70
     1
102
RTVSPropertyOp50
 70
     1
102
RTVSPropertyOp51
 70
     0
102
RTVSPropertyOp52
 70
     0
102
RTVSPropertyOp53
 70
     1
102
RTVSPropertyOp54
 70
     1
102
RTVSPropertyOp55
 70
     1
102
RTVSPropertyOp56
 70
     1
102
RTVSPropertyOp57
 70
     1
102
RTVSPropertyOp58
 70
     1
102
RTVSPropertyOp59
 70
     1
102
RTVSPropertyOp60
 70
     1
102
RTVSPropertyOp61
 70
     1
102
RTVSPropertyOp62
 70
     1
  0
XRECORD
  5
55B3
102
{ACAD_REACTORS
330
55B2
102
}
330
55B2
100
AcDbXrecord
280
     1
102
RTVSPost2010Prop28
280
     0
102
RTVSPost2010PropOp28
 70
     1
102
RTVSPost2010Prop29
280
     1
102
RTVSPost2010PropOp29
 70
     1
102
RTVSPost2010Prop30
280
     1
102
RTVSPost2010PropOp30
 70
     1
102
RTVSPost2010Prop31
280
     0
102
RTVSPost2010PropOp31
 70
     1
102
RTVSPost2010Prop32
280
     0
102
RTVSPost2010PropOp32
 70
     1
102
RTVSPost2010Prop33
280
     0
102
RTVSPost2010PropOp33
 70
     1
102
RTVSPost2010Prop34
280
     0
102
RTVSPost2010PropOp34
 70
     1
102
RTVSPost2010Prop35
280
     0
102
RTVSPost2010PropOp35
 70
     1
102
RTVSPost2010Prop36
280
     0
102
RTVSPost2010PropOp36
 70
     1
102
RTVSPost2010Prop37
 90
       50
102
RTVSPost2010PropOp37
 70
     0
102
RTVSPost2010Prop38
140
0.0
102
RTVSPost2010PropOp38
 70
     0
102
RTVSPost2010Prop39
140
1.0
102
RTVSPost2010PropOp39
 70
     0
102
RTVSPost2010Prop40
 90
        0
102
RTVSPost2010PropOp40
 70
     0
102
RTVSPost2010Prop41ColorIndex
 90
       18
102
RTVSPost2010Prop41ColorRGB
 90
        0
102
RTVSPost2010PropOp41
 70
     0
102
RTVSPost2010Prop42
 90
       50
102
RTVSPost2010PropOp42
 70
     0
102
RTVSPost2010Prop43
 90
        3
102
RTVSPost2010PropOp43
 70
     0
102
RTVSPost2010Prop44ColorIndex
 90
        5
102
RTVSPost2010Prop44ColorRGB
 90
      255
102
RTVSPost2010PropOp44
 70
     0
102
RTVSPost2010Prop45
280
     0
102
RTVSPost2010PropOp45
 70
     1
102
RTVSPost2010Prop46
 90
       50
102
RTVSPost2010PropOp46
 70
     0
102
RTVSPost2010Prop47
 90
       50
102
RTVSPost2010PropOp47
 70
     0
102
RTVSPost2010Prop48
 90
       50
102
RTVSPost2010PropOp48
 70
     0
102
RTVSPost2010Prop49
280
     0
102
RTVSPost2010PropOp49
 70
     1
102
RTVSPost2010Prop50
 90
       50
102
RTVSPost2010PropOp50
 70
     0
102
RTVSPost2010Prop51ColorIndex
 90
      256
102
RTVSPost2010Prop51ColorRGB
 90
-16777216
102
RTVSPost2010PropOp51
 70
     0
102
RTVSPost2010Prop52
140
1.0
102
RTVSPost2010PropOp52
 70
     0
102
RTVSPost2010Prop53
 90
        2
102
RTVSPost2010PropOp53
 70
     0
102
RTVSPost2010Prop54
  1
strokes_ogs.tif
102
RTVSPost2010PropOp54
 70
     0
102
RTVSPost2010Prop55
280
     0
102
RTVSPost2010PropOp55
 70
     1
102
RTVSPost2010Prop56
140
1.0
102
RTVSPost2010PropOp56
 70
     0
102
RTVSPost2010Prop57
140
1.0
102
RTVSPost2010PropOp57
 70
     0
102
RTVSPropertyOp0
 70
     0
102
RTVSPropertyOp1
 70
     0
102
RTVSPropertyOp2
 70
     0
102
RTVSPropertyOp3
 70
     0
102
RTVSPropertyOp4
 70
     0
102
RTVSPropertyOp5
 70
     0
102
RTVSPropertyOp6
 70
     0
102
RTVSPropertyOp7
 70
     0
102
RTVSPropertyOp8
 70
     0
102
RTVSPropertyOp9
 70
     0
102
RTVSPropertyOp10
 70
     0
102
RTVSPropertyOp11
 70
     0
102
RTVSPropertyOp12
 70
     0
102
RTVSPropertyOp13
 70
     0
102
RTVSPropertyOp14
 70
     2
102
RTVSPropertyOp15
 70
     0
102
RTVSPropertyOp16
 70
     0
102
RTVSPropertyOp17
 70
     0
102
RTVSPropertyOp18
 70
     0
102
RTVSPropertyOp19
 70
     0
102
RTVSPropertyOp20
 70
     0
102
RTVSPropertyOp21
 70
     0
102
RTVSPropertyOp22
 70
     0
102
RTVSPropertyOp23
 70
     0
102
RTVSPropertyOp24
 70
     0
102
RTVSPropertyOp25
 70
     0
102
RTVSPropertyOp26
 70
     0
102
RTVSPropertyOp27
 70
     0
102
RTVSPropertyOp28
 70
     1
102
RTVSPropertyOp29
 70
     1
102
RTVSPropertyOp30
 70
     1
102
RTVSPropertyOp31
 70
     1
102
RTVSPropertyOp32
 70
     1
102
RTVSPropertyOp33
 70
     1
102
RTVSPropertyOp34
 70
     1
102
RTVSPropertyOp35
 70
     1
102
RTVSPropertyOp36
 70
     1
102
RTVSPropertyOp37
 70
     0
102
RTVSPropertyOp38
 70
     0
102
RTVSPropertyOp39
 70
     0
102
RTVSPropertyOp40
 70
     0
102
RTVSPropertyOp41
 70
     0
102
RTVSPropertyOp42
 70
     0
102
RTVSPropertyOp43
 70
     0
102
RTVSPropertyOp44
 70
     0
102
RTVSPropertyOp45
 70
     1
102
RTVSPropertyOp46
 70
     0
102
RTVSPropertyOp47
 70
     0
102
RTVSPropertyOp48
 70
     0
102
RTVSPropertyOp49
 70
     1
102
RTVSPropertyOp50
 70
     0
102
RTVSPropertyOp51
 70
     0
102
RTVSPropertyOp52
 70
     0
102
RTVSPropertyOp53
 70
     0
102
RTVSPropertyOp54
 70
     0
102
RTVSPropertyOp55
 70
     1
102
RTVSPropertyOp56
 70
     0
102
RTVSPropertyOp57
 70
     0
102
RTVSPropertyOp58
 70
     0
102
RTVSPropertyOp59
 70
     0
102
RTVSPropertyOp60
 70
     0
102
RTVSPropertyOp61
 70
     0
102
RTVSPropertyOp62
 70
     0
  0
XRECORD
  5
5599
102
{ACAD_REACTORS
330
5598
102
}
330
5598
100
AcDbXrecord
280
     1
102
RTVSPost2010Prop28
280
     0
102
RTVSPost2010PropOp28
 70
     1
102
RTVSPost2010Prop29
280
     1
102
RTVSPost2010PropOp29
 70
     1
102
RTVSPost2010Prop30
280
     1
102
RTVSPost2010PropOp30
 70
     1
102
RTVSPost2010Prop31
280
     0
102
RTVSPost2010PropOp31
 70
     1
102
RTVSPost2010Prop32
280
     0
102
RTVSPost2010PropOp32
 70
     1
102
RTVSPost2010Prop33
280
     0
102
RTVSPost2010PropOp33
 70
     1
102
RTVSPost2010Prop34
280
     0
102
RTVSPost2010PropOp34
 70
     1
102
RTVSPost2010Prop35
280
     0
102
RTVSPost2010PropOp35
 70
     1
102
RTVSPost2010Prop36
280
     0
102
RTVSPost2010PropOp36
 70
     1
102
RTVSPost2010Prop37
 90
       50
102
RTVSPost2010PropOp37
 70
     1
102
RTVSPost2010Prop38
140
0.0
102
RTVSPost2010PropOp38
 70
     1
102
RTVSPost2010Prop39
140
1.0
102
RTVSPost2010PropOp39
 70
     1
102
RTVSPost2010Prop40
 90
        0
102
RTVSPost2010PropOp40
 70
     1
102
RTVSPost2010Prop41ColorIndex
 90
       18
102
RTVSPost2010Prop41ColorRGB
 90
        0
102
RTVSPost2010PropOp41
 70
     1
102
RTVSPost2010Prop42
 90
       50
102
RTVSPost2010PropOp42
 70
     1
102
RTVSPost2010Prop43
 90
        3
102
RTVSPost2010PropOp43
 70
     1
102
RTVSPost2010Prop44ColorIndex
 90
        5
102
RTVSPost2010Prop44ColorRGB
 90
      255
102
RTVSPost2010PropOp44
 70
     1
102
RTVSPost2010Prop45
280
     0
102
RTVSPost2010PropOp45
 70
     1
102
RTVSPost2010Prop46
 90
       50
102
RTVSPost2010PropOp46
 70
     1
102
RTVSPost2010Prop47
 90
       50
102
RTVSPost2010PropOp47
 70
     1
102
RTVSPost2010Prop48
 90
       50
102
RTVSPost2010PropOp48
 70
     1
102
RTVSPost2010Prop49
280
     0
102
RTVSPost2010PropOp49
 70
     1
102
RTVSPost2010Prop50
 90
       50
102
RTVSPost2010PropOp50
 70
     1
102
RTVSPost2010Prop51ColorIndex
 90
      256
102
RTVSPost2010Prop51ColorRGB
 90
-16777216
102
RTVSPost2010PropOp51
 70
     0
102
RTVSPost2010Prop52
140
1.0
102
RTVSPost2010PropOp52
 70
     0
102
RTVSPost2010Prop53
 90
        2
102
RTVSPost2010PropOp53
 70
     1
102
RTVSPost2010Prop54
  1
strokes_ogs.tif
102
RTVSPost2010PropOp54
 70
     1
102
RTVSPost2010Prop55
280
     0
102
RTVSPost2010PropOp55
 70
     1
102
RTVSPost2010Prop56
140
1.0
102
RTVSPost2010PropOp56
 70
     1
102
RTVSPost2010Prop57
140
1.0
102
RTVSPost2010PropOp57
 70
     1
102
RTVSPropertyOp0
 70
     1
102
RTVSPropertyOp1
 70
     1
102
RTVSPropertyOp2
 70
     1
102
RTVSPropertyOp3
 70
     1
102
RTVSPropertyOp4
 70
     1
102
RTVSPropertyOp5
 70
     1
102
RTVSPropertyOp6
 70
     1
102
RTVSPropertyOp7
 70
     1
102
RTVSPropertyOp8
 70
     1
102
RTVSPropertyOp9
 70
     1
102
RTVSPropertyOp10
 70
     1
102
RTVSPropertyOp11
 70
     1
102
RTVSPropertyOp12
 70
     1
102
RTVSPropertyOp13
 70
     1
102
RTVSPropertyOp14
 70
     1
102
RTVSPropertyOp15
 70
     1
102
RTVSPropertyOp16
 70
     1
102
RTVSPropertyOp17
 70
     1
102
RTVSPropertyOp18
 70
     1
102
RTVSPropertyOp19
 70
     1
102
RTVSPropertyOp20
 70
     1
102
RTVSPropertyOp21
 70
     1
102
RTVSPropertyOp22
 70
     1
102
RTVSPropertyOp23
 70
     1
102
RTVSPropertyOp24
 70
     1
102
RTVSPropertyOp25
 70
     1
102
RTVSPropertyOp26
 70
     1
102
RTVSPropertyOp27
 70
     1
102
RTVSPropertyOp28
 70
     1
102
RTVSPropertyOp29
 70
     1
102
RTVSPropertyOp30
 70
     1
102
RTVSPropertyOp31
 70
     1
102
RTVSPropertyOp32
 70
     1
102
RTVSPropertyOp33
 70
     1
102
RTVSPropertyOp34
 70
     1
102
RTVSPropertyOp35
 70
     1
102
RTVSPropertyOp36
 70
     1
102
RTVSPropertyOp37
 70
     1
102
RTVSPropertyOp38
 70
     1
102
RTVSPropertyOp39
 70
     1
102
RTVSPropertyOp40
 70
     1
102
RTVSPropertyOp41
 70
     1
102
RTVSPropertyOp42
 70
     1
102
RTVSPropertyOp43
 70
     1
102
RTVSPropertyOp44
 70
     1
102
RTVSPropertyOp45
 70
     1
102
RTVSPropertyOp46
 70
     1
102
RTVSPropertyOp47
 70
     1
102
RTVSPropertyOp48
 70
     1
102
RTVSPropertyOp49
 70
     1
102
RTVSPropertyOp50
 70
     1
102
RTVSPropertyOp51
 70
     0
102
RTVSPropertyOp52
 70
     0
102
RTVSPropertyOp53
 70
     1
102
RTVSPropertyOp54
 70
     1
102
RTVSPropertyOp55
 70
     1
102
RTVSPropertyOp56
 70
     1
102
RTVSPropertyOp57
 70
     1
102
RTVSPropertyOp58
 70
     1
102
RTVSPropertyOp59
 70
     1
102
RTVSPropertyOp60
 70
     1
102
RTVSPropertyOp61
 70
     1
102
RTVSPropertyOp62
 70
     1
  0
XRECORD
  5
55AF
102
{ACAD_REACTORS
330
55AE
102
}
330
55AE
100
AcDbXrecord
280
     1
102
RTVSPost2010Prop28
280
     0
102
RTVSPost2010PropOp28
 70
     1
102
RTVSPost2010Prop29
280
     1
102
RTVSPost2010PropOp29
 70
     1
102
RTVSPost2010Prop30
280
     1
102
RTVSPost2010PropOp30
 70
     1
102
RTVSPost2010Prop31
280
     0
102
RTVSPost2010PropOp31
 70
     1
102
RTVSPost2010Prop32
280
     0
102
RTVSPost2010PropOp32
 70
     1
102
RTVSPost2010Prop33
280
     0
102
RTVSPost2010PropOp33
 70
     1
102
RTVSPost2010Prop34
280
     0
102
RTVSPost2010PropOp34
 70
     1
102
RTVSPost2010Prop35
280
     0
102
RTVSPost2010PropOp35
 70
     1
102
RTVSPost2010Prop36
280
     0
102
RTVSPost2010PropOp36
 70
     1
102
RTVSPost2010Prop37
 90
       50
102
RTVSPost2010PropOp37
 70
     1
102
RTVSPost2010Prop38
140
0.0
102
RTVSPost2010PropOp38
 70
     1
102
RTVSPost2010Prop39
140
1.0
102
RTVSPost2010PropOp39
 70
     1
102
RTVSPost2010Prop40
 90
        0
102
RTVSPost2010PropOp40
 70
     1
102
RTVSPost2010Prop41ColorIndex
 90
       18
102
RTVSPost2010Prop41ColorRGB
 90
        0
102
RTVSPost2010PropOp41
 70
     1
102
RTVSPost2010Prop42
 90
       50
102
RTVSPost2010PropOp42
 70
     1
102
RTVSPost2010Prop43
 90
        3
102
RTVSPost2010PropOp43
 70
     1
102
RTVSPost2010Prop44ColorIndex
 90
        5
102
RTVSPost2010Prop44ColorRGB
 90
      255
102
RTVSPost2010PropOp44
 70
     1
102
RTVSPost2010Prop45
280
     0
102
RTVSPost2010PropOp45
 70
     1
102
RTVSPost2010Prop46
 90
       50
102
RTVSPost2010PropOp46
 70
     1
102
RTVSPost2010Prop47
 90
       50
102
RTVSPost2010PropOp47
 70
     1
102
RTVSPost2010Prop48
 90
       50
102
RTVSPost2010PropOp48
 70
     1
102
RTVSPost2010Prop49
280
     0
102
RTVSPost2010PropOp49
 70
     1
102
RTVSPost2010Prop50
 90
       50
102
RTVSPost2010PropOp50
 70
     1
102
RTVSPost2010Prop51ColorIndex
 90
      256
102
RTVSPost2010Prop51ColorRGB
 90
-16777216
102
RTVSPost2010PropOp51
 70
     0
102
RTVSPost2010Prop52
140
1.0
102
RTVSPost2010PropOp52
 70
     0
102
RTVSPost2010Prop53
 90
        2
102
RTVSPost2010PropOp53
 70
     1
102
RTVSPost2010Prop54
  1
strokes_ogs.tif
102
RTVSPost2010PropOp54
 70
     1
102
RTVSPost2010Prop55
280
     0
102
RTVSPost2010PropOp55
 70
     1
102
RTVSPost2010Prop56
140
1.0
102
RTVSPost2010PropOp56
 70
     1
102
RTVSPost2010Prop57
140
1.0
102
RTVSPost2010PropOp57
 70
     1
102
RTVSPropertyOp0
 70
     1
102
RTVSPropertyOp1
 70
     1
102
RTVSPropertyOp2
 70
     1
102
RTVSPropertyOp3
 70
     1
102
RTVSPropertyOp4
 70
     1
102
RTVSPropertyOp5
 70
     1
102
RTVSPropertyOp6
 70
     1
102
RTVSPropertyOp7
 70
     1
102
RTVSPropertyOp8
 70
     1
102
RTVSPropertyOp9
 70
     1
102
RTVSPropertyOp10
 70
     1
102
RTVSPropertyOp11
 70
     1
102
RTVSPropertyOp12
 70
     1
102
RTVSPropertyOp13
 70
     1
102
RTVSPropertyOp14
 70
     1
102
RTVSPropertyOp15
 70
     1
102
RTVSPropertyOp16
 70
     1
102
RTVSPropertyOp17
 70
     1
102
RTVSPropertyOp18
 70
     1
102
RTVSPropertyOp19
 70
     1
102
RTVSPropertyOp20
 70
     1
102
RTVSPropertyOp21
 70
     1
102
RTVSPropertyOp22
 70
     1
102
RTVSPropertyOp23
 70
     1
102
RTVSPropertyOp24
 70
     1
102
RTVSPropertyOp25
 70
     1
102
RTVSPropertyOp26
 70
     1
102
RTVSPropertyOp27
 70
     1
102
RTVSPropertyOp28
 70
     1
102
RTVSPropertyOp29
 70
     1
102
RTVSPropertyOp30
 70
     1
102
RTVSPropertyOp31
 70
     1
102
RTVSPropertyOp32
 70
     1
102
RTVSPropertyOp33
 70
     1
102
RTVSPropertyOp34
 70
     1
102
RTVSPropertyOp35
 70
     1
102
RTVSPropertyOp36
 70
     1
102
RTVSPropertyOp37
 70
     1
102
RTVSPropertyOp38
 70
     1
102
RTVSPropertyOp39
 70
     1
102
RTVSPropertyOp40
 70
     1
102
RTVSPropertyOp41
 70
     1
102
RTVSPropertyOp42
 70
     1
102
RTVSPropertyOp43
 70
     1
102
RTVSPropertyOp44
 70
     1
102
RTVSPropertyOp45
 70
     1
102
RTVSPropertyOp46
 70
     1
102
RTVSPropertyOp47
 70
     1
102
RTVSPropertyOp48
 70
     1
102
RTVSPropertyOp49
 70
     1
102
RTVSPropertyOp50
 70
     1
102
RTVSPropertyOp51
 70
     0
102
RTVSPropertyOp52
 70
     0
102
RTVSPropertyOp53
 70
     1
102
RTVSPropertyOp54
 70
     1
102
RTVSPropertyOp55
 70
     1
102
RTVSPropertyOp56
 70
     1
102
RTVSPropertyOp57
 70
     1
102
RTVSPropertyOp58
 70
     1
102
RTVSPropertyOp59
 70
     1
102
RTVSPropertyOp60
 70
     1
102
RTVSPropertyOp61
 70
     1
102
RTVSPropertyOp62
 70
     1
  0
XRECORD
  5
55AD
102
{ACAD_REACTORS
330
55AC
102
}
330
55AC
100
AcDbXrecord
280
     1
102
RTVSPost2010Prop28
280
     0
102
RTVSPost2010PropOp28
 70
     1
102
RTVSPost2010Prop29
280
     1
102
RTVSPost2010PropOp29
 70
     1
102
RTVSPost2010Prop30
280
     1
102
RTVSPost2010PropOp30
 70
     1
102
RTVSPost2010Prop31
280
     0
102
RTVSPost2010PropOp31
 70
     1
102
RTVSPost2010Prop32
280
     0
102
RTVSPost2010PropOp32
 70
     1
102
RTVSPost2010Prop33
280
     0
102
RTVSPost2010PropOp33
 70
     1
102
RTVSPost2010Prop34
280
     0
102
RTVSPost2010PropOp34
 70
     1
102
RTVSPost2010Prop35
280
     0
102
RTVSPost2010PropOp35
 70
     1
102
RTVSPost2010Prop36
280
     0
102
RTVSPost2010PropOp36
 70
     1
102
RTVSPost2010Prop37
 90
       50
102
RTVSPost2010PropOp37
 70
     1
102
RTVSPost2010Prop38
140
0.0
102
RTVSPost2010PropOp38
 70
     1
102
RTVSPost2010Prop39
140
1.0
102
RTVSPost2010PropOp39
 70
     1
102
RTVSPost2010Prop40
 90
        0
102
RTVSPost2010PropOp40
 70
     1
102
RTVSPost2010Prop41ColorIndex
 90
       18
102
RTVSPost2010Prop41ColorRGB
 90
        0
102
RTVSPost2010PropOp41
 70
     1
102
RTVSPost2010Prop42
 90
       50
102
RTVSPost2010PropOp42
 70
     1
102
RTVSPost2010Prop43
 90
        3
102
RTVSPost2010PropOp43
 70
     1
102
RTVSPost2010Prop44ColorIndex
 90
        5
102
RTVSPost2010Prop44ColorRGB
 90
      255
102
RTVSPost2010PropOp44
 70
     1
102
RTVSPost2010Prop45
280
     0
102
RTVSPost2010PropOp45
 70
     1
102
RTVSPost2010Prop46
 90
       50
102
RTVSPost2010PropOp46
 70
     1
102
RTVSPost2010Prop47
 90
       50
102
RTVSPost2010PropOp47
 70
     1
102
RTVSPost2010Prop48
 90
       50
102
RTVSPost2010PropOp48
 70
     1
102
RTVSPost2010Prop49
280
     0
102
RTVSPost2010PropOp49
 70
     1
102
RTVSPost2010Prop50
 90
       50
102
RTVSPost2010PropOp50
 70
     1
102
RTVSPost2010Prop51ColorIndex
 90
      256
102
RTVSPost2010Prop51ColorRGB
 90
-16777216
102
RTVSPost2010PropOp51
 70
     0
102
RTVSPost2010Prop52
140
1.0
102
RTVSPost2010PropOp52
 70
     0
102
RTVSPost2010Prop53
 90
        2
102
RTVSPost2010PropOp53
 70
     1
102
RTVSPost2010Prop54
  1
strokes_ogs.tif
102
RTVSPost2010PropOp54
 70
     1
102
RTVSPost2010Prop55
280
     0
102
RTVSPost2010PropOp55
 70
     1
102
RTVSPost2010Prop56
140
1.0
102
RTVSPost2010PropOp56
 70
     1
102
RTVSPost2010Prop57
140
1.0
102
RTVSPost2010PropOp57
 70
     1
102
RTVSPropertyOp0
 70
     1
102
RTVSPropertyOp1
 70
     1
102
RTVSPropertyOp2
 70
     1
102
RTVSPropertyOp3
 70
     1
102
RTVSPropertyOp4
 70
     1
102
RTVSPropertyOp5
 70
     1
102
RTVSPropertyOp6
 70
     1
102
RTVSPropertyOp7
 70
     1
102
RTVSPropertyOp8
 70
     1
102
RTVSPropertyOp9
 70
     1
102
RTVSPropertyOp10
 70
     1
102
RTVSPropertyOp11
 70
     1
102
RTVSPropertyOp12
 70
     1
102
RTVSPropertyOp13
 70
     1
102
RTVSPropertyOp14
 70
     1
102
RTVSPropertyOp15
 70
     1
102
RTVSPropertyOp16
 70
     1
102
RTVSPropertyOp17
 70
     1
102
RTVSPropertyOp18
 70
     1
102
RTVSPropertyOp19
 70
     1
102
RTVSPropertyOp20
 70
     1
102
RTVSPropertyOp21
 70
     1
102
RTVSPropertyOp22
 70
     1
102
RTVSPropertyOp23
 70
     1
102
RTVSPropertyOp24
 70
     1
102
RTVSPropertyOp25
 70
     1
102
RTVSPropertyOp26
 70
     1
102
RTVSPropertyOp27
 70
     1
102
RTVSPropertyOp28
 70
     1
102
RTVSPropertyOp29
 70
     1
102
RTVSPropertyOp30
 70
     1
102
RTVSPropertyOp31
 70
     1
102
RTVSPropertyOp32
 70
     1
102
RTVSPropertyOp33
 70
     1
102
RTVSPropertyOp34
 70
     1
102
RTVSPropertyOp35
 70
     1
102
RTVSPropertyOp36
 70
     1
102
RTVSPropertyOp37
 70
     1
102
RTVSPropertyOp38
 70
     1
102
RTVSPropertyOp39
 70
     1
102
RTVSPropertyOp40
 70
     1
102
RTVSPropertyOp41
 70
     1
102
RTVSPropertyOp42
 70
     1
102
RTVSPropertyOp43
 70
     1
102
RTVSPropertyOp44
 70
     1
102
RTVSPropertyOp45
 70
     1
102
RTVSPropertyOp46
 70
     1
102
RTVSPropertyOp47
 70
     1
102
RTVSPropertyOp48
 70
     1
102
RTVSPropertyOp49
 70
     1
102
RTVSPropertyOp50
 70
     1
102
RTVSPropertyOp51
 70
     0
102
RTVSPropertyOp52
 70
     0
102
RTVSPropertyOp53
 70
     1
102
RTVSPropertyOp54
 70
     1
102
RTVSPropertyOp55
 70
     1
102
RTVSPropertyOp56
 70
     1
102
RTVSPropertyOp57
 70
     1
102
RTVSPropertyOp58
 70
     1
102
RTVSPropertyOp59
 70
     1
102
RTVSPropertyOp60
 70
     1
102
RTVSPropertyOp61
 70
     1
102
RTVSPropertyOp62
 70
     1
  0
XRECORD
  5
55A7
102
{ACAD_REACTORS
330
55A6
102
}
330
55A6
100
AcDbXrecord
280
     1
102
RTVSPost2010Prop28
280
     0
102
RTVSPost2010PropOp28
 70
     1
102
RTVSPost2010Prop29
280
     1
102
RTVSPost2010PropOp29
 70
     1
102
RTVSPost2010Prop30
280
     1
102
RTVSPost2010PropOp30
 70
     1
102
RTVSPost2010Prop31
280
     0
102
RTVSPost2010PropOp31
 70
     1
102
RTVSPost2010Prop32
280
     0
102
RTVSPost2010PropOp32
 70
     1
102
RTVSPost2010Prop33
280
     0
102
RTVSPost2010PropOp33
 70
     1
102
RTVSPost2010Prop34
280
     0
102
RTVSPost2010PropOp34
 70
     1
102
RTVSPost2010Prop35
280
     0
102
RTVSPost2010PropOp35
 70
     1
102
RTVSPost2010Prop36
280
     0
102
RTVSPost2010PropOp36
 70
     1
102
RTVSPost2010Prop37
 90
       50
102
RTVSPost2010PropOp37
 70
     1
102
RTVSPost2010Prop38
140
0.0
102
RTVSPost2010PropOp38
 70
     1
102
RTVSPost2010Prop39
140
1.0
102
RTVSPost2010PropOp39
 70
     1
102
RTVSPost2010Prop40
 90
        0
102
RTVSPost2010PropOp40
 70
     1
102
RTVSPost2010Prop41ColorIndex
 90
       18
102
RTVSPost2010Prop41ColorRGB
 90
        0
102
RTVSPost2010PropOp41
 70
     1
102
RTVSPost2010Prop42
 90
       50
102
RTVSPost2010PropOp42
 70
     1
102
RTVSPost2010Prop43
 90
        3
102
RTVSPost2010PropOp43
 70
     1
102
RTVSPost2010Prop44ColorIndex
 90
        5
102
RTVSPost2010Prop44ColorRGB
 90
      255
102
RTVSPost2010PropOp44
 70
     1
102
RTVSPost2010Prop45
280
     0
102
RTVSPost2010PropOp45
 70
     1
102
RTVSPost2010Prop46
 90
       50
102
RTVSPost2010PropOp46
 70
     1
102
RTVSPost2010Prop47
 90
       50
102
RTVSPost2010PropOp47
 70
     1
102
RTVSPost2010Prop48
 90
       50
102
RTVSPost2010PropOp48
 70
     1
102
RTVSPost2010Prop49
280
     0
102
RTVSPost2010PropOp49
 70
     1
102
RTVSPost2010Prop50
 90
       50
102
RTVSPost2010PropOp50
 70
     1
102
RTVSPost2010Prop51ColorIndex
 90
      256
102
RTVSPost2010Prop51ColorRGB
 90
-16777216
102
RTVSPost2010PropOp51
 70
     0
102
RTVSPost2010Prop52
140
1.0
102
RTVSPost2010PropOp52
 70
     0
102
RTVSPost2010Prop53
 90
        2
102
RTVSPost2010PropOp53
 70
     1
102
RTVSPost2010Prop54
  1
strokes_ogs.tif
102
RTVSPost2010PropOp54
 70
     1
102
RTVSPost2010Prop55
280
     0
102
RTVSPost2010PropOp55
 70
     1
102
RTVSPost2010Prop56
140
1.0
102
RTVSPost2010PropOp56
 70
     1
102
RTVSPost2010Prop57
140
1.0
102
RTVSPost2010PropOp57
 70
     1
102
RTVSPropertyOp0
 70
     1
102
RTVSPropertyOp1
 70
     1
102
RTVSPropertyOp2
 70
     1
102
RTVSPropertyOp3
 70
     1
102
RTVSPropertyOp4
 70
     1
102
RTVSPropertyOp5
 70
     1
102
RTVSPropertyOp6
 70
     1
102
RTVSPropertyOp7
 70
     1
102
RTVSPropertyOp8
 70
     1
102
RTVSPropertyOp9
 70
     1
102
RTVSPropertyOp10
 70
     1
102
RTVSPropertyOp11
 70
     1
102
RTVSPropertyOp12
 70
     1
102
RTVSPropertyOp13
 70
     1
102
RTVSPropertyOp14
 70
     1
102
RTVSPropertyOp15
 70
     1
102
RTVSPropertyOp16
 70
     1
102
RTVSPropertyOp17
 70
     1
102
RTVSPropertyOp18
 70
     1
102
RTVSPropertyOp19
 70
     1
102
RTVSPropertyOp20
 70
     1
102
RTVSPropertyOp21
 70
     1
102
RTVSPropertyOp22
 70
     1
102
RTVSPropertyOp23
 70
     1
102
RTVSPropertyOp24
 70
     1
102
RTVSPropertyOp25
 70
     1
102
RTVSPropertyOp26
 70
     1
102
RTVSPropertyOp27
 70
     1
102
RTVSPropertyOp28
 70
     1
102
RTVSPropertyOp29
 70
     1
102
RTVSPropertyOp30
 70
     1
102
RTVSPropertyOp31
 70
     1
102
RTVSPropertyOp32
 70
     1
102
RTVSPropertyOp33
 70
     1
102
RTVSPropertyOp34
 70
     1
102
RTVSPropertyOp35
 70
     1
102
RTVSPropertyOp36
 70
     1
102
RTVSPropertyOp37
 70
     1
102
RTVSPropertyOp38
 70
     1
102
RTVSPropertyOp39
 70
     1
102
RTVSPropertyOp40
 70
     1
102
RTVSPropertyOp41
 70
     1
102
RTVSPropertyOp42
 70
     1
102
RTVSPropertyOp43
 70
     1
102
RTVSPropertyOp44
 70
     1
102
RTVSPropertyOp45
 70
     1
102
RTVSPropertyOp46
 70
     1
102
RTVSPropertyOp47
 70
     1
102
RTVSPropertyOp48
 70
     1
102
RTVSPropertyOp49
 70
     1
102
RTVSPropertyOp50
 70
     1
102
RTVSPropertyOp51
 70
     0
102
RTVSPropertyOp52
 70
     0
102
RTVSPropertyOp53
 70
     1
102
RTVSPropertyOp54
 70
     1
102
RTVSPropertyOp55
 70
     1
102
RTVSPropertyOp56
 70
     1
102
RTVSPropertyOp57
 70
     1
102
RTVSPropertyOp58
 70
     1
102
RTVSPropertyOp59
 70
     1
102
RTVSPropertyOp60
 70
     1
102
RTVSPropertyOp61
 70
     1
102
RTVSPropertyOp62
 70
     1
  0
XRECORD
  5
55A9
102
{ACAD_REACTORS
330
55A8
102
}
330
55A8
100
AcDbXrecord
280
     1
102
RTVSPost2010Prop28
280
     0
102
RTVSPost2010PropOp28
 70
     1
102
RTVSPost2010Prop29
280
     1
102
RTVSPost2010PropOp29
 70
     1
102
RTVSPost2010Prop30
280
     1
102
RTVSPost2010PropOp30
 70
     1
102
RTVSPost2010Prop31
280
     0
102
RTVSPost2010PropOp31
 70
     1
102
RTVSPost2010Prop32
280
     0
102
RTVSPost2010PropOp32
 70
     1
102
RTVSPost2010Prop33
280
     0
102
RTVSPost2010PropOp33
 70
     1
102
RTVSPost2010Prop34
280
     0
102
RTVSPost2010PropOp34
 70
     1
102
RTVSPost2010Prop35
280
     0
102
RTVSPost2010PropOp35
 70
     1
102
RTVSPost2010Prop36
280
     0
102
RTVSPost2010PropOp36
 70
     1
102
RTVSPost2010Prop37
 90
       50
102
RTVSPost2010PropOp37
 70
     1
102
RTVSPost2010Prop38
140
0.0
102
RTVSPost2010PropOp38
 70
     1
102
RTVSPost2010Prop39
140
1.0
102
RTVSPost2010PropOp39
 70
     1
102
RTVSPost2010Prop40
 90
        0
102
RTVSPost2010PropOp40
 70
     1
102
RTVSPost2010Prop41ColorIndex
 90
       18
102
RTVSPost2010Prop41ColorRGB
 90
        0
102
RTVSPost2010PropOp41
 70
     1
102
RTVSPost2010Prop42
 90
       50
102
RTVSPost2010PropOp42
 70
     1
102
RTVSPost2010Prop43
 90
        3
102
RTVSPost2010PropOp43
 70
     1
102
RTVSPost2010Prop44ColorIndex
 90
        5
102
RTVSPost2010Prop44ColorRGB
 90
      255
102
RTVSPost2010PropOp44
 70
     1
102
RTVSPost2010Prop45
280
     0
102
RTVSPost2010PropOp45
 70
     1
102
RTVSPost2010Prop46
 90
       50
102
RTVSPost2010PropOp46
 70
     1
102
RTVSPost2010Prop47
 90
       50
102
RTVSPost2010PropOp47
 70
     1
102
RTVSPost2010Prop48
 90
       50
102
RTVSPost2010PropOp48
 70
     1
102
RTVSPost2010Prop49
280
     0
102
RTVSPost2010PropOp49
 70
     1
102
RTVSPost2010Prop50
 90
       50
102
RTVSPost2010PropOp50
 70
     1
102
RTVSPost2010Prop51ColorIndex
 90
      256
102
RTVSPost2010Prop51ColorRGB
 90
-16777216
102
RTVSPost2010PropOp51
 70
     0
102
RTVSPost2010Prop52
140
1.0
102
RTVSPost2010PropOp52
 70
     0
102
RTVSPost2010Prop53
 90
        2
102
RTVSPost2010PropOp53
 70
     1
102
RTVSPost2010Prop54
  1
strokes_ogs.tif
102
RTVSPost2010PropOp54
 70
     1
102
RTVSPost2010Prop55
280
     0
102
RTVSPost2010PropOp55
 70
     1
102
RTVSPost2010Prop56
140
1.0
102
RTVSPost2010PropOp56
 70
     1
102
RTVSPost2010Prop57
140
1.0
102
RTVSPost2010PropOp57
 70
     1
102
RTVSPropertyOp0
 70
     1
102
RTVSPropertyOp1
 70
     1
102
RTVSPropertyOp2
 70
     1
102
RTVSPropertyOp3
 70
     1
102
RTVSPropertyOp4
 70
     1
102
RTVSPropertyOp5
 70
     1
102
RTVSPropertyOp6
 70
     1
102
RTVSPropertyOp7
 70
     1
102
RTVSPropertyOp8
 70
     1
102
RTVSPropertyOp9
 70
     1
102
RTVSPropertyOp10
 70
     1
102
RTVSPropertyOp11
 70
     1
102
RTVSPropertyOp12
 70
     1
102
RTVSPropertyOp13
 70
     1
102
RTVSPropertyOp14
 70
     1
102
RTVSPropertyOp15
 70
     1
102
RTVSPropertyOp16
 70
     1
102
RTVSPropertyOp17
 70
     1
102
RTVSPropertyOp18
 70
     1
102
RTVSPropertyOp19
 70
     1
102
RTVSPropertyOp20
 70
     1
102
RTVSPropertyOp21
 70
     1
102
RTVSPropertyOp22
 70
     1
102
RTVSPropertyOp23
 70
     1
102
RTVSPropertyOp24
 70
     1
102
RTVSPropertyOp25
 70
     1
102
RTVSPropertyOp26
 70
     1
102
RTVSPropertyOp27
 70
     1
102
RTVSPropertyOp28
 70
     1
102
RTVSPropertyOp29
 70
     1
102
RTVSPropertyOp30
 70
     1
102
RTVSPropertyOp31
 70
     1
102
RTVSPropertyOp32
 70
     1
102
RTVSPropertyOp33
 70
     1
102
RTVSPropertyOp34
 70
     1
102
RTVSPropertyOp35
 70
     1
102
RTVSPropertyOp36
 70
     1
102
RTVSPropertyOp37
 70
     1
102
RTVSPropertyOp38
 70
     1
102
RTVSPropertyOp39
 70
     1
102
RTVSPropertyOp40
 70
     1
102
RTVSPropertyOp41
 70
     1
102
RTVSPropertyOp42
 70
     1
102
RTVSPropertyOp43
 70
     1
102
RTVSPropertyOp44
 70
     1
102
RTVSPropertyOp45
 70
     1
102
RTVSPropertyOp46
 70
     1
102
RTVSPropertyOp47
 70
     1
102
RTVSPropertyOp48
 70
     1
102
RTVSPropertyOp49
 70
     1
102
RTVSPropertyOp50
 70
     1
102
RTVSPropertyOp51
 70
     0
102
RTVSPropertyOp52
 70
     0
102
RTVSPropertyOp53
 70
     1
102
RTVSPropertyOp54
 70
     1
102
RTVSPropertyOp55
 70
     1
102
RTVSPropertyOp56
 70
     1
102
RTVSPropertyOp57
 70
     1
102
RTVSPropertyOp58
 70
     1
102
RTVSPropertyOp59
 70
     1
102
RTVSPropertyOp60
 70
     1
102
RTVSPropertyOp61
 70
     1
102
RTVSPropertyOp62
 70
     1
  0
XRECORD
  5
559F
102
{ACAD_REACTORS
330
559E
102
}
330
559E
100
AcDbXrecord
280
     1
102
RTVSPost2010Prop28
280
     0
102
RTVSPost2010PropOp28
 70
     1
102
RTVSPost2010Prop29
280
     1
102
RTVSPost2010PropOp29
 70
     1
102
RTVSPost2010Prop30
280
     1
102
RTVSPost2010PropOp30
 70
     1
102
RTVSPost2010Prop31
280
     0
102
RTVSPost2010PropOp31
 70
     1
102
RTVSPost2010Prop32
280
     0
102
RTVSPost2010PropOp32
 70
     1
102
RTVSPost2010Prop33
280
     0
102
RTVSPost2010PropOp33
 70
     1
102
RTVSPost2010Prop34
280
     0
102
RTVSPost2010PropOp34
 70
     1
102
RTVSPost2010Prop35
280
     0
102
RTVSPost2010PropOp35
 70
     1
102
RTVSPost2010Prop36
280
     0
102
RTVSPost2010PropOp36
 70
     1
102
RTVSPost2010Prop37
 90
       50
102
RTVSPost2010PropOp37
 70
     1
102
RTVSPost2010Prop38
140
0.0
102
RTVSPost2010PropOp38
 70
     1
102
RTVSPost2010Prop39
140
1.0
102
RTVSPost2010PropOp39
 70
     1
102
RTVSPost2010Prop40
 90
        0
102
RTVSPost2010PropOp40
 70
     1
102
RTVSPost2010Prop41ColorIndex
 90
       18
102
RTVSPost2010Prop41ColorRGB
 90
        0
102
RTVSPost2010PropOp41
 70
     1
102
RTVSPost2010Prop42
 90
       50
102
RTVSPost2010PropOp42
 70
     1
102
RTVSPost2010Prop43
 90
        3
102
RTVSPost2010PropOp43
 70
     1
102
RTVSPost2010Prop44ColorIndex
 90
        5
102
RTVSPost2010Prop44ColorRGB
 90
      255
102
RTVSPost2010PropOp44
 70
     1
102
RTVSPost2010Prop45
280
     0
102
RTVSPost2010PropOp45
 70
     1
102
RTVSPost2010Prop46
 90
       50
102
RTVSPost2010PropOp46
 70
     1
102
RTVSPost2010Prop47
 90
       50
102
RTVSPost2010PropOp47
 70
     1
102
RTVSPost2010Prop48
 90
       50
102
RTVSPost2010PropOp48
 70
     1
102
RTVSPost2010Prop49
280
     0
102
RTVSPost2010PropOp49
 70
     1
102
RTVSPost2010Prop50
 90
       50
102
RTVSPost2010PropOp50
 70
     1
102
RTVSPost2010Prop51ColorIndex
 90
      256
102
RTVSPost2010Prop51ColorRGB
 90
-16777216
102
RTVSPost2010PropOp51
 70
     0
102
RTVSPost2010Prop52
140
1.0
102
RTVSPost2010PropOp52
 70
     0
102
RTVSPost2010Prop53
 90
        2
102
RTVSPost2010PropOp53
 70
     1
102
RTVSPost2010Prop54
  1
strokes_ogs.tif
102
RTVSPost2010PropOp54
 70
     1
102
RTVSPost2010Prop55
280
     0
102
RTVSPost2010PropOp55
 70
     1
102
RTVSPost2010Prop56
140
1.0
102
RTVSPost2010PropOp56
 70
     1
102
RTVSPost2010Prop57
140
1.0
102
RTVSPost2010PropOp57
 70
     1
102
RTVSPropertyOp0
 70
     1
102
RTVSPropertyOp1
 70
     1
102
RTVSPropertyOp2
 70
     1
102
RTVSPropertyOp3
 70
     1
102
RTVSPropertyOp4
 70
     1
102
RTVSPropertyOp5
 70
     1
102
RTVSPropertyOp6
 70
     1
102
RTVSPropertyOp7
 70
     1
102
RTVSPropertyOp8
 70
     1
102
RTVSPropertyOp9
 70
     1
102
RTVSPropertyOp10
 70
     1
102
RTVSPropertyOp11
 70
     1
102
RTVSPropertyOp12
 70
     1
102
RTVSPropertyOp13
 70
     1
102
RTVSPropertyOp14
 70
     1
102
RTVSPropertyOp15
 70
     1
102
RTVSPropertyOp16
 70
     1
102
RTVSPropertyOp17
 70
     1
102
RTVSPropertyOp18
 70
     1
102
RTVSPropertyOp19
 70
     1
102
RTVSPropertyOp20
 70
     1
102
RTVSPropertyOp21
 70
     1
102
RTVSPropertyOp22
 70
     1
102
RTVSPropertyOp23
 70
     1
102
RTVSPropertyOp24
 70
     1
102
RTVSPropertyOp25
 70
     1
102
RTVSPropertyOp26
 70
     1
102
RTVSPropertyOp27
 70
     1
102
RTVSPropertyOp28
 70
     1
102
RTVSPropertyOp29
 70
     1
102
RTVSPropertyOp30
 70
     1
102
RTVSPropertyOp31
 70
     1
102
RTVSPropertyOp32
 70
     1
102
RTVSPropertyOp33
 70
     1
102
RTVSPropertyOp34
 70
     1
102
RTVSPropertyOp35
 70
     1
102
RTVSPropertyOp36
 70
     1
102
RTVSPropertyOp37
 70
     1
102
RTVSPropertyOp38
 70
     1
102
RTVSPropertyOp39
 70
     1
102
RTVSPropertyOp40
 70
     1
102
RTVSPropertyOp41
 70
     1
102
RTVSPropertyOp42
 70
     1
102
RTVSPropertyOp43
 70
     1
102
RTVSPropertyOp44
 70
     1
102
RTVSPropertyOp45
 70
     1
102
RTVSPropertyOp46
 70
     1
102
RTVSPropertyOp47
 70
     1
102
RTVSPropertyOp48
 70
     1
102
RTVSPropertyOp49
 70
     1
102
RTVSPropertyOp50
 70
     1
102
RTVSPropertyOp51
 70
     0
102
RTVSPropertyOp52
 70
     0
102
RTVSPropertyOp53
 70
     1
102
RTVSPropertyOp54
 70
     1
102
RTVSPropertyOp55
 70
     1
102
RTVSPropertyOp56
 70
     1
102
RTVSPropertyOp57
 70
     1
102
RTVSPropertyOp58
 70
     1
102
RTVSPropertyOp59
 70
     1
102
RTVSPropertyOp60
 70
     1
102
RTVSPropertyOp61
 70
     1
102
RTVSPropertyOp62
 70
     1
  0
XRECORD
  5
5593
102
{ACAD_REACTORS
330
5592
102
}
330
5592
100
AcDbXrecord
280
     1
102
RTVSPost2010Prop28
280
     0
102
RTVSPost2010PropOp28
 70
     1
102
RTVSPost2010Prop29
280
     1
102
RTVSPost2010PropOp29
 70
     1
102
RTVSPost2010Prop30
280
     1
102
RTVSPost2010PropOp30
 70
     1
102
RTVSPost2010Prop31
280
     0
102
RTVSPost2010PropOp31
 70
     1
102
RTVSPost2010Prop32
280
     0
102
RTVSPost2010PropOp32
 70
     1
102
RTVSPost2010Prop33
280
     0
102
RTVSPost2010PropOp33
 70
     1
102
RTVSPost2010Prop34
280
     0
102
RTVSPost2010PropOp34
 70
     1
102
RTVSPost2010Prop35
280
     0
102
RTVSPost2010PropOp35
 70
     1
102
RTVSPost2010Prop36
280
     0
102
RTVSPost2010PropOp36
 70
     1
102
RTVSPost2010Prop37
 90
       50
102
RTVSPost2010PropOp37
 70
     1
102
RTVSPost2010Prop38
140
0.0
102
RTVSPost2010PropOp38
 70
     1
102
RTVSPost2010Prop39
140
1.0
102
RTVSPost2010PropOp39
 70
     1
102
RTVSPost2010Prop40
 90
        0
102
RTVSPost2010PropOp40
 70
     1
102
RTVSPost2010Prop41ColorIndex
 90
       18
102
RTVSPost2010Prop41ColorRGB
 90
        0
102
RTVSPost2010PropOp41
 70
     1
102
RTVSPost2010Prop42
 90
       50
102
RTVSPost2010PropOp42
 70
     1
102
RTVSPost2010Prop43
 90
        3
102
RTVSPost2010PropOp43
 70
     1
102
RTVSPost2010Prop44ColorIndex
 90
        5
102
RTVSPost2010Prop44ColorRGB
 90
      255
102
RTVSPost2010PropOp44
 70
     1
102
RTVSPost2010Prop45
280
     0
102
RTVSPost2010PropOp45
 70
     1
102
RTVSPost2010Prop46
 90
       50
102
RTVSPost2010PropOp46
 70
     1
102
RTVSPost2010Prop47
 90
       50
102
RTVSPost2010PropOp47
 70
     1
102
RTVSPost2010Prop48
 90
       50
102
RTVSPost2010PropOp48
 70
     1
102
RTVSPost2010Prop49
280
     0
102
RTVSPost2010PropOp49
 70
     1
102
RTVSPost2010Prop50
 90
       50
102
RTVSPost2010PropOp50
 70
     1
102
RTVSPost2010Prop51ColorIndex
 90
      256
102
RTVSPost2010Prop51ColorRGB
 90
-16777216
102
RTVSPost2010PropOp51
 70
     0
102
RTVSPost2010Prop52
140
1.0
102
RTVSPost2010PropOp52
 70
     0
102
RTVSPost2010Prop53
 90
        2
102
RTVSPost2010PropOp53
 70
     1
102
RTVSPost2010Prop54
  1
strokes_ogs.tif
102
RTVSPost2010PropOp54
 70
     1
102
RTVSPost2010Prop55
280
     0
102
RTVSPost2010PropOp55
 70
     1
102
RTVSPost2010Prop56
140
1.0
102
RTVSPost2010PropOp56
 70
     1
102
RTVSPost2010Prop57
140
1.0
102
RTVSPost2010PropOp57
 70
     1
102
RTVSPropertyOp0
 70
     1
102
RTVSPropertyOp1
 70
     1
102
RTVSPropertyOp2
 70
     1
102
RTVSPropertyOp3
 70
     1
102
RTVSPropertyOp4
 70
     1
102
RTVSPropertyOp5
 70
     1
102
RTVSPropertyOp6
 70
     1
102
RTVSPropertyOp7
 70
     1
102
RTVSPropertyOp8
 70
     1
102
RTVSPropertyOp9
 70
     1
102
RTVSPropertyOp10
 70
     1
102
RTVSPropertyOp11
 70
     1
102
RTVSPropertyOp12
 70
     1
102
RTVSPropertyOp13
 70
     1
102
RTVSPropertyOp14
 70
     1
102
RTVSPropertyOp15
 70
     1
102
RTVSPropertyOp16
 70
     1
102
RTVSPropertyOp17
 70
     1
102
RTVSPropertyOp18
 70
     1
102
RTVSPropertyOp19
 70
     1
102
RTVSPropertyOp20
 70
     1
102
RTVSPropertyOp21
 70
     1
102
RTVSPropertyOp22
 70
     1
102
RTVSPropertyOp23
 70
     1
102
RTVSPropertyOp24
 70
     1
102
RTVSPropertyOp25
 70
     1
102
RTVSPropertyOp26
 70
     1
102
RTVSPropertyOp27
 70
     1
102
RTVSPropertyOp28
 70
     1
102
RTVSPropertyOp29
 70
     1
102
RTVSPropertyOp30
 70
     1
102
RTVSPropertyOp31
 70
     1
102
RTVSPropertyOp32
 70
     1
102
RTVSPropertyOp33
 70
     1
102
RTVSPropertyOp34
 70
     1
102
RTVSPropertyOp35
 70
     1
102
RTVSPropertyOp36
 70
     1
102
RTVSPropertyOp37
 70
     1
102
RTVSPropertyOp38
 70
     1
102
RTVSPropertyOp39
 70
     1
102
RTVSPropertyOp40
 70
     1
102
RTVSPropertyOp41
 70
     1
102
RTVSPropertyOp42
 70
     1
102
RTVSPropertyOp43
 70
     1
102
RTVSPropertyOp44
 70
     1
102
RTVSPropertyOp45
 70
     1
102
RTVSPropertyOp46
 70
     1
102
RTVSPropertyOp47
 70
     1
102
RTVSPropertyOp48
 70
     1
102
RTVSPropertyOp49
 70
     1
102
RTVSPropertyOp50
 70
     1
102
RTVSPropertyOp51
 70
     0
102
RTVSPropertyOp52
 70
     0
102
RTVSPropertyOp53
 70
     1
102
RTVSPropertyOp54
 70
     1
102
RTVSPropertyOp55
 70
     1
102
RTVSPropertyOp56
 70
     1
102
RTVSPropertyOp57
 70
     1
102
RTVSPropertyOp58
 70
     1
102
RTVSPropertyOp59
 70
     1
102
RTVSPropertyOp60
 70
     1
102
RTVSPropertyOp61
 70
     1
102
RTVSPropertyOp62
 70
     1
  0
XRECORD
  5
55AB
102
{ACAD_REACTORS
330
55AA
102
}
330
55AA
100
AcDbXrecord
280
     1
102
RTVSPost2010Prop28
280
     0
102
RTVSPost2010PropOp28
 70
     1
102
RTVSPost2010Prop29
280
     1
102
RTVSPost2010PropOp29
 70
     1
102
RTVSPost2010Prop30
280
     1
102
RTVSPost2010PropOp30
 70
     1
102
RTVSPost2010Prop31
280
     0
102
RTVSPost2010PropOp31
 70
     1
102
RTVSPost2010Prop32
280
     0
102
RTVSPost2010PropOp32
 70
     1
102
RTVSPost2010Prop33
280
     0
102
RTVSPost2010PropOp33
 70
     1
102
RTVSPost2010Prop34
280
     0
102
RTVSPost2010PropOp34
 70
     1
102
RTVSPost2010Prop35
280
     0
102
RTVSPost2010PropOp35
 70
     1
102
RTVSPost2010Prop36
280
     0
102
RTVSPost2010PropOp36
 70
     1
102
RTVSPost2010Prop37
 90
       50
102
RTVSPost2010PropOp37
 70
     1
102
RTVSPost2010Prop38
140
0.0
102
RTVSPost2010PropOp38
 70
     1
102
RTVSPost2010Prop39
140
1.0
102
RTVSPost2010PropOp39
 70
     1
102
RTVSPost2010Prop40
 90
        0
102
RTVSPost2010PropOp40
 70
     1
102
RTVSPost2010Prop41ColorIndex
 90
       18
102
RTVSPost2010Prop41ColorRGB
 90
        0
102
RTVSPost2010PropOp41
 70
     1
102
RTVSPost2010Prop42
 90
       50
102
RTVSPost2010PropOp42
 70
     1
102
RTVSPost2010Prop43
 90
        3
102
RTVSPost2010PropOp43
 70
     1
102
RTVSPost2010Prop44ColorIndex
 90
        5
102
RTVSPost2010Prop44ColorRGB
 90
      255
102
RTVSPost2010PropOp44
 70
     1
102
RTVSPost2010Prop45
280
     0
102
RTVSPost2010PropOp45
 70
     1
102
RTVSPost2010Prop46
 90
       50
102
RTVSPost2010PropOp46
 70
     1
102
RTVSPost2010Prop47
 90
       50
102
RTVSPost2010PropOp47
 70
     1
102
RTVSPost2010Prop48
 90
       50
102
RTVSPost2010PropOp48
 70
     1
102
RTVSPost2010Prop49
280
     0
102
RTVSPost2010PropOp49
 70
     1
102
RTVSPost2010Prop50
 90
       50
102
RTVSPost2010PropOp50
 70
     1
102
RTVSPost2010Prop51ColorIndex
 90
      256
102
RTVSPost2010Prop51ColorRGB
 90
-16777216
102
RTVSPost2010PropOp51
 70
     0
102
RTVSPost2010Prop52
140
1.0
102
RTVSPost2010PropOp52
 70
     0
102
RTVSPost2010Prop53
 90
        2
102
RTVSPost2010PropOp53
 70
     1
102
RTVSPost2010Prop54
  1
strokes_ogs.tif
102
RTVSPost2010PropOp54
 70
     1
102
RTVSPost2010Prop55
280
     0
102
RTVSPost2010PropOp55
 70
     1
102
RTVSPost2010Prop56
140
1.0
102
RTVSPost2010PropOp56
 70
     1
102
RTVSPost2010Prop57
140
1.0
102
RTVSPost2010PropOp57
 70
     1
102
RTVSPropertyOp0
 70
     1
102
RTVSPropertyOp1
 70
     1
102
RTVSPropertyOp2
 70
     1
102
RTVSPropertyOp3
 70
     1
102
RTVSPropertyOp4
 70
     1
102
RTVSPropertyOp5
 70
     1
102
RTVSPropertyOp6
 70
     1
102
RTVSPropertyOp7
 70
     1
102
RTVSPropertyOp8
 70
     1
102
RTVSPropertyOp9
 70
     1
102
RTVSPropertyOp10
 70
     1
102
RTVSPropertyOp11
 70
     1
102
RTVSPropertyOp12
 70
     1
102
RTVSPropertyOp13
 70
     1
102
RTVSPropertyOp14
 70
     1
102
RTVSPropertyOp15
 70
     1
102
RTVSPropertyOp16
 70
     1
102
RTVSPropertyOp17
 70
     1
102
RTVSPropertyOp18
 70
     1
102
RTVSPropertyOp19
 70
     1
102
RTVSPropertyOp20
 70
     1
102
RTVSPropertyOp21
 70
     1
102
RTVSPropertyOp22
 70
     1
102
RTVSPropertyOp23
 70
     1
102
RTVSPropertyOp24
 70
     1
102
RTVSPropertyOp25
 70
     1
102
RTVSPropertyOp26
 70
     1
102
RTVSPropertyOp27
 70
     1
102
RTVSPropertyOp28
 70
     1
102
RTVSPropertyOp29
 70
     1
102
RTVSPropertyOp30
 70
     1
102
RTVSPropertyOp31
 70
     1
102
RTVSPropertyOp32
 70
     1
102
RTVSPropertyOp33
 70
     1
102
RTVSPropertyOp34
 70
     1
102
RTVSPropertyOp35
 70
     1
102
RTVSPropertyOp36
 70
     1
102
RTVSPropertyOp37
 70
     1
102
RTVSPropertyOp38
 70
     1
102
RTVSPropertyOp39
 70
     1
102
RTVSPropertyOp40
 70
     1
102
RTVSPropertyOp41
 70
     1
102
RTVSPropertyOp42
 70
     1
102
RTVSPropertyOp43
 70
     1
102
RTVSPropertyOp44
 70
     1
102
RTVSPropertyOp45
 70
     1
102
RTVSPropertyOp46
 70
     1
102
RTVSPropertyOp47
 70
     1
102
RTVSPropertyOp48
 70
     1
102
RTVSPropertyOp49
 70
     1
102
RTVSPropertyOp50
 70
     1
102
RTVSPropertyOp51
 70
     0
102
RTVSPropertyOp52
 70
     0
102
RTVSPropertyOp53
 70
     1
102
RTVSPropertyOp54
 70
     1
102
RTVSPropertyOp55
 70
     1
102
RTVSPropertyOp56
 70
     1
102
RTVSPropertyOp57
 70
     1
102
RTVSPropertyOp58
 70
     1
102
RTVSPropertyOp59
 70
     1
102
RTVSPropertyOp60
 70
     1
102
RTVSPropertyOp61
 70
     1
102
RTVSPropertyOp62
 70
     1
  0
ENDSEC
  0
EOF
