  0
SECTION
  2
HEADER
  9
$ACADVER
  1
AC1015
  9
$ACADMAINTVER
 70
    20
  9
$DWGCODEPAGE
  3
ANSI_932
  9
$INSBASE
 10
0.0
 20
0.0
 30
0.0
  9
$EXTMIN
 10
1096.819125511723
 20
-4960.915310194334
 30
-0.0000000349181948
  9
$EXTMAX
 10
3433.151753157446
 20
-364.1499381854501
 30
0.0000000814935746
  9
$LIMMIN
 10
0.0
 20
0.0
  9
$LIMMAX
 10
420.0
 20
297.0
  9
$ORTHOMODE
 70
     1
  9
$REGENMODE
 70
     1
  9
$FILLMODE
 70
     1
  9
$QTEXTMODE
 70
     0
  9
$MIRRTEXT
 70
     1
  9
$LTSCALE
 40
1.0
  9
$ATTMODE
 70
     1
  9
$TEXTSIZE
 40
25.27936068622
  9
$TRACEWID
 40
1.0
  9
$TEXTSTYLE
  7
KANJI
  9
$CLAYER
  8
1外形線
  9
$CELTYPE
  6
BYLAYER
  9
$CECOLOR
 62
   256
  9
$CELTSCALE
 40
3.0
  9
$DISPSILH
 70
     0
  9
$DIMSCALE
 40
1.0
  9
$DIMASZ
 40
1.8
  9
$DIMEXO
 40
1.0
  9
$DIMDLI
 40
0.0
  9
$DIMRND
 40
0.0
  9
$DIMDLE
 40
0.0
  9
$DIMEXE
 40
1.0
  9
$DIMTP
 40
0.0
  9
$DIMTM
 40
0.0
  9
$DIMTXT
 40
2.5
  9
$DIMCEN
 40
0.0
  9
$DIMTSZ
 40
0.0
  9
$DIMTOL
 70
     0
  9
$DIMLIM
 70
     0
  9
$DIMTIH
 70
     0
  9
$DIMTOH
 70
     0
  9
$DIMSE1
 70
     0
  9
$DIMSE2
 70
     0
  9
$DIMTAD
 70
     1
  9
$DIMZIN
 70
     8
  9
$DIMBLK
  1

  9
$DIMASO
 70
     1
  9
$DIMSHO
 70
     1
  9
$DIMPOST
  1

  9
$DIMAPOST
  1

  9
$DIMALT
 70
     0
  9
$DIMALTD
 70
     2
  9
$DIMALTF
 40
25.4
  9
$DIMLFAC
 40
1.0
  9
$DIMTOFL
 70
     1
  9
$DIMTVP
 40
0.0
  9
$DIMTIX
 70
     0
  9
$DIMSOXD
 70
     0
  9
$DIMSAH
 70
     1
  9
$DIMBLK1
  1
2
  9
$DIMBLK2
  1
2
  9
$DIMSTYLE
  2
M
  9
$DIMCLRD
 70
     0
  9
$DIMCLRE
 70
     0
  9
$DIMCLRT
 70
     0
  9
$DIMTFAC
 40
1.0
  9
$DIMGAP
 40
0.5
  9
$DIMJUST
 70
     0
  9
$DIMSD1
 70
     0
  9
$DIMSD2
 70
     0
  9
$DIMTOLJ
 70
     1
  9
$DIMTZIN
 70
     8
  9
$DIMALTZ
 70
     0
  9
$DIMALTTZ
 70
     0
  9
$DIMUPT
 70
     0
  9
$DIMDEC
 70
     4
  9
$DIMTDEC
 70
     4
  9
$DIMALTU
 70
     2
  9
$DIMALTTD
 70
     2
  9
$DIMTXSTY
  7
KANJI
  9
$DIMAUNIT
 70
     0
  9
$DIMADEC
 70
     0
  9
$DIMALTRND
 40
0.0
  9
$DIMAZIN
 70
     0
  9
$DIMDSEP
 70
    46
  9
$DIMATFIT
 70
     3
  9
$DIMFRAC
 70
     0
  9
$DIMLDRBLK
  1
2
  9
$DIMLUNIT
 70
     2
  9
$DIMLWD
 70
    -2
  9
$DIMLWE
 70
    -2
  9
$DIMTMOVE
 70
     0
  9
$LUNITS
 70
     2
  9
$LUPREC
 70
     3
  9
$SKETCHINC
 40
1.0
  9
$FILLETRAD
 40
0.0
  9
$AUNITS
 70
     0
  9
$AUPREC
 70
     1
  9
$MENU
  1
.
  9
$ELEVATION
 40
0.0
  9
$PELEVATION
 40
0.0
  9
$THICKNESS
 40
0.0
  9
$LIMCHECK
 70
     0
  9
$CHAMFERA
 40
10.0
  9
$CHAMFERB
 40
10.0
  9
$CHAMFERC
 40
20.0
  9
$CHAMFERD
 40
0.0
  9
$SKPOLY
 70
     0
  9
$TDCREATE
 40
2453108.381052986
  9
$TDUCREATE
 40
2453108.006052986
  9
$TDUPDATE
 40
2456162.570631018
  9
$TDUUPDATE
 40
2456162.195631018
  9
$TDINDWG
 40
1.5966038889
  9
$TDUSRTIMER
 40
1.5966022569
  9
$USRTIMER
 70
     1
  9
$ANGBASE
 50
0.0
  9
$ANGDIR
 70
     0
  9
$PDMODE
 70
     0
  9
$PDSIZE
 40
0.0
  9
$PLINEWID
 40
0.0
  9
$SPLFRAME
 70
     0
  9
$SPLINETYPE
 70
     6
  9
$SPLINESEGS
 70
     8
  9
$HANDSEED
  5
10876
  9
$SURFTAB1
 70
     6
  9
$SURFTAB2
 70
     6
  9
$SURFTYPE
 70
     6
  9
$SURFU
 70
     6
  9
$SURFV
 70
     6
  9
$UCSBASE
  2

  9
$UCSNAME
  2

  9
$UCSORG
 10
2718.285574920956
 20
-1104.174191996923
 30
0.0
  9
$UCSXDIR
 10
1.0
 20
0.0
 30
0.0
  9
$UCSYDIR
 10
0.0
 20
1.0
 30
0.0
  9
$UCSORTHOREF
  2

  9
$UCSORTHOVIEW
 70
     0
  9
$UCSORGTOP
 10
0.0
 20
0.0
 30
0.0
  9
$UCSORGBOTTOM
 10
0.0
 20
0.0
 30
0.0
  9
$UCSORGLEFT
 10
0.0
 20
0.0
 30
0.0
  9
$UCSORGRIGHT
 10
0.0
 20
0.0
 30
0.0
  9
$UCSORGFRONT
 10
0.0
 20
0.0
 30
0.0
  9
$UCSORGBACK
 10
0.0
 20
0.0
 30
0.0
  9
$PUCSBASE
  2

  9
$PUCSNAME
  2

  9
$PUCSORG
 10
0.0
 20
0.0
 30
0.0
  9
$PUCSXDIR
 10
1.0
 20
0.0
 30
0.0
  9
$PUCSYDIR
 10
0.0
 20
1.0
 30
0.0
  9
$PUCSORTHOREF
  2

  9
$PUCSORTHOVIEW
 70
     0
  9
$PUCSORGTOP
 10
0.0
 20
0.0
 30
0.0
  9
$PUCSORGBOTTOM
 10
0.0
 20
0.0
 30
0.0
  9
$PUCSORGLEFT
 10
0.0
 20
0.0
 30
0.0
  9
$PUCSORGRIGHT
 10
0.0
 20
0.0
 30
0.0
  9
$PUCSORGFRONT
 10
0.0
 20
0.0
 30
0.0
  9
$PUCSORGBACK
 10
0.0
 20
0.0
 30
0.0
  9
$USERI1
 70
     0
  9
$USERI2
 70
     0
  9
$USERI3
 70
     0
  9
$USERI4
 70
     0
  9
$USERI5
 70
     0
  9
$USERR1
 40
0.0
  9
$USERR2
 40
0.0
  9
$USERR3
 40
0.0
  9
$USERR4
 40
0.0
  9
$USERR5
 40
0.0
  9
$WORLDVIEW
 70
     1
  9
$SHADEDGE
 70
     3
  9
$SHADEDIF
 70
    70
  9
$TILEMODE
 70
     1
  9
$MAXACTVP
 70
    48
  9
$PINSBASE
 10
0.0
 20
0.0
 30
0.0
  9
$PLIMCHECK
 70
     0
  9
$PEXTMIN
 10
1.000000000000000E+20
 20
1.000000000000000E+20
 30
1.000000000000000E+20
  9
$PEXTMAX
 10
-1.000000000000000E+20
 20
-1.000000000000000E+20
 30
-1.000000000000000E+20
  9
$PLIMMIN
 10
0.0
 20
0.0
  9
$PLIMMAX
 10
420.0
 20
297.0
  9
$UNITMODE
 70
     0
  9
$VISRETAIN
 70
     1
  9
$PLINEGEN
 70
     0
  9
$PSLTSCALE
 70
     1
  9
$TREEDEPTH
 70
  3020
  9
$CMLSTYLE
  2
STANDARD
  9
$CMLJUST
 70
     0
  9
$CMLSCALE
 40
20.0
  9
$PROXYGRAPHICS
 70
     1
  9
$MEASUREMENT
 70
     1
  9
$CELWEIGHT
370
    -1
  9
$ENDCAPS
280
     0
  9
$JOINSTYLE
280
     0
  9
$LWDISPLAY
290
     0
  9
$INSUNITS
 70
     0
  9
$HYPERLINKBASE
  1

  9
$STYLESHEET
  1
INABA-CAD(MONO).CTB
  9
$XEDIT
290
     1
  9
$CEPSNTYPE
380
     0
  9
$PSTYLEMODE
290
     1
  9
$FINGERPRINTGUID
  2
{7C6E8CC7-309D-4D79-B49F-006816A87E95}
  9
$VERSIONGUID
  2
{5F06E7CF-E68B-4DF6-86F3-7A4A92BA6252}
  9
$EXTNAMES
290
     1
  9
$PSVPSCALE
 40
0.0
  9
$OLESTARTUP
290
     0
  0
ENDSEC
  0
SECTION
  2
CLASSES
  0
CLASS
  1
HATCH
  2
AcDbHatch
  3
ObjectDBX Classes
 90
        0
280
     0
281
     1
  0
CLASS
  1
DICTIONARYVAR
  2
AcDbDictionaryVar
  3
ObjectDBX Classes
 90
        0
280
     0
281
     0
  0
CLASS
  1
ACDBDICTIONARYWDFLT
  2
AcDbDictionaryWithDefault
  3
ObjectDBX Classes
 90
        0
280
     0
281
     0
  0
CLASS
  1
ACDBPLACEHOLDER
  2
AcDbPlaceHolder
  3
ObjectDBX Classes
 90
        0
280
     0
281
     0
  0
CLASS
  1
LAYOUT
  2
AcDbLayout
  3
ObjectDBX Classes
 90
        0
280
     0
281
     0
  0
CLASS
  1
LONG_TRANSACTION
  2
AcDbLongTransaction
  3
ObjectDBX Classes
 90
    32768
280
     0
281
     0
  0
CLASS
  1
LWPOLYLINE
  2
AcDbPolyline
  3
ObjectDBX Classes
 90
    32768
280
     0
281
     1
  0
CLASS
  1
HATCH
  2
AcDbHatch
  3
ObjectDBX Classes
 90
        0
280
     0
281
     1
  0
CLASS
  1
XRECORD
  2
AcDbXrecord
  3
ObjectDBX Classes
 90
        0
280
     0
281
     0
  0
CLASS
  1
TABLESTYLE
  2
AcDbTableStyle
  3
ObjectDBX Classes
 90
     2047
280
     0
281
     0
  0
CLASS
  1
SORTENTSTABLE
  2
AcDbSortentsTable
  3
ObjectDBX Classes
 90
        0
280
     0
281
     0
  0
CLASS
  1
MATERIAL
  2
AcDbMaterial
  3
ObjectDBX Classes
 90
        0
280
     0
281
     0
  0
CLASS
  1
VISUALSTYLE
  2
AcDbVisualStyle
  3
ObjectDBX Classes
 90
     4095
280
     0
281
     0
  0
CLASS
  1
SCALE
  2
AcDbScale
  3
ObjectDBX Classes
 90
     1153
280
     0
281
     0
  0
CLASS
  1
MLEADERSTYLE
  2
AcDbMLeaderStyle
  3
ACDB_MLEADERSTYLE_CLASS
 90
     4095
280
     0
281
     0
  0
CLASS
  1
CELLSTYLEMAP
  2
AcDbCellStyleMap
  3
ObjectDBX Classes
 90
     1152
280
     0
281
     0
  0
ENDSEC
  0
SECTION
  2
TABLES
  0
TABLE
  2
VPORT
  5
8
102
{ACAD_XDICTIONARY
360
60E8
102
}
330
0
100
AcDbSymbolTable
 70
     8
  0
VPORT
  5
1086F
330
8
100
AcDbSymbolTableRecord
100
AcDbViewportTableRecord
  2
*Active
 70
     0
 10
0.0
 20
0.0
 11
1.0
 21
1.0
 12
2277.242586277435
 22
-3247.74095106467
 13
0.0
 23
0.0
 14
10.0
 24
10.0
 15
10.0
 25
10.0
 16
0.0
 26
0.0
 36
1.0
 17
0.0
 27
0.0
 37
0.0
 40
7409.582321167767
 41
1.386243386243386
 42
50.0
 43
0.0
 44
0.0
 50
0.0
 51
0.0
 71
     0
 72
   100
 73
     1
 74
     1
 75
     0
 76
     0
 77
     0
 78
     0
281
     0
 65
     1
110
1441.901166330661
120
-517.3370697536649
130
0.0
111
1.0
121
0.0
131
0.0
112
0.0
122
1.0
132
0.0
 79
     0
146
0.0
  0
ENDTAB
  0
TABLE
  2
LTYPE
  5
5
330
0
100
AcDbSymbolTable
 70
     1
  0
LTYPE
  5
12
330
5
100
AcDbSymbolTableRecord
100
AcDbLinetypeTableRecord
  2
BYBLOCK
 70
     0
  3

 72
    65
 73
     0
 40
0.0
  0
LTYPE
  5
13
330
5
100
AcDbSymbolTableRecord
100
AcDbLinetypeTableRecord
  2
BYLAYER
 70
     0
  3

 72
    65
 73
     0
 40
0.0
  0
LTYPE
  5
14
330
5
100
AcDbSymbolTableRecord
100
AcDbLinetypeTableRecord
  2
CONTINUOUS
 70
     0
  3
Solid line
 72
    65
 73
     0
 40
0.0
  0
ENDTAB
  0
TABLE
  2
LAYER
  5
2
102
{ACAD_XDICTIONARY
360
818B
102
}
330
0
100
AcDbSymbolTable
 70
     4
  0
LAYER
  5
E
102
{ACAD_XDICTIONARY
360
5267
102
}
330
2
100
AcDbSymbolTableRecord
100
AcDbLayerTableRecord
  2
0
 70
     0
 62
     7
  6
CONTINUOUS
370
    -3
390
3A73
  0
LAYER
  5
20
102
{ACAD_XDICTIONARY
360
5269
102
}
330
2
100
AcDbSymbolTableRecord
100
AcDbLayerTableRecord
  2
1外形線
 70
     0
 62
     3
  6
CONTINUOUS
370
    -3
390
3A73
  0
LAYER
  5
94
330
2
100
AcDbSymbolTableRecord
100
AcDbLayerTableRecord
  2
DEFPOINTS
 70
     0
 62
     7
  6
CONTINUOUS
290
     0
370
    -3
390
3A73
  0
ENDTAB
  0
TABLE
  2
STYLE
  5
3
330
0
100
AcDbSymbolTable
 70
     2
  0
STYLE
  5
F
330
3
100
AcDbSymbolTableRecord
100
AcDbTextStyleTableRecord
  2
STANDARD
 70
     0
 40
0.0
 41
1.0
 50
0.0
 71
     0
 42
2.5
  3
txt
  4

  0
STYLE
  5
30
330
3
100
AcDbSymbolTableRecord
100
AcDbTextStyleTableRecord
  2
KANJI
 70
     0
 40
0.0
 41
1.0
 50
0.0
 71
     0
 42
25.27936068622
  3
simplex.shx
  4
bigfont.shx
  0
ENDTAB
  0
TABLE
  2
VIEW
  5
6
330
0
100
AcDbSymbolTable
 70
     0
  0
ENDTAB
  0
TABLE
  2
UCS
  5
7
330
0
100
AcDbSymbolTable
 70
     0
  0
ENDTAB
  0
TABLE
  2
APPID
  5
9
330
0
100
AcDbSymbolTable
 70
     4
  0
APPID
  5
10
330
9
100
AcDbSymbolTableRecord
100
AcDbRegAppTableRecord
  2
ACAD
 70
     0
  0
APPID
  5
49FB
330
9
100
AcDbSymbolTableRecord
100
AcDbRegAppTableRecord
  2
ACAD_MLEADERVER
 70
     0
  0
APPID
  5
60B3
330
9
100
AcDbSymbolTableRecord
100
AcDbRegAppTableRecord
  2
ACAD_EXEMPT_FROM_CAD_STANDARDS
 70
     0
  0
APPID
  5
60DB
330
9
100
AcDbSymbolTableRecord
100
AcDbRegAppTableRecord
  2
ACAD_PSEXT
 70
     0
  0
ENDTAB
  0
TABLE
  2
DIMSTYLE
  5
A
330
0
100
AcDbSymbolTable
 70
     2
100
AcDbDimStyleTable
 71
     1
340
E2
  0
DIMSTYLE
105
1D
330
A
100
AcDbSymbolTableRecord
100
AcDbDimStyleTableRecord
  2
STANDARD
 70
     0
 73
     0
 74
     0
172
     1
340
F
  0
DIMSTYLE
105
E2
330
A
100
AcDbSymbolTableRecord
100
AcDbDimStyleTableRecord
  2
M
 70
     0
 40
0.0
 41
2.0
 42
1.0
 43
0.0
 44
1.0
 73
     0
 74
     0
 77
     1
 78
     8
140
2.5
141
0.0
147
0.5
172
     1
173
     1
284
     8
340
30
341
74
343
74
344
74
  0
ENDTAB
  0
TABLE
  2
BLOCK_RECORD
  5
1
330
0
100
AcDbSymbolTable
 70
    30
  0
BLOCK_RECORD
  5
18
102
{ACAD_XDICTIONARY
360
3AB8
102
}
330
1
100
AcDbSymbolTableRecord
100
AcDbBlockTableRecord
  2
*MODEL_SPACE
340
3A76
  0
BLOCK_RECORD
  5
15
102
{ACAD_XDICTIONARY
360
3AB6
102
}
330
1
100
AcDbSymbolTableRecord
100
AcDbBlockTableRecord
  2
*PAPER_SPACE
340
3A77
  0
BLOCK_RECORD
  5
74
330
1
100
AcDbSymbolTableRecord
100
AcDbBlockTableRecord
  2
2
340
0
102
{BLKREFS
331
106A8
331
106A9
331
106B5
331
106B6
331
106C2
331
106C3
331
106D6
331
106D7
331
106E3
331
106E4
331
106F0
331
106F1
331
106FD
331
106FE
331
1070A
331
1070B
331
10717
331
10718
331
10724
331
10725
331
10731
331
10732
331
1075B
331
1075C
331
10768
331
10769
331
10775
331
10776
331
10782
331
10783
331
1079C
331
1079D
331
107AB
331
107AC
331
107C4
331
107C5
331
107D1
331
107D2
331
107E3
331
107E4
331
107F0
331
107F1
331
10802
331
10803
331
1080F
331
10810
331
1081C
331
1081D
331
1082C
331
1082D
331
10839
331
1083A
331
10846
331
10847
331
10853
331
10854
331
10860
331
10861
102
}
  0
ENDTAB
  0
ENDSEC
  0
SECTION
  2
BLOCKS
  0
BLOCK
  5
19
330
18
100
AcDbEntity
  8
0
100
AcDbBlockBegin
  2
*MODEL_SPACE
 70
     0
 10
0.0
 20
0.0
 30
0.0
  3
*MODEL_SPACE
  1

  0
ENDBLK
  5
1A
330
18
100
AcDbEntity
  8
0
100
AcDbBlockEnd
  0
BLOCK
  5
16
330
15
100
AcDbEntity
 67
     1
  8
0
100
AcDbBlockBegin
  2
*PAPER_SPACE
 70
     0
 10
0.0
 20
0.0
 30
0.0
  3
*PAPER_SPACE
  1

  0
ENDBLK
  5
17
330
15
100
AcDbEntity
 67
     1
  8
0
100
AcDbBlockEnd
  0
BLOCK
  5
130
330
74
100
AcDbEntity
  8
0
 48
3.0
100
AcDbBlockBegin
  2
2
 70
     0
 10
0.0
 20
0.0
 30
0.0
  3
2
  1

  0
HATCH
  5
131
330
74
100
AcDbEntity
  8
0
  6
ByBlock
 62
     0
 48
3.0
100
AcDbHatch
 10
0.0
 20
0.0
 30
0.0
210
0.0
220
0.0
230
1.0
  2
SOLID
 70
     1
 71
     0
 91
        1
 92
        1
 93
        3
 72
     1
 10
-0.9999999999983517
 20
0.2679491924306774
 11
0.0
 21
0.0
 72
     1
 10
0.0
 20
0.0
 11
-0.9999999999983517
 21
-0.2679491924306765
 72
     1
 10
-0.9999999999983524
 20
-0.267949192430676
 11
-0.9999999999983524
 21
0.2679491924306774
 97
        0
 75
     0
 76
     1
 98
        1
 10
2.995745117231336
 20
-4.124946096263201
  0
ENDBLK
  5
132
330
74
100
AcDbEntity
  8
0
 48
3.0
100
AcDbBlockEnd
  0
ENDSEC
  0
SECTION
  2
ENTITIES
  0
LINE
  5
2707
330
18
100
AcDbEntity
  8
1外形線
 48
3.0
100
AcDbLine
 10
1633.000017772551
 20
-550.3180589965007
 30
0.0
 11
1633.000017772551
 21
-590.3180589965
 31
0.0
  0
LINE
  5
27BF
330
18
100
AcDbEntity
  8
1外形線
 48
3.0
100
AcDbLine
 10
1633.000017772551
 20
-590.3180589965
 30
0.0
 11
1993.000017772551
 21
-590.3180589965
 31
0.0
  0
LINE
  5
2B31
330
18
100
AcDbEntity
  8
1外形線
 48
3.0
100
AcDbLine
 10
1633.000017772551
 20
-550.3180589965007
 30
0.0
 11
1993.000017772551
 21
-550.3180589965007
 31
0.0
  0
LINE
  5
A0C7
330
18
100
AcDbEntity
  8
1外形線
 48
3.0
100
AcDbLine
 10
1455.755045095217
 20
-590.3180589964994
 30
0.0
 11
1369.755045095217
 21
-590.3180589964994
 31
0.0
  0
LINE
  5
A0D5
330
18
100
AcDbEntity
  8
1外形線
 48
3.0
100
AcDbLine
 10
1374.425100496028
 20
-552.1180589964997
 30
0.0
 11
1402.155045095217
 21
-552.1180589964999
 31
0.0
  0
LINE
  5
A0D6
330
18
100
AcDbEntity
  8
1外形線
 48
3.0
100
AcDbLine
 10
1372.755045095217
 20
-550.3180589965004
 30
0.0
 11
1369.755045095217
 21
-590.3180589964994
 31
0.0
  0
LINE
  5
A0D7
330
18
100
AcDbEntity
  8
1外形線
 48
3.0
100
AcDbLine
 10
1372.755045095217
 20
-550.3180589965004
 30
0.0
 11
1407.255045095217
 21
-550.3180589965003
 31
0.0
  0
LINE
  5
A0D8
330
18
100
AcDbEntity
  8
1外形線
 48
3.0
100
AcDbLine
 10
1421.755045095216
 20
-561.3180589965
 30
0.0
 11
1412.755045095217
 21
-561.3180589965
 31
0.0
  0
LINE
  5
A0DA
330
18
100
AcDbEntity
  8
1外形線
 48
3.0
100
AcDbLine
 10
1421.755045095216
 20
-552.3180589965003
 30
0.0
 11
1418.255045095216
 21
-552.3180589965003
 31
0.0
  0
LINE
  5
A0DB
330
18
100
AcDbEntity
  8
1外形線
 48
3.0
100
AcDbLine
 10
1423.355045095216
 20
-562.9180589965001
 30
0.0
 11
1413.555045095217
 21
-562.9180589965001
 31
0.0
  0
LINE
  5
A0DD
330
18
100
AcDbEntity
  8
1外形線
 48
3.0
100
AcDbLine
 10
1411.955045095217
 20
-562.9180589965001
 30
0.0
 11
1411.955045095217
 21
-588.2180589964995
 31
0.0
  0
LINE
  5
A0DE
330
18
100
AcDbEntity
  8
1外形線
 48
3.0
100
AcDbLine
 10
1413.555045095217
 20
-562.9180589965001
 30
0.0
 11
1413.555045095217
 21
-588.2180589964995
 31
0.0
  0
LINE
  5
A0E0
330
18
100
AcDbEntity
  8
1外形線
 48
3.0
100
AcDbLine
 10
1402.155045095216
 20
-562.9180589965001
 30
0.0
 11
1411.955045095217
 21
-562.9180589965001
 31
0.0
  0
LINE
  5
A0E3
330
18
100
AcDbEntity
  8
1外形線
 48
3.0
100
AcDbLine
 10
1402.155045095217
 20
-552.1180589964999
 30
0.0
 11
1402.155045095216
 21
-562.9180589965001
 31
0.0
  0
LINE
  5
A0EA
330
18
100
AcDbEntity
  8
1外形線
 48
3.0
100
AcDbLine
 10
1403.755045095216
 20
-552.3180589965003
 30
0.0
 11
1403.755045095216
 21
-561.3180589965
 31
0.0
  0
LINE
  5
A0EB
330
18
100
AcDbEntity
  8
1外形線
 48
3.0
100
AcDbLine
 10
1403.755045095216
 20
-552.3180589965003
 30
0.0
 11
1407.255045095217
 21
-552.3180589965003
 31
0.0
  0
LINE
  5
A0ED
330
18
100
AcDbEntity
  8
1外形線
 48
3.0
100
AcDbLine
 10
1403.755045095216
 20
-561.3180589965
 30
0.0
 11
1412.755045095217
 21
-561.3180589965
 31
0.0
  0
LINE
  5
A0F2
330
18
100
AcDbEntity
  8
1外形線
 48
3.0
100
AcDbLine
 10
1421.755045095216
 20
-552.3180589965003
 30
0.0
 11
1421.755045095216
 21
-561.3180589965
 31
0.0
  0
LINE
  5
A0F3
330
18
100
AcDbEntity
  8
1外形線
 48
3.0
100
AcDbLine
 10
1423.355045095216
 20
-552.1180589965001
 30
0.0
 11
1423.355045095216
 21
-562.9180589965001
 31
0.0
  0
LINE
  5
A0F7
330
18
100
AcDbEntity
  8
1外形線
 48
3.0
100
AcDbLine
 10
1452.755045095217
 20
-550.3180589965003
 30
0.0
 11
1418.255045095216
 21
-550.3180589965003
 31
0.0
  0
LINE
  5
A0FB
330
18
100
AcDbEntity
  8
1外形線
 48
3.0
100
AcDbLine
 10
1452.755045095217
 20
-550.3180589965003
 30
0.0
 11
1455.755045095217
 21
-590.3180589964994
 31
0.0
  0
LINE
  5
A0FD
330
18
100
AcDbEntity
  8
1外形線
 48
3.0
100
AcDbLine
 10
1374.425100496028
 20
-552.1180589964997
 30
0.0
 11
1371.717600496028
 21
-588.2180589964991
 31
0.0
  0
LINE
  5
A0FF
330
18
100
AcDbEntity
  8
1外形線
 48
3.0
100
AcDbLine
 10
1411.955045095217
 20
-588.2180589964995
 30
0.0
 11
1371.717600496028
 21
-588.2180589964991
 31
0.0
  0
LINE
  5
A103
330
18
100
AcDbEntity
  8
1外形線
 48
3.0
100
AcDbLine
 10
1413.555045095217
 20
-588.2180589964995
 30
0.0
 11
1453.792489694404
 21
-588.218058996499
 31
0.0
  0
LINE
  5
A105
330
18
100
AcDbEntity
  8
1外形線
 48
3.0
100
AcDbLine
 10
1451.084989694405
 20
-552.1180589964997
 30
0.0
 11
1453.792489694404
 21
-588.218058996499
 31
0.0
  0
LINE
  5
A108
330
18
100
AcDbEntity
  8
1外形線
 48
3.0
100
AcDbLine
 10
1451.084989694405
 20
-552.1180589964997
 30
0.0
 11
1423.355045095216
 21
-552.1180589965001
 31
0.0
  0
LINE
  5
A132
330
18
100
AcDbEntity
  8
1外形線
 48
3.0
100
AcDbLine
 10
1993.000017772551
 20
-550.3180589965007
 30
0.0
 11
1993.000017772551
 21
-590.3180589965
 31
0.0
  0
TEXT
  5
A133
330
18
100
AcDbEntity
  8
1外形線
 48
3.0
100
AcDbText
 10
1102.548688479092
 20
-477.815836996756
 30
0.0
 40
11.19544978313661
  1
PR-151
  7
KANJI
100
AcDbText
  0
TEXT
  5
A134
330
18
100
AcDbEntity
  8
1外形線
 48
3.0
100
AcDbText
 10
1102.548688479092
 20
-991.9834516504698
 30
0.0
 40
11.19544978313661
  1
PR-350N
  7
KANJI
100
AcDbText
  0
TEXT
  5
B4C4
330
18
100
AcDbEntity
  8
1外形線
 48
3.0
100
AcDbText
 10
1097.048688479091
 20
-1430.274526210661
 30
0.0
 40
11.19544978313661
  1
PR-350N-M
  7
KANJI
100
AcDbText
  0
TEXT
  5
B4C5
330
18
100
AcDbEntity
  8
1外形線
 48
3.0
100
AcDbText
 10
1102.548688479092
 20
-1019.757114207011
 30
0.0
 40
11.19544978313661
  1
PR-351N
  7
KANJI
100
AcDbText
  0
TEXT
  5
B4C6
330
18
100
AcDbEntity
  8
1外形線
 48
3.0
100
AcDbText
 10
1097.048688479091
 20
-1457.180263193732
 30
0.0
 40
11.19544978313661
  1
PR-351N-M
  7
KANJI
100
AcDbText
  0
LINE
  5
B4DC
330
18
100
AcDbEntity
  8
1外形線
 48
2.0
100
AcDbLine
 10
1362.755045095219
 20
-1132.049422712938
 30
0.0
 11
1362.75504509522
 21
-1134.949422712939
 31
0.0
  0
ARC
  5
B4E0
330
18
100
AcDbEntity
  8
1外形線
 48
2.0
100
AcDbCircle
 10
1367.041369147656
 20
-1118.406254362285
 30
0.0
 40
0.2
100
AcDbArc
 50
355.9804175121617
 51
22.54938438351771
  0
ARC
  5
B4E4
330
18
100
AcDbEntity
  8
1外形線
 48
2.0
100
AcDbCircle
 10
1367.188183089721
 20
-1116.316979032843
 30
0.0
 40
0.2
100
AcDbArc
 50
329.4192836356543
 51
355.9804175121617
  0
ARC
  5
B4FC
330
18
100
AcDbEntity
  8
1外形線
 48
2.0
100
AcDbCircle
 10
1369.144291750346
 20
-1088.48004809322
 30
0.0
 40
0.2
100
AcDbArc
 50
355.9804175121617
 51
22.54938438351471
  0
LINE
  5
B50C
330
18
100
AcDbEntity
  8
1外形線
 48
2.0
100
AcDbLine
 10
1462.75504509522
 20
-1132.949422712938
 30
0.0
 11
1462.75504509522
 21
-1134.249422712938
 31
0.0
  0
ARC
  5
B512
330
18
100
AcDbEntity
  8
1外形線
 48
2.0
100
AcDbCircle
 10
1458.321907100714
 20
-1116.316979032843
 30
0.0
 40
0.2
100
AcDbArc
 50
184.0195824878381
 51
210.5807163643457
  0
ARC
  5
B514
330
18
100
AcDbEntity
  8
1外形線
 48
2.0
100
AcDbCircle
 10
1458.468721042784
 20
-1118.406254362285
 30
0.0
 40
0.2
100
AcDbArc
 50
157.4506156164821
 51
184.0195824878381
  0
LINE
  5
B519
330
18
100
AcDbEntity
  8
1外形線
 48
2.0
100
AcDbLine
 10
1421.755045095215
 20
-1050.949422712938
 30
0.0
 11
1403.755045095218
 21
-1050.949422712938
 31
0.0
  0
ARC
  5
B523
330
18
100
AcDbEntity
  8
1外形線
 48
2.0
100
AcDbCircle
 10
1369.291151617767
 20
-1086.390119210712
 30
0.0
 40
0.2
100
AcDbArc
 50
329.4349474843487
 51
355.9804175121617
  0
ARC
  5
B525
330
18
100
AcDbEntity
  8
1外形線
 48
2.0
100
AcDbCircle
 10
1371.245855571038
 20
-1058.57317833724
 30
0.0
 40
0.2
100
AcDbArc
 50
355.9804175121617
 51
22.09314798330983
  0
LINE
  5
B52D
330
18
100
AcDbEntity
  8
1外形線
 48
2.0
100
AcDbLine
 10
1372.755045095206
 20
-1039.949422712938
 30
0.0
 11
1366.283153203328
 21
-1132.049422712938
 31
0.0
  0
ARC
  5
B52F
330
18
100
AcDbEntity
  8
1外形線
 48
2.0
100
AcDbCircle
 10
1371.395482925957
 20
-1056.443865978777
 30
0.0
 40
0.2
100
AcDbArc
 50
329.9068520166918
 51
355.9804175121617
  0
LINE
  5
B536
330
18
100
AcDbEntity
  8
1外形線
 48
2.0
100
AcDbLine
 10
1407.255045095219
 20
-1039.949422712938
 30
0.0
 11
1372.755045095206
 21
-1039.949422712938
 31
0.0
  0
LINE
  5
B53D
330
18
100
AcDbEntity
  8
1外形線
 48
2.0
100
AcDbLine
 10
1403.755045095218
 20
-1042.349422712938
 30
0.0
 11
1403.755045095218
 21
-1050.949422712938
 31
0.0
  0
LINE
  5
B558
330
18
100
AcDbEntity
  8
1外形線
 48
2.0
100
AcDbLine
 10
1421.755045095216
 20
-1042.349422712938
 30
0.0
 11
1421.755045095215
 21
-1050.949422712938
 31
0.0
  0
LINE
  5
B564
330
18
100
AcDbEntity
  8
1外形線
 48
2.0
100
AcDbLine
 10
1452.755045095219
 20
-1039.949422712938
 30
0.0
 11
1459.226936987111
 21
-1132.049422712938
 31
0.0
  0
LINE
  5
B56D
330
18
100
AcDbEntity
  8
1外形線
 48
2.0
100
AcDbLine
 10
1418.25504509522
 20
-1039.949422712938
 30
0.0
 11
1452.755045095219
 21
-1039.949422712938
 31
0.0
  0
LINE
  5
B584
330
18
100
AcDbEntity
  8
1外形線
 48
2.0
100
AcDbLine
 10
1462.75504509522
 20
-1132.049422712938
 30
0.0
 11
1462.75504509522
 21
-1134.949422712939
 31
0.0
  0
LINE
  5
B5EE
330
18
100
AcDbEntity
  8
1外形線
 48
3.0
100
AcDbLine
 10
1632.942203809848
 20
-1039.949422712938
 30
0.0
 11
1632.942203809848
 21
-1134.949422712939
 31
0.0
  0
LINE
  5
B5F2
330
18
100
AcDbEntity
  8
1外形線
 48
3.0
100
AcDbLine
 10
1632.942203809848
 20
-1117.140750743094
 30
0.0
 11
1992.942203809849
 21
-1117.140750743094
 31
0.0
  0
LINE
  5
B5F3
330
18
100
AcDbEntity
  8
1外形線
 48
2.0
100
AcDbLine
 10
1632.942203809848
 20
-1132.249422712938
 30
0.0
 11
1992.942203809848
 21
-1132.249422712938
 31
0.0
  0
LINE
  5
B5F8
330
18
100
AcDbEntity
  8
1外形線
 48
3.0
100
AcDbLine
 10
1632.942203809848
 20
-1057.288338204965
 30
0.0
 11
1992.942203809848
 21
-1057.288338204964
 31
0.0
  0
LINE
  5
B5F9
330
18
100
AcDbEntity
  8
1外形線
 48
3.0
100
AcDbLine
 10
1632.942203809848
 20
-1087.214544474029
 30
0.0
 11
1992.942203809848
 21
-1087.214544474029
 31
0.0
  0
LINE
  5
B5FA
330
18
100
AcDbEntity
  8
1外形線
 48
3.0
100
AcDbLine
 10
1632.942203809848
 20
-1039.949422712938
 30
0.0
 11
1992.942203809848
 21
-1039.949422712938
 31
0.0
  0
LINE
  5
B5FC
330
18
100
AcDbEntity
  8
1外形線
 48
3.0
100
AcDbLine
 10
1407.255045095217
 20
-550.3180589965003
 30
0.0
 11
1407.255045095217
 21
-552.3180589965003
 31
0.0
  0
LINE
  5
B5FE
330
18
100
AcDbEntity
  8
1外形線
 48
3.0
100
AcDbLine
 10
1418.255045095216
 20
-550.3180589965003
 30
0.0
 11
1418.255045095216
 21
-552.3180589965003
 31
0.0
  0
LINE
  5
B6D3
330
18
100
AcDbEntity
  8
1外形線
 48
3.0
100
AcDbLine
 10
1407.255045095219
 20
-1039.949422712938
 30
0.0
 11
1407.255045095219
 21
-1042.349422712938
 31
0.0
  0
LINE
  5
B6D4
330
18
100
AcDbEntity
  8
1外形線
 48
3.0
100
AcDbLine
 10
1418.25504509522
 20
-1039.949422712938
 30
0.0
 11
1418.255045095219
 21
-1042.349422712938
 31
0.0
  0
LINE
  5
B702
330
18
100
AcDbEntity
  8
1外形線
 48
3.0
100
AcDbLine
 10
1992.942203809848
 20
-1039.949422712938
 30
0.0
 11
1992.942203809848
 21
-1134.949422712939
 31
0.0
  0
TEXT
  5
B723
330
18
100
AcDbEntity
  8
1外形線
 48
3.0
100
AcDbText
 10
1102.548688479092
 20
-1953.619599339986
 30
0.0
 40
11.19544978313661
  1
PR-350N-L
  7
KANJI
100
AcDbText
  0
TEXT
  5
B724
330
18
100
AcDbEntity
  8
1外形線
 48
3.0
100
AcDbText
 10
1102.548688479092
 20
-1981.393261896528
 30
0.0
 40
11.19544978313661
  1
PR-351N-L
  7
KANJI
100
AcDbText
  0
TEXT
  5
B725
330
18
100
AcDbEntity
  8
1外形線
 48
3.0
100
AcDbText
 10
1102.548688479092
 20
-2541.530070565143
 30
0.0
 40
11.19544978313661
  1
PR-400
  7
KANJI
100
AcDbText
  0
TEXT
  5
B726
330
18
100
AcDbEntity
  8
1外形線
 48
3.0
100
AcDbText
 10
1102.548688479092
 20
-2569.303733121684
 30
0.0
 40
11.19544978313661
  1
PR-401
  7
KANJI
100
AcDbText
  0
TEXT
  5
B727
330
18
100
AcDbEntity
  8
1外形線
 48
3.0
100
AcDbText
 10
1102.548688479092
 20
-3112.593820375872
 30
0.0
 40
11.19544978313661
  1
PR-400L
  7
KANJI
100
AcDbText
  0
TEXT
  5
B728
330
18
100
AcDbEntity
  8
1外形線
 48
3.0
100
AcDbText
 10
1104.969647241795
 20
-3927.218347593953
 30
0.0
 40
11.19544978313661
  1
PR-450P
  7
KANJI
100
AcDbText
  0
TEXT
  5
B72A
330
18
100
AcDbEntity
  8
1外形線
 48
3.0
100
AcDbText
 10
1102.548688479092
 20
-4762.039052796
 30
0.0
 40
11.19544978313661
  1
PR-1800P
  7
KANJI
100
AcDbText
  0
LINE
  5
F0A1
330
18
100
AcDbEntity
  8
1外形線
 48
3.0
100
AcDbLine
 10
1632.942203809848
 20
-2587.410540570671
 30
0.0
 11
1632.942203809848
 21
-2707.410540570672
 31
0.0
  0
LINE
  5
F0B3
330
18
100
AcDbEntity
  8
1外形線
 48
2.0
100
AcDbLine
 10
1487.755045095217
 20
-2707.410540570672
 30
0.0
 11
1337.755045095217
 21
-2707.410540570672
 31
0.0
  0
LINE
  5
F0B5
330
18
100
AcDbEntity
  8
1外形線
 48
2.0
100
AcDbLine
 10
1337.755045095217
 20
-2707.410540570672
 30
0.0
 11
1337.755045095217
 21
-2703.010540570671
 31
0.0
  0
ARC
  5
F0C5
330
18
100
AcDbEntity
  8
1外形線
 48
2.0
100
AcDbCircle
 10
1349.709711490446
 20
-2678.40780565355
 30
0.0
 40
0.2
100
AcDbArc
 50
355.0728900523512
 51
19.7891571313394
  0
LINE
  5
F0F4
330
18
100
AcDbEntity
  8
1外形線
 48
3.0
100
AcDbLine
 10
1632.942203809848
 20
-2677.256129919893
 30
0.0
 11
1735.926189185201
 21
-2677.256129919893
 31
0.0
  0
LINE
  5
F0F6
330
18
100
AcDbEntity
  8
1外形線
 48
3.0
100
AcDbLine
 10
1632.942203809848
 20
-2707.410540570672
 30
0.0
 11
1731.934693424665
 21
-2707.410540570672
 31
0.0
  0
LINE
  5
F103
330
18
100
AcDbEntity
  8
1外形線
 48
2.0
100
AcDbLine
 10
1487.755045095217
 20
-2707.410540570672
 30
0.0
 11
1487.755045095217
 21
-2703.910540570673
 31
0.0
  0
LINE
  5
F10D
330
18
100
AcDbEntity
  8
1外形線
 48
2.0
100
AcDbLine
 10
1460.580024696715
 20
-2587.410540570671
 30
0.0
 11
1467.755045095216
 21
-2587.410540570671
 31
0.0
  0
LINE
  5
F110
330
18
100
AcDbEntity
  8
1外形線
 48
2.0
100
AcDbLine
 10
1407.505045095217
 20
-2587.410540570671
 30
0.0
 11
1366.930065493719
 21
-2587.410540570671
 31
0.0
  0
LINE
  5
F126
330
18
100
AcDbEntity
  8
1外形線
 48
2.0
100
AcDbLine
 10
1421.755045095216
 20
-2591.610540570672
 30
0.0
 11
1421.755045095216
 21
-2600.010540570672
 31
0.0
  0
LINE
  5
F127
330
18
100
AcDbEntity
  8
1外形線
 48
2.0
100
AcDbLine
 10
1403.755045095216
 20
-2591.610540570672
 30
0.0
 11
1403.755045095216
 21
-2600.010540570672
 31
0.0
  0
LINE
  5
F12B
330
18
100
AcDbEntity
  8
1外形線
 48
2.0
100
AcDbLine
 10
1412.755045095217
 20
-2600.210540570672
 30
0.0
 11
1421.555045095216
 21
-2600.210540570672
 31
0.0
  0
LINE
  5
F132
330
18
100
AcDbEntity
  8
1外形線
 48
2.0
100
AcDbLine
 10
1412.755045095217
 20
-2600.210540570672
 30
0.0
 11
1403.955045095216
 21
-2600.210540570672
 31
0.0
  0
LINE
  5
F149
330
18
100
AcDbEntity
  8
1外形線
 48
2.0
100
AcDbLine
 10
1407.505045095217
 20
-2587.610540570672
 30
0.0
 11
1407.505045095217
 21
-2591.010540570672
 31
0.0
  0
LINE
  5
F14C
330
18
100
AcDbEntity
  8
1外形線
 48
2.0
100
AcDbLine
 10
1418.005045095217
 20
-2587.610540570672
 30
0.0
 11
1418.005045095217
 21
-2591.010540570672
 31
0.0
  0
LINE
  5
F15D
330
18
100
AcDbEntity
  8
1外形線
 48
3.0
100
AcDbLine
 10
1632.942203809848
 20
-2587.410540570671
 30
0.0
 11
1729.553043947035
 21
-2587.410540570671
 31
0.0
  0
LINE
  5
F160
330
18
100
AcDbEntity
  8
1外形線
 48
3.0
100
AcDbLine
 10
1632.942203809848
 20
-2617.477795408177
 30
0.0
 11
1725.22665488575
 21
-2617.477795408177
 31
0.0
  0
LINE
  5
F163
330
18
100
AcDbEntity
  8
1外形線
 48
3.0
100
AcDbLine
 10
1632.942203809848
 20
-2647.366962664034
 30
0.0
 11
1730.441911309033
 21
-2647.366962664034
 31
0.0
  0
LINE
  5
F164
330
18
100
AcDbEntity
  8
1外形線
 48
2.0
100
AcDbLine
 10
1467.755045095216
 20
-2587.410540570671
 30
0.0
 11
1468.37065859336
 21
-2594.551657149142
 31
0.0
  0
LINE
  5
F175
330
18
100
AcDbEntity
  8
1外形線
 48
3.0
100
AcDbLine
 10
1632.942203809848
 20
-2587.410540570671
 30
0.0
 11
1632.942203809848
 21
-2707.410540570672
 31
0.0
  0
LINE
  5
F187
330
18
100
AcDbEntity
  8
1外形線
 48
2.0
100
AcDbLine
 10
1352.555045095216
 20
-2707.410540570672
 30
0.0
 11
1337.755045095217
 21
-2707.410540570672
 31
0.0
  0
LINE
  5
F189
330
18
100
AcDbEntity
  8
1外形線
 48
2.0
100
AcDbLine
 10
1337.755045095217
 20
-2707.410540570672
 30
0.0
 11
1337.755045095217
 21
-2703.910540570673
 31
0.0
  0
ARC
  5
F199
330
18
100
AcDbEntity
  8
1外形線
 48
2.0
100
AcDbCircle
 10
1349.709711490446
 20
-2678.40780565355
 30
0.0
 40
0.2
100
AcDbArc
 50
355.0728900523512
 51
19.7891571313394
  0
LINE
  5
F1C8
330
18
100
AcDbEntity
  8
1外形線
 48
3.0
100
AcDbLine
 10
1632.942203809848
 20
-2677.256129919893
 30
0.0
 11
2082.942203809848
 21
-2677.256129919893
 31
0.0
  0
LINE
  5
F1CA
330
18
100
AcDbEntity
  8
1外形線
 48
3.0
100
AcDbLine
 10
1632.942203809848
 20
-2707.410540570672
 30
0.0
 11
2082.942203809848
 21
-2707.410540570671
 31
0.0
  0
LINE
  5
F1D7
330
18
100
AcDbEntity
  8
1外形線
 48
2.0
100
AcDbLine
 10
1487.755045095217
 20
-2707.410540570672
 30
0.0
 11
1487.755045095217
 21
-2703.010540570673
 31
0.0
  0
LINE
  5
F1E1
330
18
100
AcDbEntity
  8
1外形線
 48
2.0
100
AcDbLine
 10
1418.005045095217
 20
-2587.410540570673
 30
0.0
 11
1467.755045095216
 21
-2587.410540570671
 31
0.0
  0
LINE
  5
F1E4
330
18
100
AcDbEntity
  8
1外形線
 48
2.0
100
AcDbLine
 10
1407.505045095217
 20
-2587.410540570671
 30
0.0
 11
1357.755045095216
 21
-2587.410540570671
 31
0.0
  0
LINE
  5
F1FA
330
18
100
AcDbEntity
  8
1外形線
 48
2.0
100
AcDbLine
 10
1421.755045095217
 20
-2591.610540570672
 30
0.0
 11
1421.755045095217
 21
-2600.210540570672
 31
0.0
  0
LINE
  5
F1FB
330
18
100
AcDbEntity
  8
1外形線
 48
2.0
100
AcDbLine
 10
1403.755045095216
 20
-2591.610540570672
 30
0.0
 11
1403.755045095216
 21
-2600.210540570672
 31
0.0
  0
LINE
  5
F1FF
330
18
100
AcDbEntity
  8
1外形線
 48
2.0
100
AcDbLine
 10
1412.755045095217
 20
-2600.210540570672
 30
0.0
 11
1421.755045095217
 21
-2600.210540570672
 31
0.0
  0
LINE
  5
F206
330
18
100
AcDbEntity
  8
1外形線
 48
2.0
100
AcDbLine
 10
1412.755045095217
 20
-2600.210540570672
 30
0.0
 11
1403.755045095216
 21
-2600.210540570672
 31
0.0
  0
LINE
  5
F21D
330
18
100
AcDbEntity
  8
1外形線
 48
2.0
100
AcDbLine
 10
1407.505045095217
 20
-2587.410540570671
 30
0.0
 11
1407.505045095217
 21
-2591.610540570672
 31
0.0
  0
LINE
  5
F220
330
18
100
AcDbEntity
  8
1外形線
 48
2.0
100
AcDbLine
 10
1418.005045095217
 20
-2587.410540570673
 30
0.0
 11
1418.005045095217
 21
-2591.610540570672
 31
0.0
  0
LINE
  5
F231
330
18
100
AcDbEntity
  8
1外形線
 48
3.0
100
AcDbLine
 10
1632.942203809848
 20
-2587.410540570671
 30
0.0
 11
2082.942203809848
 21
-2587.410540570671
 31
0.0
  0
LINE
  5
F234
330
18
100
AcDbEntity
  8
1外形線
 48
3.0
100
AcDbLine
 10
1632.942203809848
 20
-2617.477795408177
 30
0.0
 11
2082.942203809848
 21
-2617.477795408177
 31
0.0
  0
LINE
  5
F237
330
18
100
AcDbEntity
  8
1外形線
 48
3.0
100
AcDbLine
 10
1632.942203809848
 20
-2647.366962664034
 30
0.0
 11
2082.942203809848
 21
-2647.366962664034
 31
0.0
  0
LINE
  5
F238
330
18
100
AcDbEntity
  8
1外形線
 48
2.0
100
AcDbLine
 10
1467.755045095216
 20
-2587.410540570671
 30
0.0
 11
1477.720562336596
 21
-2703.010540570673
 31
0.0
  0
LINE
  5
F336
330
18
100
AcDbEntity
  8
1外形線
 48
3.0
100
AcDbLine
 10
1356.526035605267
 20
-2645.910540570672
 30
0.0
 11
1356.526035605267
 21
-2645.910540570672
 31
0.0
  0
LINE
  5
F349
330
18
100
AcDbEntity
  8
1外形線
 48
3.0
100
AcDbLine
 10
1357.755045095216
 20
-2587.410540570671
 30
0.0
 11
1347.789527853836
 21
-2703.010540570673
 31
0.0
  0
LINE
  5
FAA3
330
18
100
AcDbEntity
  8
1外形線
 48
2.0
100
AcDbLine
 10
1310.255045095217
 20
-4077.424628617246
 30
0.0
 11
1352.555045095216
 21
-4077.424628617246
 31
0.0
  0
LINE
  5
FAB0
330
18
100
AcDbEntity
  8
1外形線
 48
2.0
100
AcDbLine
 10
1332.251042417299
 20
-4041.260641789989
 30
0.0
 11
1329.920507686553
 21
-4064.138087638687
 31
0.0
  0
LINE
  5
FAB4
330
18
100
AcDbEntity
  8
1外形線
 48
2.0
100
AcDbLine
 10
1310.255045095217
 20
-4073.624628617247
 30
0.0
 11
1310.255045095217
 21
-4077.424628617246
 31
0.0
  0
LINE
  5
FB2D
330
18
100
AcDbEntity
  8
1外形線
 48
2.0
100
AcDbLine
 10
1493.259047773135
 20
-4041.260641789989
 30
0.0
 11
1495.58958250388
 21
-4064.138087638687
 31
0.0
  0
LINE
  5
FB41
330
18
100
AcDbEntity
  8
1外形線
 48
2.0
100
AcDbLine
 10
1515.255045095217
 20
-4073.624628617247
 30
0.0
 11
1515.255045095217
 21
-4077.424628617246
 31
0.0
  0
LINE
  5
FB53
330
18
100
AcDbEntity
  8
1外形線
 48
2.0
100
AcDbLine
 10
1421.555045095216
 20
-3937.924628617247
 30
0.0
 11
1403.955045095216
 21
-3937.924628617247
 31
0.0
  0
LINE
  5
FB5B
330
18
100
AcDbEntity
  8
1外形線
 48
2.0
100
AcDbLine
 10
1342.973397467346
 20
-3936.005785987232
 30
0.0
 11
1340.571018714223
 21
-3959.588481026077
 31
0.0
  0
LINE
  5
FB98
330
18
100
AcDbEntity
  8
1外形線
 48
2.0
100
AcDbLine
 10
1407.305045095216
 20
-3923.424628617247
 30
0.0
 11
1356.901314956736
 21
-3923.424628617247
 31
0.0
  0
LINE
  5
FBA1
330
18
100
AcDbEntity
  8
1外形線
 62
     3
 48
2.0
100
AcDbLine
 10
1403.755045095216
 20
-3929.124628617247
 30
0.0
 11
1403.755045095216
 21
-3937.724628617247
 31
0.0
  0
LINE
  5
FBBD
330
18
100
AcDbEntity
  8
1外形線
 48
2.0
100
AcDbLine
 10
1407.305045095216
 20
-3928.924628617247
 30
0.0
 11
1403.955045095216
 21
-3928.924628617247
 31
0.0
  0
LINE
  5
FBBE
330
18
100
AcDbEntity
  8
1外形線
 62
     3
 48
2.0
100
AcDbLine
 10
1407.505045095217
 20
-3923.624628617247
 30
0.0
 11
1407.505045095217
 21
-3928.724628617248
 31
0.0
  0
LINE
  5
FBC3
330
18
100
AcDbEntity
  8
1外形線
 48
2.0
100
AcDbLine
 10
1482.536692723087
 20
-3936.005785987232
 30
0.0
 11
1484.93907147621
 21
-3959.588481026077
 31
0.0
  0
LINE
  5
FBF1
330
18
100
AcDbEntity
  8
1外形線
 48
2.0
100
AcDbLine
 10
1418.205045095216
 20
-3923.424628617247
 30
0.0
 11
1468.608775233697
 21
-3923.424628617247
 31
0.0
  0
LINE
  5
FBF8
330
18
100
AcDbEntity
  8
1外形線
 62
     3
 48
2.0
100
AcDbLine
 10
1421.755045095216
 20
-3929.124628617247
 30
0.0
 11
1421.755045095216
 21
-3937.724628617247
 31
0.0
  0
LINE
  5
FC0B
330
18
100
AcDbEntity
  8
1外形線
 48
2.0
100
AcDbLine
 10
1418.205045095216
 20
-3928.924628617247
 30
0.0
 11
1421.555045095216
 21
-3928.924628617247
 31
0.0
  0
LINE
  5
FC15
330
18
100
AcDbEntity
  8
1外形線
 62
     3
 48
2.0
100
AcDbLine
 10
1418.005045095217
 20
-3923.624628617247
 30
0.0
 11
1418.005045095217
 21
-3928.724628617248
 31
0.0
  0
LINE
  5
FD96
330
18
100
AcDbEntity
  8
1外形線
 48
2.0
100
AcDbLine
 10
1310.255045095217
 20
-4077.424628617246
 30
0.0
 11
1515.255045095217
 21
-4077.424628617246
 31
0.0
  0
LINE
  5
FDA3
330
18
100
AcDbEntity
  8
1外形線
 48
2.0
100
AcDbLine
 10
1332.251042417299
 20
-4041.260641789989
 30
0.0
 11
1329.045793258209
 21
-4072.724628617247
 31
0.0
  0
LINE
  5
FDA7
330
18
100
AcDbEntity
  8
1外形線
 48
2.0
100
AcDbLine
 10
1310.255045095217
 20
-4072.724628617247
 30
0.0
 11
1310.255045095217
 21
-4077.424628617246
 31
0.0
  0
LINE
  5
FE20
330
18
100
AcDbEntity
  8
1外形線
 48
2.0
100
AcDbLine
 10
1493.259047773135
 20
-4041.260641789989
 30
0.0
 11
1496.464296932223
 21
-4072.724628617247
 31
0.0
  0
LINE
  5
FE34
330
18
100
AcDbEntity
  8
1外形線
 48
2.0
100
AcDbLine
 10
1515.255045095217
 20
-4072.724628617247
 30
0.0
 11
1515.255045095217
 21
-4077.424628617246
 31
0.0
  0
LINE
  5
FE46
330
18
100
AcDbEntity
  8
1外形線
 48
2.0
100
AcDbLine
 10
1421.755045095216
 20
-3937.924628617247
 30
0.0
 11
1403.755045095217
 21
-3937.924628617247
 31
0.0
  0
LINE
  5
FE4E
330
18
100
AcDbEntity
  8
1外形線
 48
2.0
100
AcDbLine
 10
1344.255045095217
 20
-3923.424628617247
 30
0.0
 11
1340.571018714223
 21
-3959.588481026077
 31
0.0
  0
LINE
  5
FE8B
330
18
100
AcDbEntity
  8
1外形線
 48
2.0
100
AcDbLine
 10
1407.505045095217
 20
-3923.424628617247
 30
0.0
 11
1344.255045095217
 21
-3923.424628617247
 31
0.0
  0
LINE
  5
FE94
330
18
100
AcDbEntity
  8
1外形線
 62
     3
 48
2.0
100
AcDbLine
 10
1403.755045095216
 20
-3928.924628617247
 30
0.0
 11
1403.755045095217
 21
-3937.924628617247
 31
0.0
  0
LINE
  5
FEB0
330
18
100
AcDbEntity
  8
1外形線
 48
2.0
100
AcDbLine
 10
1407.505045095217
 20
-3928.924628617247
 30
0.0
 11
1403.755045095216
 21
-3928.924628617247
 31
0.0
  0
LINE
  5
FEB1
330
18
100
AcDbEntity
  8
1外形線
 62
     3
 48
2.0
100
AcDbLine
 10
1407.505045095217
 20
-3923.424628617247
 30
0.0
 11
1407.505045095217
 21
-3928.924628617247
 31
0.0
  0
LINE
  5
FEB6
330
18
100
AcDbEntity
  8
1外形線
 48
2.0
100
AcDbLine
 10
1481.255045095217
 20
-3923.424628617247
 30
0.0
 11
1484.93907147621
 21
-3959.588481026077
 31
0.0
  0
LINE
  5
FEE4
330
18
100
AcDbEntity
  8
1外形線
 48
2.0
100
AcDbLine
 10
1418.005045095216
 20
-3923.424628617247
 30
0.0
 11
1481.255045095217
 21
-3923.424628617247
 31
0.0
  0
LINE
  5
FEEB
330
18
100
AcDbEntity
  8
1外形線
 62
     3
 48
2.0
100
AcDbLine
 10
1421.755045095217
 20
-3928.924628617247
 30
0.0
 11
1421.755045095216
 21
-3937.924628617247
 31
0.0
  0
LINE
  5
FEFE
330
18
100
AcDbEntity
  8
1外形線
 48
2.0
100
AcDbLine
 10
1418.005045095217
 20
-3928.924628617247
 30
0.0
 11
1421.755045095217
 21
-3928.924628617247
 31
0.0
  0
LINE
  5
FF08
330
18
100
AcDbEntity
  8
1外形線
 62
     3
 48
2.0
100
AcDbLine
 10
1418.005045095216
 20
-3923.424628617247
 30
0.0
 11
1418.005045095217
 21
-3928.924628617247
 31
0.0
  0
LINE
  5
10085
330
18
100
AcDbEntity
  8
1外形線
 48
3.0
100
AcDbLine
 10
1632.942203809848
 20
-3923.424628617247
 30
0.0
 11
1632.942203809848
 21
-4077.424628617246
 31
0.0
  0
LINE
  5
10088
330
18
100
AcDbEntity
  8
1外形線
 48
3.0
100
AcDbLine
 10
1632.942203809848
 20
-4077.424628617246
 30
0.0
 11
1731.934693424665
 21
-4077.424628617246
 31
0.0
  0
LINE
  5
1008C
330
18
100
AcDbEntity
  8
1外形線
 48
3.0
100
AcDbLine
 10
1632.942203809848
 20
-3923.424628617247
 30
0.0
 11
1632.942203809848
 21
-4077.424628617246
 31
0.0
  0
LINE
  5
1008D
330
18
100
AcDbEntity
  8
1外形線
 48
3.0
100
AcDbLine
 10
2082.942203809848
 20
-3923.424628617247
 30
0.0
 11
2082.942203809848
 21
-4077.424628617246
 31
0.0
  0
LINE
  5
10090
330
18
100
AcDbEntity
  8
1外形線
 48
3.0
100
AcDbLine
 10
1632.942203809848
 20
-4077.424628617246
 30
0.0
 11
2082.942203809848
 21
-4077.424628617246
 31
0.0
  0
LINE
  5
100A2
330
18
100
AcDbEntity
  8
1外形線
 48
3.0
100
AcDbLine
 10
1632.942203809848
 20
-3923.424628617247
 30
0.0
 11
2082.942203809848
 21
-3923.424628617247
 31
0.0
  0
LINE
  5
100A4
330
18
100
AcDbEntity
  8
1外形線
 48
3.0
100
AcDbLine
 10
1632.942203809848
 20
-3960.580517924311
 30
0.0
 11
2082.942203809848
 21
-3960.580517924311
 31
0.0
  0
LINE
  5
100A5
330
18
100
AcDbEntity
  8
1外形線
 48
3.0
100
AcDbLine
 10
1632.942203809848
 20
-4000.424628617246
 30
0.0
 11
2082.942203809848
 21
-4000.374771584251
 31
0.0
  0
LINE
  5
100A6
330
18
100
AcDbEntity
  8
1外形線
 48
3.0
100
AcDbLine
 10
1632.942203809848
 20
-4040.169025244192
 30
0.0
 11
2082.942203809848
 21
-4040.169025244192
 31
0.0
  0
LINE
  5
100B8
330
18
100
AcDbEntity
  8
1外形線
 48
3.0
100
AcDbLine
 10
1484.93907147621
 20
-3959.588481026077
 30
0.0
 11
1493.259047773135
 21
-4041.260641789989
 31
0.0
  0
LINE
  5
100B9
330
18
100
AcDbEntity
  8
1外形線
 48
3.0
100
AcDbLine
 10
1340.571018714223
 20
-3959.588481026077
 30
0.0
 11
1332.251042417299
 21
-4041.260641789989
 31
0.0
  0
LINE
  5
10103
330
18
100
AcDbEntity
  8
1外形線
 48
2.0
100
AcDbLine
 10
1374.992314642749
 20
-1042.349422712938
 30
0.0
 11
1371.893395723828
 21
-1086.449422712939
 31
0.0
  0
LINE
  5
10106
330
18
100
AcDbEntity
  8
1外形線
 48
2.0
100
AcDbLine
 10
1371.752855183287
 20
-1088.449422712938
 30
0.0
 11
1368.689071399505
 21
-1132.049422712938
 31
0.0
  0
LINE
  5
10107
330
18
100
AcDbEntity
  8
1外形線
 48
2.0
100
AcDbLine
 10
1368.689071399505
 20
-1132.049422712938
 30
0.0
 11
1411.75504509522
 21
-1132.049422712938
 31
0.0
  0
LINE
  5
10108
330
18
100
AcDbEntity
  8
1外形線
 48
3.0
100
AcDbLine
 10
1362.75504509522
 20
-1132.049422712938
 30
0.0
 11
1366.283153203328
 21
-1132.049422712938
 31
0.0
  0
LINE
  5
1010B
330
18
100
AcDbEntity
  8
1外形線
 48
2.0
100
AcDbLine
 10
1456.821018790936
 20
-1132.049422712938
 30
0.0
 11
1413.755045095219
 21
-1132.049422712938
 31
0.0
  0
LINE
  5
1010C
330
18
100
AcDbEntity
  8
1外形線
 48
2.0
100
AcDbLine
 10
1453.757235007152
 20
-1088.449422712938
 30
0.0
 11
1456.821018790936
 21
-1132.049422712938
 31
0.0
  0
LINE
  5
10111
330
18
100
AcDbEntity
  8
1外形線
 48
2.0
100
AcDbLine
 10
1450.517775547694
 20
-1042.349422712938
 30
0.0
 11
1453.616694466611
 21
-1086.449422712939
 31
0.0
  0
LINE
  5
10112
330
18
100
AcDbEntity
  8
1外形線
 48
2.0
100
AcDbLine
 10
1401.755045095219
 20
-1042.349422712938
 30
0.0
 11
1374.992314642749
 21
-1042.349422712938
 31
0.0
  0
LINE
  5
10113
330
18
100
AcDbEntity
  8
1外形線
 48
2.0
100
AcDbLine
 10
1423.75504509522
 20
-1042.349422712938
 30
0.0
 11
1450.517775547695
 21
-1042.349422712939
 31
0.0
  0
LINE
  5
10114
330
18
100
AcDbEntity
  8
1外形線
 48
2.0
100
AcDbLine
 10
1423.75504509522
 20
-1042.349422712938
 30
0.0
 11
1423.755045095219
 21
-1052.949422712938
 31
0.0
  0
LINE
  5
10115
330
18
100
AcDbEntity
  8
1外形線
 48
2.0
100
AcDbLine
 10
1413.75504509522
 20
-1052.949422712938
 30
0.0
 11
1423.755045095219
 21
-1052.949422712938
 31
0.0
  0
LINE
  5
10116
330
18
100
AcDbEntity
  8
1外形線
 48
2.0
100
AcDbLine
 10
1411.75504509522
 20
-1052.949422712938
 30
0.0
 11
1401.755045095219
 21
-1052.949422712938
 31
0.0
  0
LINE
  5
10117
330
18
100
AcDbEntity
  8
1外形線
 48
2.0
100
AcDbLine
 10
1401.755045095219
 20
-1042.349422712938
 30
0.0
 11
1401.755045095219
 21
-1052.949422712938
 31
0.0
  0
LINE
  5
10118
330
18
100
AcDbEntity
  8
1外形線
 48
2.0
100
AcDbLine
 10
1418.255045095219
 20
-1042.349422712938
 30
0.0
 11
1421.755045095216
 21
-1042.349422712938
 31
0.0
  0
LINE
  5
10119
330
18
100
AcDbEntity
  8
1外形線
 48
2.0
100
AcDbLine
 10
1407.255045095219
 20
-1042.349422712938
 30
0.0
 11
1403.755045095218
 21
-1042.349422712938
 31
0.0
  0
LINE
  5
1011B
330
18
100
AcDbEntity
  8
1外形線
 48
3.0
100
AcDbLine
 10
1462.75504509522
 20
-1132.049422712938
 30
0.0
 11
1459.226936987111
 21
-1132.049422712938
 31
0.0
  0
LINE
  5
1012C
330
18
100
AcDbEntity
  8
1外形線
 48
2.0
100
AcDbLine
 10
1400.355045095217
 20
-2591.610540570671
 30
0.0
 11
1361.608553662587
 21
-2591.610540570672
 31
0.0
  0
LINE
  5
1012D
330
18
100
AcDbEntity
  8
1外形線
 48
2.0
100
AcDbLine
 10
1400.355045095217
 20
-2591.610540570671
 30
0.0
 11
1400.355045095216
 21
-2603.610540570671
 31
0.0
  0
LINE
  5
1012E
330
18
100
AcDbEntity
  8
1外形線
 48
2.0
100
AcDbLine
 10
1408.755045095216
 20
-2603.610540570672
 30
0.0
 11
1402.255045095216
 21
-2603.610540570672
 31
0.0
  0
LINE
  5
1012F
330
18
100
AcDbEntity
  8
1外形線
 48
2.0
100
AcDbLine
 10
1414.455045095217
 20
-2603.610540570672
 30
0.0
 11
1425.155045095217
 21
-2603.610540570672
 31
0.0
  0
LINE
  5
10130
330
18
100
AcDbEntity
  8
1外形線
 48
2.0
100
AcDbLine
 10
1425.155045095216
 20
-2591.610540570671
 30
0.0
 11
1425.155045095217
 21
-2603.610540570672
 31
0.0
  0
LINE
  5
10131
330
18
100
AcDbEntity
  8
1外形線
 48
2.0
100
AcDbLine
 10
1425.155045095216
 20
-2591.610540570671
 30
0.0
 11
1463.901536527845
 21
-2591.610540570672
 31
0.0
  0
LINE
  5
10132
330
18
100
AcDbEntity
  8
1外形線
 48
3.0
100
AcDbLine
 10
1463.901536527845
 20
-2591.610540570672
 30
0.0
 11
1468.565329631293
 21
-2645.710540570672
 31
0.0
  0
LINE
  5
1013A
330
18
100
AcDbEntity
  8
1外形線
 48
2.0
100
AcDbLine
 10
1411.055045095216
 20
-2603.610540570672
 30
0.0
 11
1400.355045095216
 21
-2603.610540570671
 31
0.0
  0
LINE
  5
1013B
330
18
100
AcDbEntity
  8
1外形線
 48
3.0
100
AcDbLine
 10
1361.608553662587
 20
-2591.610540570672
 30
0.0
 11
1356.944760559139
 21
-2645.710540570672
 31
0.0
  0
LINE
  5
1013C
330
18
100
AcDbEntity
  8
1外形線
 48
2.0
100
AcDbLine
 10
1356.651657110863
 20
-2649.110540570672
 30
0.0
 11
1352.005105386726
 21
-2703.010540570673
 31
0.0
  0
LINE
  5
1013D
330
18
100
AcDbEntity
  8
1外形線
 48
2.0
100
AcDbLine
 10
1407.755045095217
 20
-2703.010540570673
 30
0.0
 11
1354.293928635928
 21
-2703.010540570673
 31
0.0
  0
LINE
  5
1013E
330
18
100
AcDbEntity
  8
1外形線
 48
2.0
100
AcDbLine
 10
1337.755045095217
 20
-2703.010540570671
 30
0.0
 11
1347.789527853836
 21
-2703.010540570673
 31
0.0
  0
LINE
  5
1013F
330
18
100
AcDbEntity
  8
1外形線
 48
2.0
100
AcDbLine
 10
1411.055045095216
 20
-2703.010540570673
 30
0.0
 11
1352.005105386726
 21
-2703.010540570673
 31
0.0
  0
LINE
  5
10141
330
18
100
AcDbEntity
  8
1外形線
 48
2.0
100
AcDbLine
 10
1414.455045095216
 20
-2703.010540570671
 30
0.0
 11
1473.504984803707
 21
-2703.010540570673
 31
0.0
  0
LINE
  5
10142
330
18
100
AcDbEntity
  8
1外形線
 48
2.0
100
AcDbLine
 10
1477.720562336596
 20
-2703.010540570673
 30
0.0
 11
1487.755045095217
 21
-2703.010540570673
 31
0.0
  0
LINE
  5
10148
330
18
100
AcDbEntity
  8
1外形線
 48
2.0
100
AcDbLine
 10
1468.858433079569
 20
-2649.110540570672
 30
0.0
 11
1473.504984803707
 21
-2703.010540570673
 31
0.0
  0
LINE
  5
10149
330
18
100
AcDbEntity
  8
1外形線
 48
2.0
100
AcDbLine
 10
1407.505045095217
 20
-2591.610540570672
 30
0.0
 11
1403.755045095216
 21
-2591.610540570672
 31
0.0
  0
LINE
  5
1014A
330
18
100
AcDbEntity
  8
1外形線
 48
2.0
100
AcDbLine
 10
1418.005045095217
 20
-2591.610540570672
 30
0.0
 11
1421.755045095216
 21
-2591.610540570672
 31
0.0
  0
LINE
  5
1014B
330
18
100
AcDbEntity
  8
1外形線
 48
2.0
100
AcDbLine
 10
1399.755045095217
 20
-3928.124628617249
 30
0.0
 11
1348.500578548727
 21
-3928.124628617249
 31
0.0
  0
LINE
  5
1014C
330
18
100
AcDbEntity
  8
1外形線
 48
2.0
100
AcDbLine
 10
1348.500578548727
 20
-3928.124628617249
 30
0.0
 11
1341.333995382394
 21
-3998.474628617247
 31
0.0
  0
LINE
  5
1014D
330
18
100
AcDbEntity
  8
1外形線
 62
     3
 48
2.0
100
AcDbLine
 10
1399.755045095216
 20
-3928.124628617249
 30
0.0
 11
1399.755045095216
 21
-3941.924628617247
 31
0.0
  0
LINE
  5
1014E
330
18
100
AcDbEntity
  8
1外形線
 48
2.0
100
AcDbLine
 10
1399.755045095216
 20
-3941.924628617247
 30
0.0
 11
1410.805045095217
 21
-3941.924628617249
 31
0.0
  0
LINE
  5
1014F
330
18
100
AcDbEntity
  8
1外形線
 48
2.0
100
AcDbLine
 10
1425.755045095216
 20
-3941.924628617247
 30
0.0
 11
1414.705045095216
 21
-3941.924628617247
 31
0.0
  0
LINE
  5
10150
330
18
100
AcDbEntity
  8
1外形線
 62
     3
 48
2.0
100
AcDbLine
 10
1425.755045095217
 20
-3928.124628617249
 30
0.0
 11
1425.755045095216
 21
-3941.924628617247
 31
0.0
  0
LINE
  5
10151
330
18
100
AcDbEntity
  8
1外形線
 48
2.0
100
AcDbLine
 10
1425.755045095217
 20
-3928.124628617249
 30
0.0
 11
1477.009511641706
 21
-3928.124628617249
 31
0.0
  0
LINE
  5
10152
330
18
100
AcDbEntity
  8
1外形線
 48
2.0
100
AcDbLine
 10
1477.009511641706
 20
-3928.124628617249
 30
0.0
 11
1484.176094808039
 21
-3998.474628617247
 31
0.0
  0
LINE
  5
1015B
330
18
100
AcDbEntity
  8
1外形線
 48
2.0
100
AcDbLine
 10
1340.936700793215
 20
-4002.374628617249
 30
0.0
 11
1333.770117626883
 21
-4072.724628617247
 31
0.0
  0
LINE
  5
1015C
330
18
100
AcDbEntity
  8
1外形線
 48
2.0
100
AcDbLine
 10
1319.971995194131
 20
-4072.724628617247
 30
0.0
 11
1310.755045095217
 21
-4072.724628617247
 31
0.0
  0
LINE
  5
1015D
330
18
100
AcDbEntity
  8
1外形線
 48
2.0
100
AcDbLine
 10
1329.045793258209
 20
-4072.724628617247
 30
0.0
 11
1310.255045095217
 21
-4072.724628617247
 31
0.0
  0
LINE
  5
1015E
330
18
100
AcDbEntity
  8
1外形線
 48
2.0
100
AcDbLine
 10
1333.770117626883
 20
-4072.724628617247
 30
0.0
 11
1410.805045095217
 21
-4072.724628617247
 31
0.0
  0
LINE
  5
1015F
330
18
100
AcDbEntity
  8
1外形線
 48
2.0
100
AcDbLine
 10
1496.464296932223
 20
-4072.724628617247
 30
0.0
 11
1515.255045095217
 21
-4072.724628617247
 31
0.0
  0
LINE
  5
10161
330
18
100
AcDbEntity
  8
1外形線
 48
2.0
100
AcDbLine
 10
1491.73997256355
 20
-4072.724628617247
 30
0.0
 11
1414.705045095217
 21
-4072.724628617247
 31
0.0
  0
LINE
  5
10165
330
18
100
AcDbEntity
  8
1外形線
 48
2.0
100
AcDbLine
 10
1484.573389397217
 20
-4002.374628617249
 30
0.0
 11
1491.73997256355
 21
-4072.724628617247
 31
0.0
  0
LINE
  5
10190
330
18
100
AcDbEntity
  8
1外形線
 62
     3
 48
2.0
100
AcDbLine
 10
1414.705045095217
 20
-3941.924628617247
 30
0.0
 11
1414.705045095217
 21
-3998.474628617247
 31
0.0
  0
LINE
  5
10191
330
18
100
AcDbEntity
  8
1外形線
 62
     3
 48
2.0
100
AcDbLine
 10
1410.805045095217
 20
-3941.924628617247
 30
0.0
 11
1410.805045095217
 21
-3998.474628617247
 31
0.0
  0
LINE
  5
10192
330
18
100
AcDbEntity
  8
1外形線
 62
     3
 48
2.0
100
AcDbLine
 10
1410.805045095217
 20
-3998.474628617247
 30
0.0
 11
1341.333995382394
 21
-3998.474628617247
 31
0.0
  0
LINE
  5
10193
330
18
100
AcDbEntity
  8
1外形線
 62
     3
 48
2.0
100
AcDbLine
 10
1410.805045095217
 20
-4002.374628617249
 30
0.0
 11
1340.936700793215
 21
-4002.374628617249
 31
0.0
  0
LINE
  5
10194
330
18
100
AcDbEntity
  8
1外形線
 62
     3
 48
2.0
100
AcDbLine
 10
1414.705045095217
 20
-4002.374628617247
 30
0.0
 11
1484.573389397217
 21
-4002.374628617249
 31
0.0
  0
LINE
  5
10196
330
18
100
AcDbEntity
  8
1外形線
 62
     3
 48
2.0
100
AcDbLine
 10
1410.805045095217
 20
-4002.374628617249
 30
0.0
 11
1410.805045095217
 21
-4072.724628617247
 31
0.0
  0
LINE
  5
10197
330
18
100
AcDbEntity
  8
1外形線
 62
     3
 48
2.0
100
AcDbLine
 10
1414.705045095217
 20
-4002.374628617247
 30
0.0
 11
1414.705045095217
 21
-4072.724628617247
 31
0.0
  0
LINE
  5
10198
330
18
100
AcDbEntity
  8
1外形線
 48
2.0
100
AcDbLine
 10
1411.055045095217
 20
-2603.610540570672
 30
0.0
 11
1411.055045095216
 21
-2645.710540570672
 31
0.0
  0
LINE
  5
1019A
330
18
100
AcDbEntity
  8
1外形線
 48
2.0
100
AcDbLine
 10
1411.055045095217
 20
-2649.110540570672
 30
0.0
 11
1411.055045095216
 21
-2703.010540570673
 31
0.0
  0
LINE
  5
1019B
330
18
100
AcDbEntity
  8
1外形線
 48
2.0
100
AcDbLine
 10
1414.455045095216
 20
-2649.110540570672
 30
0.0
 11
1414.455045095216
 21
-2703.010540570671
 31
0.0
  0
LINE
  5
1019C
330
18
100
AcDbEntity
  8
1外形線
 48
2.0
100
AcDbLine
 10
1414.455045095216
 20
-2603.610540570671
 30
0.0
 11
1414.455045095216
 21
-2645.710540570672
 31
0.0
  0
LINE
  5
1019E
330
18
100
AcDbEntity
  8
1外形線
 48
2.0
100
AcDbLine
 10
1411.055045095216
 20
-2645.710540570672
 30
0.0
 11
1356.944760559139
 21
-2645.710540570672
 31
0.0
  0
LINE
  5
1019F
330
18
100
AcDbEntity
  8
1外形線
 48
2.0
100
AcDbLine
 10
1414.455045095216
 20
-2645.710540570672
 30
0.0
 11
1468.565329631293
 21
-2645.710540570672
 31
0.0
  0
LINE
  5
101A0
330
18
100
AcDbEntity
  8
1外形線
 48
2.0
100
AcDbLine
 10
1411.055045095216
 20
-2649.110540570671
 30
0.0
 11
1356.651657110863
 21
-2649.110540570672
 31
0.0
  0
LINE
  5
101A1
330
18
100
AcDbEntity
  8
1外形線
 48
2.0
100
AcDbLine
 10
1414.455045095216
 20
-2649.110540570672
 30
0.0
 11
1468.858433079569
 21
-2649.110540570672
 31
0.0
  0
LINE
  5
101DB
330
18
100
AcDbEntity
  8
1外形線
 48
2.0
100
AcDbLine
 10
1411.75504509522
 20
-1052.949422712938
 30
0.0
 11
1411.755045095219
 21
-1086.449422712937
 31
0.0
  0
LINE
  5
101DC
330
18
100
AcDbEntity
  8
1外形線
 48
2.0
100
AcDbLine
 10
1413.75504509522
 20
-1052.949422712938
 30
0.0
 11
1413.755045095219
 21
-1086.449422712937
 31
0.0
  0
LINE
  5
101DD
330
18
100
AcDbEntity
  8
1外形線
 48
2.0
100
AcDbLine
 10
1413.755045095219
 20
-1086.449422712937
 30
0.0
 11
1453.616694466611
 21
-1086.449422712939
 31
0.0
  0
LINE
  5
101DE
330
18
100
AcDbEntity
  8
1外形線
 48
2.0
100
AcDbLine
 10
1413.75504509522
 20
-1088.449422712938
 30
0.0
 11
1453.757235007152
 21
-1088.449422712938
 31
0.0
  0
LINE
  5
101DF
330
18
100
AcDbEntity
  8
1外形線
 48
2.0
100
AcDbLine
 10
1411.75504509522
 20
-1088.449422712939
 30
0.0
 11
1371.752855183287
 21
-1088.449422712938
 31
0.0
  0
LINE
  5
101E0
330
18
100
AcDbEntity
  8
1外形線
 48
2.0
100
AcDbLine
 10
1411.755045095219
 20
-1086.449422712937
 30
0.0
 11
1371.893395723828
 21
-1086.449422712939
 31
0.0
  0
LINE
  5
101E1
330
18
100
AcDbEntity
  8
1外形線
 48
2.0
100
AcDbLine
 10
1411.75504509522
 20
-1088.449422712939
 30
0.0
 11
1411.75504509522
 21
-1132.049422712938
 31
0.0
  0
LINE
  5
101E2
330
18
100
AcDbEntity
  8
1外形線
 48
2.0
100
AcDbLine
 10
1413.75504509522
 20
-1088.449422712938
 30
0.0
 11
1413.755045095219
 21
-1132.049422712938
 31
0.0
  0
LINE
  5
1020D
330
18
100
AcDbEntity
  8
1外形線
 62
     3
 48
2.0
100
AcDbLine
 10
1414.705045095217
 20
-3998.474628617247
 30
0.0
 11
1484.176094808039
 21
-3998.474628617247
 31
0.0
  0
LINE
  5
10222
330
18
100
AcDbEntity
  8
1外形線
 48
2.0
100
AcDbLine
 10
1451.321018790935
 20
-1594.978762062816
 30
0.0
 11
1408.255045095218
 21
-1594.978762062815
 31
0.0
  0
LINE
  5
10223
330
18
100
AcDbEntity
  8
1外形線
 48
2.0
100
AcDbLine
 10
1448.257235007151
 20
-1551.378762062814
 30
0.0
 11
1451.321018790935
 21
-1594.978762062816
 31
0.0
  0
LINE
  5
10225
330
18
100
AcDbEntity
  8
1外形線
 48
2.0
100
AcDbLine
 10
1366.252855183286
 20
-1551.378762062814
 30
0.0
 11
1363.189071399504
 21
-1594.978762062815
 31
0.0
  0
LINE
  5
10226
330
18
100
AcDbEntity
  8
1外形線
 48
2.0
100
AcDbLine
 10
1357.255045095218
 20
-1594.978762062815
 30
0.0
 11
1357.255045095218
 21
-1597.878762062816
 31
0.0
  0
ARC
  5
10227
330
18
100
AcDbEntity
  8
1外形線
 48
2.0
100
AcDbCircle
 10
1361.541369147655
 20
-1581.335593712162
 30
0.0
 40
0.2
100
AcDbArc
 50
355.9804175121617
 51
22.54938438351771
  0
ARC
  5
10228
330
18
100
AcDbEntity
  8
1外形線
 48
2.0
100
AcDbCircle
 10
1361.68818308972
 20
-1579.246318382721
 30
0.0
 40
0.2
100
AcDbArc
 50
329.4192836356543
 51
355.9804175121617
  0
LINE
  5
10229
330
18
100
AcDbEntity
  8
1外形線
 48
2.0
100
AcDbLine
 10
1406.255045095219
 20
-1551.378762062816
 30
0.0
 11
1406.255045095219
 21
-1594.978762062815
 31
0.0
  0
LINE
  5
1022A
330
18
100
AcDbEntity
  8
1外形線
 48
2.0
100
AcDbLine
 10
1363.189071399504
 20
-1594.978762062815
 30
0.0
 11
1406.255045095219
 21
-1594.978762062815
 31
0.0
  0
ARC
  5
1022B
330
18
100
AcDbEntity
  8
1外形線
 48
2.0
100
AcDbCircle
 10
1363.644291750345
 20
-1551.409387443097
 30
0.0
 40
0.2
100
AcDbArc
 50
355.9804175121617
 51
22.54938438351471
  0
LINE
  5
1022C
330
18
100
AcDbEntity
  8
1外形線
 48
2.0
100
AcDbLine
 10
1408.255045095219
 20
-1551.378762062814
 30
0.0
 11
1408.255045095218
 21
-1594.978762062815
 31
0.0
  0
LINE
  5
1022D
330
18
100
AcDbEntity
  8
1外形線
 48
2.0
100
AcDbLine
 10
1457.255045095219
 20
-1595.878762062814
 30
0.0
 11
1457.255045095219
 21
-1597.178762062815
 31
0.0
  0
ARC
  5
1022E
330
18
100
AcDbEntity
  8
1外形線
 48
2.0
100
AcDbCircle
 10
1452.821907100713
 20
-1579.246318382721
 30
0.0
 40
0.2
100
AcDbArc
 50
184.0195824878381
 51
210.5807163643457
  0
ARC
  5
1022F
330
18
100
AcDbEntity
  8
1外形線
 48
2.0
100
AcDbCircle
 10
1452.968721042783
 20
-1581.335593712162
 30
0.0
 40
0.2
100
AcDbArc
 50
157.4506156164821
 51
184.0195824878381
  0
LINE
  5
10230
330
18
100
AcDbEntity
  8
1外形線
 48
2.0
100
AcDbLine
 10
1416.255045095214
 20
-1513.878762062814
 30
0.0
 11
1398.255045095217
 21
-1513.878762062816
 31
0.0
  0
LINE
  5
10231
330
18
100
AcDbEntity
  8
1外形線
 48
2.0
100
AcDbLine
 10
1406.255045095219
 20
-1515.878762062816
 30
0.0
 11
1406.255045095218
 21
-1549.378762062814
 31
0.0
  0
LINE
  5
10232
330
18
100
AcDbEntity
  8
1外形線
 48
2.0
100
AcDbLine
 10
1369.492314642748
 20
-1505.278762062816
 30
0.0
 11
1366.393395723827
 21
-1549.378762062816
 31
0.0
  0
LINE
  5
10233
330
18
100
AcDbEntity
  8
1外形線
 48
2.0
100
AcDbLine
 10
1406.255045095218
 20
-1549.378762062814
 30
0.0
 11
1366.393395723827
 21
-1549.378762062816
 31
0.0
  0
LINE
  5
10234
330
18
100
AcDbEntity
  8
1外形線
 48
2.0
100
AcDbLine
 10
1406.255045095219
 20
-1551.378762062816
 30
0.0
 11
1366.252855183286
 21
-1551.378762062814
 31
0.0
  0
ARC
  5
10235
330
18
100
AcDbEntity
  8
1外形線
 48
2.0
100
AcDbCircle
 10
1363.791151617766
 20
-1549.31945856059
 30
0.0
 40
0.2
100
AcDbArc
 50
329.4349474843487
 51
355.9804175121617
  0
ARC
  5
10236
330
18
100
AcDbEntity
  8
1外形線
 48
2.0
100
AcDbCircle
 10
1365.745855571037
 20
-1521.502517687118
 30
0.0
 40
0.2
100
AcDbArc
 50
355.9804175121617
 51
22.09314798330983
  0
LINE
  5
10237
330
18
100
AcDbEntity
  8
1外形線
 48
2.0
100
AcDbLine
 10
1396.255045095218
 20
-1505.278762062816
 30
0.0
 11
1369.492314642748
 21
-1505.278762062816
 31
0.0
  0
LINE
  5
10238
330
18
100
AcDbEntity
  8
1外形線
 48
2.0
100
AcDbLine
 10
1367.255045095205
 20
-1502.878762062816
 30
0.0
 11
1360.783153203327
 21
-1594.978762062815
 31
0.0
  0
ARC
  5
10239
330
18
100
AcDbEntity
  8
1外形線
 48
2.0
100
AcDbCircle
 10
1365.895482925956
 20
-1519.373205328655
 30
0.0
 40
0.2
100
AcDbArc
 50
329.9068520166918
 51
355.9804175121617
  0
LINE
  5
1023A
330
18
100
AcDbEntity
  8
1外形線
 48
2.0
100
AcDbLine
 10
1401.755045095218
 20
-1502.878762062816
 30
0.0
 11
1367.255045095205
 21
-1502.878762062816
 31
0.0
  0
LINE
  5
1023B
330
18
100
AcDbEntity
  8
1外形線
 48
2.0
100
AcDbLine
 10
1406.255045095219
 20
-1515.878762062816
 30
0.0
 11
1396.255045095218
 21
-1515.878762062814
 31
0.0
  0
LINE
  5
1023C
330
18
100
AcDbEntity
  8
1外形線
 48
2.0
100
AcDbLine
 10
1396.255045095218
 20
-1505.278762062816
 30
0.0
 11
1396.255045095218
 21
-1515.878762062814
 31
0.0
  0
LINE
  5
1023D
330
18
100
AcDbEntity
  8
1外形線
 48
2.0
100
AcDbLine
 10
1398.255045095217
 20
-1505.278762062816
 30
0.0
 11
1398.255045095217
 21
-1513.878762062816
 31
0.0
  0
LINE
  5
1023E
330
18
100
AcDbEntity
  8
1外形線
 48
2.0
100
AcDbLine
 10
1401.755045095218
 20
-1505.278762062816
 30
0.0
 11
1398.255045095217
 21
-1505.278762062816
 31
0.0
  0
LINE
  5
1023F
330
18
100
AcDbEntity
  8
1外形線
 48
2.0
100
AcDbLine
 10
1408.255045095219
 20
-1515.878762062816
 30
0.0
 11
1408.255045095218
 21
-1549.378762062814
 31
0.0
  0
LINE
  5
10240
330
18
100
AcDbEntity
  8
1外形線
 48
2.0
100
AcDbLine
 10
1445.017775547693
 20
-1505.278762062816
 30
0.0
 11
1448.11669446661
 21
-1549.378762062816
 31
0.0
  0
LINE
  5
10241
330
18
100
AcDbEntity
  8
1外形線
 48
2.0
100
AcDbLine
 10
1408.255045095219
 20
-1551.378762062814
 30
0.0
 11
1448.257235007151
 21
-1551.378762062814
 31
0.0
  0
LINE
  5
10242
330
18
100
AcDbEntity
  8
1外形線
 48
2.0
100
AcDbLine
 10
1408.255045095218
 20
-1549.378762062814
 30
0.0
 11
1448.11669446661
 21
-1549.378762062816
 31
0.0
  0
LINE
  5
10243
330
18
100
AcDbEntity
  8
1外形線
 48
2.0
100
AcDbLine
 10
1418.255045095219
 20
-1505.278762062816
 30
0.0
 11
1445.017775547694
 21
-1505.278762062816
 31
0.0
  0
LINE
  5
10244
330
18
100
AcDbEntity
  8
1外形線
 48
2.0
100
AcDbLine
 10
1408.255045095219
 20
-1515.878762062816
 30
0.0
 11
1418.255045095218
 21
-1515.878762062814
 31
0.0
  0
LINE
  5
10245
330
18
100
AcDbEntity
  8
1外形線
 48
2.0
100
AcDbLine
 10
1416.255045095215
 20
-1505.278762062816
 30
0.0
 11
1416.255045095214
 21
-1513.878762062814
 31
0.0
  0
LINE
  5
10246
330
18
100
AcDbEntity
  8
1外形線
 48
2.0
100
AcDbLine
 10
1418.255045095219
 20
-1505.278762062816
 30
0.0
 11
1418.255045095218
 21
-1515.878762062814
 31
0.0
  0
LINE
  5
10247
330
18
100
AcDbEntity
  8
1外形線
 48
2.0
100
AcDbLine
 10
1412.755045095218
 20
-1505.278762062816
 30
0.0
 11
1416.255045095215
 21
-1505.278762062816
 31
0.0
  0
LINE
  5
10248
330
18
100
AcDbEntity
  8
1外形線
 48
2.0
100
AcDbLine
 10
1447.255045095218
 20
-1502.878762062814
 30
0.0
 11
1453.72693698711
 21
-1594.978762062816
 31
0.0
  0
LINE
  5
10249
330
18
100
AcDbEntity
  8
1外形線
 48
2.0
100
AcDbLine
 10
1412.755045095219
 20
-1502.878762062816
 30
0.0
 11
1447.255045095218
 21
-1502.878762062814
 31
0.0
  0
LINE
  5
1024A
330
18
100
AcDbEntity
  8
1外形線
 48
3.0
100
AcDbLine
 10
1357.255045095219
 20
-1594.978762062816
 30
0.0
 11
1360.783153203327
 21
-1594.978762062815
 31
0.0
  0
LINE
  5
1024B
330
18
100
AcDbEntity
  8
1外形線
 48
2.0
100
AcDbLine
 10
1457.255045095219
 20
-1594.978762062815
 30
0.0
 11
1457.255045095219
 21
-1597.878762062816
 31
0.0
  0
LINE
  5
1024C
330
18
100
AcDbEntity
  8
1外形線
 48
3.0
100
AcDbLine
 10
1457.255045095219
 20
-1594.978762062815
 30
0.0
 11
1453.72693698711
 21
-1594.978762062816
 31
0.0
  0
LINE
  5
1024D
330
18
100
AcDbEntity
  8
1外形線
 48
3.0
100
AcDbLine
 10
1627.442203809847
 20
-1502.878762062814
 30
0.0
 11
1627.442203809847
 21
-1597.878762062816
 31
0.0
  0
LINE
  5
1024F
330
18
100
AcDbEntity
  8
1外形線
 48
3.0
100
AcDbLine
 10
1627.442203809847
 20
-1580.070090092972
 30
0.0
 11
2077.442203809848
 21
-1580.070090092972
 31
0.0
  0
LINE
  5
10250
330
18
100
AcDbEntity
  8
1外形線
 48
2.0
100
AcDbLine
 10
1627.442203809847
 20
-1595.178762062815
 30
0.0
 11
2077.442203809848
 21
-1595.178762062815
 31
0.0
  0
LINE
  5
10252
330
18
100
AcDbEntity
  8
1外形線
 48
3.0
100
AcDbLine
 10
1627.442203809847
 20
-1520.217677554842
 30
0.0
 11
2077.442203809848
 21
-1520.217677554842
 31
0.0
  0
LINE
  5
10253
330
18
100
AcDbEntity
  8
1外形線
 48
3.0
100
AcDbLine
 10
1627.442203809847
 20
-1550.143883823907
 30
0.0
 11
2077.442203809848
 21
-1550.143883823907
 31
0.0
  0
LINE
  5
10254
330
18
100
AcDbEntity
  8
1外形線
 48
3.0
100
AcDbLine
 10
1627.442203809847
 20
-1502.878762062814
 30
0.0
 11
2077.442203809848
 21
-1502.878762062814
 31
0.0
  0
LINE
  5
10255
330
18
100
AcDbEntity
  8
1外形線
 48
3.0
100
AcDbLine
 10
1412.755045095219
 20
-1502.878762062816
 30
0.0
 11
1412.755045095218
 21
-1505.278762062816
 31
0.0
  0
LINE
  5
10256
330
18
100
AcDbEntity
  8
1外形線
 48
3.0
100
AcDbLine
 10
1401.755045095218
 20
-1502.878762062816
 30
0.0
 11
1401.755045095218
 21
-1505.278762062816
 31
0.0
  0
LINE
  5
10273
330
18
100
AcDbEntity
  8
1外形線
 48
3.0
100
AcDbLine
 10
2077.442203809848
 20
-1502.878762062814
 30
0.0
 11
2077.442203809848
 21
-1597.878762062816
 31
0.0
  0
LINE
  5
1027C
330
18
100
AcDbEntity
  8
1外形線
 48
2.0
100
AcDbLine
 10
1456.821018790936
 20
-2118.339970449671
 30
0.0
 11
1413.755045095219
 21
-2118.339970449671
 31
0.0
  0
LINE
  5
1027D
330
18
100
AcDbEntity
  8
1外形線
 48
2.0
100
AcDbLine
 10
1453.757235007152
 20
-2074.739970449671
 30
0.0
 11
1456.821018790936
 21
-2118.339970449671
 31
0.0
  0
LINE
  5
1027F
330
18
100
AcDbEntity
  8
1外形線
 48
2.0
100
AcDbLine
 10
1371.752855183287
 20
-2074.739970449671
 30
0.0
 11
1368.689071399505
 21
-2118.339970449671
 31
0.0
  0
LINE
  5
10280
330
18
100
AcDbEntity
  8
1外形線
 48
2.0
100
AcDbLine
 10
1362.755045095219
 20
-2118.339970449671
 30
0.0
 11
1362.755045095219
 21
-2121.239970449672
 31
0.0
  0
ARC
  5
10281
330
18
100
AcDbEntity
  8
1外形線
 48
2.0
100
AcDbCircle
 10
1367.041369147656
 20
-2104.696802099018
 30
0.0
 40
0.2
100
AcDbArc
 50
355.9804175121617
 51
22.54938438351771
  0
ARC
  5
10282
330
18
100
AcDbEntity
  8
1外形線
 48
2.0
100
AcDbCircle
 10
1367.188183089721
 20
-2102.607526769577
 30
0.0
 40
0.2
100
AcDbArc
 50
329.4192836356543
 51
355.9804175121617
  0
LINE
  5
10283
330
18
100
AcDbEntity
  8
1外形線
 48
2.0
100
AcDbLine
 10
1411.75504509522
 20
-2074.739970449671
 30
0.0
 11
1411.75504509522
 21
-2118.339970449671
 31
0.0
  0
LINE
  5
10284
330
18
100
AcDbEntity
  8
1外形線
 48
2.0
100
AcDbLine
 10
1368.689071399505
 20
-2118.339970449671
 30
0.0
 11
1411.75504509522
 21
-2118.339970449671
 31
0.0
  0
ARC
  5
10285
330
18
100
AcDbEntity
  8
1外形線
 48
2.0
100
AcDbCircle
 10
1369.144291750346
 20
-2074.770595829953
 30
0.0
 40
0.2
100
AcDbArc
 50
355.9804175121617
 51
22.54938438351471
  0
LINE
  5
10286
330
18
100
AcDbEntity
  8
1外形線
 48
2.0
100
AcDbLine
 10
1413.75504509522
 20
-2074.739970449671
 30
0.0
 11
1413.755045095219
 21
-2118.339970449671
 31
0.0
  0
LINE
  5
10287
330
18
100
AcDbEntity
  8
1外形線
 48
2.0
100
AcDbLine
 10
1462.75504509522
 20
-2119.239970449671
 30
0.0
 11
1462.75504509522
 21
-2120.539970449673
 31
0.0
  0
ARC
  5
10288
330
18
100
AcDbEntity
  8
1外形線
 48
2.0
100
AcDbCircle
 10
1458.321907100714
 20
-2102.607526769577
 30
0.0
 40
0.2
100
AcDbArc
 50
184.0195824878381
 51
210.5807163643457
  0
ARC
  5
10289
330
18
100
AcDbEntity
  8
1外形線
 48
2.0
100
AcDbCircle
 10
1458.468721042784
 20
-2104.696802099018
 30
0.0
 40
0.2
100
AcDbArc
 50
157.4506156164821
 51
184.0195824878381
  0
LINE
  5
1028A
330
18
100
AcDbEntity
  8
1外形線
 48
2.0
100
AcDbLine
 10
1421.755045095215
 20
-2037.239970449671
 30
0.0
 11
1403.755045095218
 21
-2037.239970449671
 31
0.0
  0
LINE
  5
1028B
330
18
100
AcDbEntity
  8
1外形線
 48
2.0
100
AcDbLine
 10
1411.75504509522
 20
-2039.239970449671
 30
0.0
 11
1411.755045095219
 21
-2072.73997044967
 31
0.0
  0
LINE
  5
1028C
330
18
100
AcDbEntity
  8
1外形線
 48
2.0
100
AcDbLine
 10
1374.992314642749
 20
-2028.639970449672
 30
0.0
 11
1371.893395723828
 21
-2072.739970449672
 31
0.0
  0
LINE
  5
1028D
330
18
100
AcDbEntity
  8
1外形線
 48
2.0
100
AcDbLine
 10
1411.755045095219
 20
-2072.73997044967
 30
0.0
 11
1371.893395723828
 21
-2072.739970449672
 31
0.0
  0
LINE
  5
1028E
330
18
100
AcDbEntity
  8
1外形線
 48
2.0
100
AcDbLine
 10
1411.75504509522
 20
-2074.739970449671
 30
0.0
 11
1371.752855183287
 21
-2074.739970449671
 31
0.0
  0
ARC
  5
1028F
330
18
100
AcDbEntity
  8
1外形線
 48
2.0
100
AcDbCircle
 10
1369.291151617767
 20
-2072.680666947445
 30
0.0
 40
0.2
100
AcDbArc
 50
329.4349474843487
 51
355.9804175121617
  0
ARC
  5
10290
330
18
100
AcDbEntity
  8
1外形線
 48
2.0
100
AcDbCircle
 10
1371.245855571038
 20
-2044.863726073975
 30
0.0
 40
0.2
100
AcDbArc
 50
355.9804175121617
 51
22.09314798330983
  0
LINE
  5
10291
330
18
100
AcDbEntity
  8
1外形線
 48
2.0
100
AcDbLine
 10
1401.755045095219
 20
-2028.639970449671
 30
0.0
 11
1374.992314642749
 21
-2028.639970449672
 31
0.0
  0
LINE
  5
10292
330
18
100
AcDbEntity
  8
1外形線
 48
2.0
100
AcDbLine
 10
1372.755045095206
 20
-2026.239970449671
 30
0.0
 11
1366.283153203328
 21
-2118.339970449671
 31
0.0
  0
ARC
  5
10293
330
18
100
AcDbEntity
  8
1外形線
 48
2.0
100
AcDbCircle
 10
1371.395482925957
 20
-2042.73441371551
 30
0.0
 40
0.2
100
AcDbArc
 50
329.9068520166918
 51
355.9804175121617
  0
LINE
  5
10294
330
18
100
AcDbEntity
  8
1外形線
 48
2.0
100
AcDbLine
 10
1407.255045095219
 20
-2026.239970449671
 30
0.0
 11
1372.755045095206
 21
-2026.239970449671
 31
0.0
  0
LINE
  5
10295
330
18
100
AcDbEntity
  8
1外形線
 48
2.0
100
AcDbLine
 10
1411.75504509522
 20
-2039.239970449671
 30
0.0
 11
1401.755045095219
 21
-2039.239970449671
 31
0.0
  0
LINE
  5
10296
330
18
100
AcDbEntity
  8
1外形線
 48
2.0
100
AcDbLine
 10
1401.755045095219
 20
-2028.639970449672
 30
0.0
 11
1401.755045095219
 21
-2039.239970449671
 31
0.0
  0
LINE
  5
10297
330
18
100
AcDbEntity
  8
1外形線
 48
2.0
100
AcDbLine
 10
1403.755045095218
 20
-2028.639970449672
 30
0.0
 11
1403.755045095218
 21
-2037.239970449671
 31
0.0
  0
LINE
  5
10298
330
18
100
AcDbEntity
  8
1外形線
 48
2.0
100
AcDbLine
 10
1407.255045095219
 20
-2028.639970449671
 30
0.0
 11
1403.755045095218
 21
-2028.639970449671
 31
0.0
  0
LINE
  5
10299
330
18
100
AcDbEntity
  8
1外形線
 48
2.0
100
AcDbLine
 10
1413.75504509522
 20
-2039.239970449671
 30
0.0
 11
1413.755045095219
 21
-2072.739970449671
 31
0.0
  0
LINE
  5
1029A
330
18
100
AcDbEntity
  8
1外形線
 48
2.0
100
AcDbLine
 10
1450.517775547694
 20
-2028.639970449672
 30
0.0
 11
1453.616694466611
 21
-2072.739970449672
 31
0.0
  0
LINE
  5
1029B
330
18
100
AcDbEntity
  8
1外形線
 48
2.0
100
AcDbLine
 10
1413.75504509522
 20
-2074.739970449671
 30
0.0
 11
1453.757235007152
 21
-2074.739970449671
 31
0.0
  0
LINE
  5
1029C
330
18
100
AcDbEntity
  8
1外形線
 48
2.0
100
AcDbLine
 10
1413.755045095219
 20
-2072.739970449671
 30
0.0
 11
1453.616694466611
 21
-2072.739970449672
 31
0.0
  0
LINE
  5
1029D
330
18
100
AcDbEntity
  8
1外形線
 48
2.0
100
AcDbLine
 10
1423.75504509522
 20
-2028.639970449672
 30
0.0
 11
1450.517775547695
 21
-2028.639970449672
 31
0.0
  0
LINE
  5
1029E
330
18
100
AcDbEntity
  8
1外形線
 48
2.0
100
AcDbLine
 10
1413.75504509522
 20
-2039.239970449671
 30
0.0
 11
1423.755045095219
 21
-2039.239970449671
 31
0.0
  0
LINE
  5
1029F
330
18
100
AcDbEntity
  8
1外形線
 48
2.0
100
AcDbLine
 10
1421.755045095216
 20
-2028.639970449671
 30
0.0
 11
1421.755045095215
 21
-2037.239970449671
 31
0.0
  0
LINE
  5
102A0
330
18
100
AcDbEntity
  8
1外形線
 48
2.0
100
AcDbLine
 10
1423.75504509522
 20
-2028.639970449672
 30
0.0
 11
1423.755045095219
 21
-2039.239970449671
 31
0.0
  0
LINE
  5
102A1
330
18
100
AcDbEntity
  8
1外形線
 48
2.0
100
AcDbLine
 10
1418.255045095219
 20
-2028.639970449671
 30
0.0
 11
1421.755045095216
 21
-2028.639970449671
 31
0.0
  0
LINE
  5
102A2
330
18
100
AcDbEntity
  8
1外形線
 48
2.0
100
AcDbLine
 10
1452.755045095219
 20
-2026.239970449671
 30
0.0
 11
1459.226936987111
 21
-2118.339970449671
 31
0.0
  0
LINE
  5
102A3
330
18
100
AcDbEntity
  8
1外形線
 48
2.0
100
AcDbLine
 10
1418.25504509522
 20
-2026.239970449671
 30
0.0
 11
1452.755045095219
 21
-2026.239970449671
 31
0.0
  0
LINE
  5
102A4
330
18
100
AcDbEntity
  8
1外形線
 48
3.0
100
AcDbLine
 10
1362.75504509522
 20
-2118.339970449671
 30
0.0
 11
1366.283153203328
 21
-2118.339970449671
 31
0.0
  0
LINE
  5
102A5
330
18
100
AcDbEntity
  8
1外形線
 48
2.0
100
AcDbLine
 10
1462.75504509522
 20
-2118.339970449671
 30
0.0
 11
1462.75504509522
 21
-2121.239970449672
 31
0.0
  0
LINE
  5
102A6
330
18
100
AcDbEntity
  8
1外形線
 48
3.0
100
AcDbLine
 10
1462.75504509522
 20
-2118.339970449671
 30
0.0
 11
1459.226936987111
 21
-2118.339970449671
 31
0.0
  0
LINE
  5
102A7
330
18
100
AcDbEntity
  8
1外形線
 48
3.0
100
AcDbLine
 10
1632.942203809848
 20
-2026.239970449671
 30
0.0
 11
1632.942203809848
 21
-2121.239970449671
 31
0.0
  0
LINE
  5
102A9
330
18
100
AcDbEntity
  8
1外形線
 48
3.0
100
AcDbLine
 10
1632.942203809848
 20
-2103.431298479828
 30
0.0
 11
2632.942203809848
 21
-2103.431298479828
 31
0.0
  0
LINE
  5
102AC
330
18
100
AcDbEntity
  8
1外形線
 48
3.0
100
AcDbLine
 10
1632.942203809848
 20
-2043.578885941698
 30
0.0
 11
2632.942203809849
 21
-2043.578885941697
 31
0.0
  0
LINE
  5
102AD
330
18
100
AcDbEntity
  8
1外形線
 48
3.0
100
AcDbLine
 10
1632.942203809848
 20
-2073.505092210763
 30
0.0
 11
2632.942203809848
 21
-2073.505092210763
 31
0.0
  0
LINE
  5
102AE
330
18
100
AcDbEntity
  8
1外形線
 48
3.0
100
AcDbLine
 10
1632.942203809848
 20
-2026.239970449671
 30
0.0
 11
2632.942203809848
 21
-2026.23997044967
 31
0.0
  0
LINE
  5
102AF
330
18
100
AcDbEntity
  8
1外形線
 48
3.0
100
AcDbLine
 10
1418.25504509522
 20
-2026.239970449671
 30
0.0
 11
1418.255045095219
 21
-2028.639970449671
 31
0.0
  0
LINE
  5
102B0
330
18
100
AcDbEntity
  8
1外形線
 48
3.0
100
AcDbLine
 10
1407.255045095219
 20
-2026.239970449671
 30
0.0
 11
1407.255045095219
 21
-2028.639970449671
 31
0.0
  0
LINE
  5
102B4
330
18
100
AcDbEntity
  8
1外形線
 48
3.0
100
AcDbLine
 10
1632.942203809848
 20
-2703.010540570673
 30
0.0
 11
2082.942203809848
 21
-2703.010540570673
 31
0.0
  0
LINE
  5
102B5
330
18
100
AcDbEntity
  8
1外形線
 48
3.0
100
AcDbLine
 10
1632.942203809848
 20
-4072.724628617247
 30
0.0
 11
2082.942203809848
 21
-4072.724628617247
 31
0.0
  0
LINE
  5
102B7
330
18
100
AcDbEntity
  8
1外形線
 48
2.0
100
AcDbLine
 10
1632.942203809848
 20
-2118.339970449673
 30
0.0
 11
2632.942203809848
 21
-2118.339970449673
 31
0.0
  0
LINE
  5
102D5
330
18
100
AcDbEntity
  8
1外形線
 48
3.0
100
AcDbLine
 10
2632.942203809848
 20
-2026.239970449671
 30
0.0
 11
2632.942203809848
 21
-2121.239970449671
 31
0.0
  0
LINE
  5
102D6
330
18
100
AcDbEntity
  8
1外形線
 48
3.0
100
AcDbLine
 10
2082.942203809848
 20
-2587.410540570671
 30
0.0
 11
2082.942203809848
 21
-2707.410540570672
 31
0.0
  0
LINE
  5
102D7
330
18
100
AcDbEntity
  8
1外形線
 48
3.0
100
AcDbLine
 10
1632.942203809848
 20
-3168.112224822559
 30
0.0
 11
1632.942203809848
 21
-3288.112224822559
 31
0.0
  0
LINE
  5
102D8
330
18
100
AcDbEntity
  8
1外形線
 48
2.0
100
AcDbLine
 10
1468.858433079569
 20
-3229.812224822558
 30
0.0
 11
1473.504984803707
 21
-3283.712224822558
 31
0.0
  0
LINE
  5
102D9
330
18
100
AcDbEntity
  8
1外形線
 48
2.0
100
AcDbLine
 10
1414.455045095216
 20
-3229.812224822558
 30
0.0
 11
1414.455045095216
 21
-3283.712224822558
 31
0.0
  0
LINE
  5
102DA
330
18
100
AcDbEntity
  8
1外形線
 48
2.0
100
AcDbLine
 10
1411.055045095217
 20
-3229.812224822558
 30
0.0
 11
1411.055045095216
 21
-3283.712224822558
 31
0.0
  0
LINE
  5
102DB
330
18
100
AcDbEntity
  8
1外形線
 48
2.0
100
AcDbLine
 10
1414.455045095216
 20
-3283.712224822558
 30
0.0
 11
1473.504984803707
 21
-3283.712224822558
 31
0.0
  0
LINE
  5
102DC
330
18
100
AcDbEntity
  8
1外形線
 48
2.0
100
AcDbLine
 10
1411.055045095216
 20
-3283.712224822558
 30
0.0
 11
1352.005105386726
 21
-3283.712224822558
 31
0.0
  0
LINE
  5
102DD
330
18
100
AcDbEntity
  8
1外形線
 48
2.0
100
AcDbLine
 10
1487.755045095217
 20
-3288.112224822559
 30
0.0
 11
1337.755045095217
 21
-3288.112224822559
 31
0.0
  0
LINE
  5
102DE
330
18
100
AcDbEntity
  8
1外形線
 48
2.0
100
AcDbLine
 10
1337.755045095217
 20
-3288.112224822559
 30
0.0
 11
1337.755045095217
 21
-3283.712224822558
 31
0.0
  0
LINE
  5
102DF
330
18
100
AcDbEntity
  8
1外形線
 48
2.0
100
AcDbLine
 10
1337.755045095217
 20
-3283.712224822558
 30
0.0
 11
1347.789527853836
 21
-3283.712224822558
 31
0.0
  0
ARC
  5
102E0
330
18
100
AcDbEntity
  8
1外形線
 48
2.0
100
AcDbCircle
 10
1349.709711490446
 20
-3259.109489905437
 30
0.0
 40
0.2
100
AcDbArc
 50
355.0728900523512
 51
19.7891571313394
  0
LINE
  5
102E1
330
18
100
AcDbEntity
  8
1外形線
 48
3.0
100
AcDbLine
 10
1632.942203809848
 20
-3257.95781417178
 30
0.0
 11
1735.926189185201
 21
-3257.95781417178
 31
0.0
  0
LINE
  5
102E2
330
18
100
AcDbEntity
  8
1外形線
 48
3.0
100
AcDbLine
 10
1632.942203809848
 20
-3288.112224822559
 30
0.0
 11
1731.934693424665
 21
-3288.112224822559
 31
0.0
  0
LINE
  5
102E3
330
18
100
AcDbEntity
  8
1外形線
 48
2.0
100
AcDbLine
 10
1487.755045095217
 20
-3288.112224822559
 30
0.0
 11
1487.755045095217
 21
-3284.612224822558
 31
0.0
  0
LINE
  5
102E4
330
18
100
AcDbEntity
  8
1外形線
 48
2.0
100
AcDbLine
 10
1460.580024696715
 20
-3168.112224822559
 30
0.0
 11
1467.755045095216
 21
-3168.112224822559
 31
0.0
  0
LINE
  5
102E5
330
18
100
AcDbEntity
  8
1外形線
 48
2.0
100
AcDbLine
 10
1407.505045095217
 20
-3168.112224822559
 30
0.0
 11
1366.930065493719
 21
-3168.112224822559
 31
0.0
  0
LINE
  5
102E6
330
18
100
AcDbEntity
  8
1外形線
 48
2.0
100
AcDbLine
 10
1421.755045095216
 20
-3172.312224822557
 30
0.0
 11
1421.755045095216
 21
-3180.712224822558
 31
0.0
  0
LINE
  5
102E7
330
18
100
AcDbEntity
  8
1外形線
 48
2.0
100
AcDbLine
 10
1403.755045095216
 20
-3172.312224822559
 30
0.0
 11
1403.755045095216
 21
-3180.712224822558
 31
0.0
  0
LINE
  5
102E8
330
18
100
AcDbEntity
  8
1外形線
 48
2.0
100
AcDbLine
 10
1412.755045095217
 20
-3180.912224822558
 30
0.0
 11
1421.555045095216
 21
-3180.912224822558
 31
0.0
  0
LINE
  5
102E9
330
18
100
AcDbEntity
  8
1外形線
 48
2.0
100
AcDbLine
 10
1412.755045095217
 20
-3180.912224822558
 30
0.0
 11
1403.955045095216
 21
-3180.912224822558
 31
0.0
  0
LINE
  5
102EA
330
18
100
AcDbEntity
  8
1外形線
 48
2.0
100
AcDbLine
 10
1408.755045095216
 20
-3184.312224822559
 30
0.0
 11
1402.255045095216
 21
-3184.312224822559
 31
0.0
  0
LINE
  5
102EB
330
18
100
AcDbEntity
  8
1外形線
 48
2.0
100
AcDbLine
 10
1407.505045095217
 20
-3168.312224822559
 30
0.0
 11
1407.505045095217
 21
-3171.712224822558
 31
0.0
  0
LINE
  5
102EC
330
18
100
AcDbEntity
  8
1外形線
 48
2.0
100
AcDbLine
 10
1418.005045095217
 20
-3168.312224822559
 30
0.0
 11
1418.005045095217
 21
-3171.712224822558
 31
0.0
  0
LINE
  5
102ED
330
18
100
AcDbEntity
  8
1外形線
 48
3.0
100
AcDbLine
 10
1632.942203809848
 20
-3168.112224822559
 30
0.0
 11
1729.553043947035
 21
-3168.112224822559
 31
0.0
  0
LINE
  5
102EE
330
18
100
AcDbEntity
  8
1外形線
 48
3.0
100
AcDbLine
 10
1632.942203809848
 20
-3198.179479660062
 30
0.0
 11
1725.22665488575
 21
-3198.179479660062
 31
0.0
  0
LINE
  5
102EF
330
18
100
AcDbEntity
  8
1外形線
 48
3.0
100
AcDbLine
 10
1632.942203809848
 20
-3228.068646915921
 30
0.0
 11
1730.441911309033
 21
-3228.068646915921
 31
0.0
  0
LINE
  5
102F0
330
18
100
AcDbEntity
  8
1外形線
 48
2.0
100
AcDbLine
 10
1467.755045095216
 20
-3168.112224822559
 30
0.0
 11
1468.37065859336
 21
-3175.253341401028
 31
0.0
  0
LINE
  5
102F1
330
18
100
AcDbEntity
  8
1外形線
 48
3.0
100
AcDbLine
 10
1632.942203809848
 20
-3168.112224822559
 30
0.0
 11
1632.942203809848
 21
-3288.112224822559
 31
0.0
  0
LINE
  5
102F3
330
18
100
AcDbEntity
  8
1外形線
 48
2.0
100
AcDbLine
 10
1356.651657110863
 20
-3229.812224822558
 30
0.0
 11
1352.005105386726
 21
-3283.712224822558
 31
0.0
  0
LINE
  5
102F4
330
18
100
AcDbEntity
  8
1外形線
 48
2.0
100
AcDbLine
 10
1407.755045095217
 20
-3283.712224822558
 30
0.0
 11
1354.293928635928
 21
-3283.712224822558
 31
0.0
  0
LINE
  5
102F5
330
18
100
AcDbEntity
  8
1外形線
 48
2.0
100
AcDbLine
 10
1352.555045095216
 20
-3288.112224822559
 30
0.0
 11
1337.755045095217
 21
-3288.112224822559
 31
0.0
  0
LINE
  5
102F6
330
18
100
AcDbEntity
  8
1外形線
 48
2.0
100
AcDbLine
 10
1337.755045095217
 20
-3288.112224822559
 30
0.0
 11
1337.755045095217
 21
-3284.612224822558
 31
0.0
  0
ARC
  5
102F7
330
18
100
AcDbEntity
  8
1外形線
 48
2.0
100
AcDbCircle
 10
1349.709711490446
 20
-3259.109489905437
 30
0.0
 40
0.2
100
AcDbArc
 50
355.0728900523512
 51
19.7891571313394
  0
LINE
  5
102F8
330
18
100
AcDbEntity
  8
1外形線
 48
3.0
100
AcDbLine
 10
1632.942203809848
 20
-3257.95781417178
 30
0.0
 11
3432.942203809848
 21
-3257.95781417178
 31
0.0
  0
LINE
  5
102F9
330
18
100
AcDbEntity
  8
1外形線
 48
3.0
100
AcDbLine
 10
1632.942203809848
 20
-3283.712224822558
 30
0.0
 11
3432.942203809848
 21
-3283.712224822558
 31
0.0
  0
LINE
  5
102FA
330
18
100
AcDbEntity
  8
1外形線
 48
3.0
100
AcDbLine
 10
1632.942203809848
 20
-3288.112224822559
 30
0.0
 11
3432.942203809848
 21
-3288.112224822557
 31
0.0
  0
LINE
  5
102FB
330
18
100
AcDbEntity
  8
1外形線
 48
2.0
100
AcDbLine
 10
1477.720562336596
 20
-3283.712224822558
 30
0.0
 11
1487.755045095217
 21
-3283.712224822558
 31
0.0
  0
LINE
  5
102FC
330
18
100
AcDbEntity
  8
1外形線
 48
2.0
100
AcDbLine
 10
1487.755045095217
 20
-3288.112224822559
 30
0.0
 11
1487.755045095217
 21
-3283.712224822558
 31
0.0
  0
LINE
  5
102FD
330
18
100
AcDbEntity
  8
1外形線
 48
2.0
100
AcDbLine
 10
1414.455045095216
 20
-3226.412224822558
 30
0.0
 11
1468.565329631293
 21
-3226.412224822559
 31
0.0
  0
LINE
  5
102FE
330
18
100
AcDbEntity
  8
1外形線
 48
2.0
100
AcDbLine
 10
1414.455045095216
 20
-3229.812224822558
 30
0.0
 11
1468.858433079569
 21
-3229.812224822558
 31
0.0
  0
LINE
  5
102FF
330
18
100
AcDbEntity
  8
1外形線
 48
2.0
100
AcDbLine
 10
1418.005045095217
 20
-3168.112224822559
 30
0.0
 11
1467.755045095216
 21
-3168.112224822559
 31
0.0
  0
LINE
  5
10300
330
18
100
AcDbEntity
  8
1外形線
 48
2.0
100
AcDbLine
 10
1400.355045095217
 20
-3172.312224822557
 30
0.0
 11
1361.608553662587
 21
-3172.312224822557
 31
0.0
  0
LINE
  5
10301
330
18
100
AcDbEntity
  8
1外形線
 48
2.0
100
AcDbLine
 10
1407.505045095217
 20
-3168.112224822559
 30
0.0
 11
1357.755045095216
 21
-3168.112224822559
 31
0.0
  0
LINE
  5
10302
330
18
100
AcDbEntity
  8
1外形線
 48
2.0
100
AcDbLine
 10
1411.055045095216
 20
-3226.412224822559
 30
0.0
 11
1356.944760559139
 21
-3226.412224822559
 31
0.0
  0
LINE
  5
10303
330
18
100
AcDbEntity
  8
1外形線
 48
2.0
100
AcDbLine
 10
1411.055045095216
 20
-3229.812224822558
 30
0.0
 11
1356.651657110863
 21
-3229.812224822558
 31
0.0
  0
LINE
  5
10304
330
18
100
AcDbEntity
  8
1外形線
 48
2.0
100
AcDbLine
 10
1421.755045095217
 20
-3172.312224822557
 30
0.0
 11
1421.755045095217
 21
-3180.912224822558
 31
0.0
  0
LINE
  5
10305
330
18
100
AcDbEntity
  8
1外形線
 48
2.0
100
AcDbLine
 10
1403.755045095216
 20
-3172.312224822559
 30
0.0
 11
1403.755045095216
 21
-3180.912224822558
 31
0.0
  0
LINE
  5
10306
330
18
100
AcDbEntity
  8
1外形線
 48
2.0
100
AcDbLine
 10
1414.455045095217
 20
-3184.312224822559
 30
0.0
 11
1425.155045095217
 21
-3184.312224822559
 31
0.0
  0
LINE
  5
10307
330
18
100
AcDbEntity
  8
1外形線
 48
2.0
100
AcDbLine
 10
1412.755045095217
 20
-3180.912224822558
 30
0.0
 11
1421.755045095217
 21
-3180.912224822558
 31
0.0
  0
LINE
  5
10308
330
18
100
AcDbEntity
  8
1外形線
 48
2.0
100
AcDbLine
 10
1414.455045095216
 20
-3184.312224822557
 30
0.0
 11
1414.455045095216
 21
-3226.412224822558
 31
0.0
  0
LINE
  5
10309
330
18
100
AcDbEntity
  8
1外形線
 48
2.0
100
AcDbLine
 10
1411.055045095217
 20
-3184.312224822559
 30
0.0
 11
1411.055045095216
 21
-3226.412224822559
 31
0.0
  0
LINE
  5
1030A
330
18
100
AcDbEntity
  8
1外形線
 48
2.0
100
AcDbLine
 10
1412.755045095217
 20
-3180.912224822558
 30
0.0
 11
1403.755045095216
 21
-3180.912224822558
 31
0.0
  0
LINE
  5
1030B
330
18
100
AcDbEntity
  8
1外形線
 48
2.0
100
AcDbLine
 10
1400.355045095217
 20
-3172.312224822557
 30
0.0
 11
1400.355045095216
 21
-3184.312224822557
 31
0.0
  0
LINE
  5
1030C
330
18
100
AcDbEntity
  8
1外形線
 48
2.0
100
AcDbLine
 10
1411.055045095216
 20
-3184.312224822559
 30
0.0
 11
1400.355045095216
 21
-3184.312224822557
 31
0.0
  0
LINE
  5
1030D
330
18
100
AcDbEntity
  8
1外形線
 48
2.0
100
AcDbLine
 10
1425.155045095216
 20
-3172.312224822557
 30
0.0
 11
1425.155045095217
 21
-3184.312224822559
 31
0.0
  0
LINE
  5
1030E
330
18
100
AcDbEntity
  8
1外形線
 48
2.0
100
AcDbLine
 10
1418.005045095217
 20
-3172.312224822557
 30
0.0
 11
1421.755045095216
 21
-3172.312224822557
 31
0.0
  0
LINE
  5
1030F
330
18
100
AcDbEntity
  8
1外形線
 48
2.0
100
AcDbLine
 10
1407.505045095217
 20
-3172.312224822559
 30
0.0
 11
1403.755045095216
 21
-3172.312224822559
 31
0.0
  0
LINE
  5
10310
330
18
100
AcDbEntity
  8
1外形線
 48
2.0
100
AcDbLine
 10
1407.505045095217
 20
-3168.112224822559
 30
0.0
 11
1407.505045095217
 21
-3172.312224822559
 31
0.0
  0
LINE
  5
10311
330
18
100
AcDbEntity
  8
1外形線
 48
2.0
100
AcDbLine
 10
1418.005045095217
 20
-3168.112224822559
 30
0.0
 11
1418.005045095217
 21
-3172.312224822557
 31
0.0
  0
LINE
  5
10312
330
18
100
AcDbEntity
  8
1外形線
 48
2.0
100
AcDbLine
 10
1425.155045095216
 20
-3172.312224822557
 30
0.0
 11
1463.901536527845
 21
-3172.312224822559
 31
0.0
  0
LINE
  5
10313
330
18
100
AcDbEntity
  8
1外形線
 48
3.0
100
AcDbLine
 10
1632.942203809848
 20
-3168.112224822559
 30
0.0
 11
3432.942203809848
 21
-3168.112224822559
 31
0.0
  0
LINE
  5
10314
330
18
100
AcDbEntity
  8
1外形線
 48
3.0
100
AcDbLine
 10
1632.942203809848
 20
-3198.179479660062
 30
0.0
 11
3432.942203809848
 21
-3198.179479660062
 31
0.0
  0
LINE
  5
10315
330
18
100
AcDbEntity
  8
1外形線
 48
3.0
100
AcDbLine
 10
1632.942203809848
 20
-3228.068646915921
 30
0.0
 11
3432.942203809848
 21
-3228.068646915921
 31
0.0
  0
LINE
  5
10316
330
18
100
AcDbEntity
  8
1外形線
 48
2.0
100
AcDbLine
 10
1467.755045095216
 20
-3168.112224822559
 30
0.0
 11
1477.720562336596
 21
-3283.712224822558
 31
0.0
  0
LINE
  5
10317
330
18
100
AcDbEntity
  8
1外形線
 48
3.0
100
AcDbLine
 10
1463.901536527845
 20
-3172.312224822559
 30
0.0
 11
1468.565329631293
 21
-3226.412224822558
 31
0.0
  0
LINE
  5
10318
330
18
100
AcDbEntity
  8
1外形線
 48
3.0
100
AcDbLine
 10
1361.608553662587
 20
-3172.312224822557
 30
0.0
 11
1356.944760559139
 21
-3226.412224822559
 31
0.0
  0
LINE
  5
10319
330
18
100
AcDbEntity
  8
1外形線
 48
3.0
100
AcDbLine
 10
1356.526035605267
 20
-3226.612224822558
 30
0.0
 11
1356.526035605267
 21
-3226.612224822558
 31
0.0
  0
LINE
  5
1031A
330
18
100
AcDbEntity
  8
1外形線
 48
3.0
100
AcDbLine
 10
1357.755045095216
 20
-3168.112224822559
 30
0.0
 11
1347.789527853836
 21
-3283.712224822558
 31
0.0
  0
LINE
  5
1031B
330
18
100
AcDbEntity
  8
1外形線
 48
3.0
100
AcDbLine
 10
3432.94220380985
 20
-3168.112224822559
 30
0.0
 11
3432.94220380985
 21
-3288.112224822559
 31
0.0
  0
LINE
  5
10327
330
18
100
AcDbEntity
  8
1外形線
 48
2.0
100
AcDbLine
 10
1310.255045095217
 20
-4960.75042170016
 30
0.0
 11
1352.555045095217
 21
-4960.75042170016
 31
0.0
  0
LINE
  5
10328
330
18
100
AcDbEntity
  8
1外形線
 48
2.0
100
AcDbLine
 10
1332.251042417299
 20
-4924.5864348729
 30
0.0
 11
1329.920507686553
 21
-4947.463880721598
 31
0.0
  0
LINE
  5
10329
330
18
100
AcDbEntity
  8
1外形線
 48
2.0
100
AcDbLine
 10
1319.971995194132
 20
-4956.050421700158
 30
0.0
 11
1310.755045095217
 21
-4956.050421700158
 31
0.0
  0
LINE
  5
1032A
330
18
100
AcDbEntity
  8
1外形線
 48
2.0
100
AcDbLine
 10
1310.255045095217
 20
-4956.950421700159
 30
0.0
 11
1310.255045095217
 21
-4960.75042170016
 31
0.0
  0
LINE
  5
10330
330
18
100
AcDbEntity
  8
1外形線
 48
2.0
100
AcDbLine
 10
1493.259047773135
 20
-4924.5864348729
 30
0.0
 11
1495.58958250388
 21
-4947.463880721598
 31
0.0
  0
LINE
  5
10331
330
18
100
AcDbEntity
  8
1外形線
 48
2.0
100
AcDbLine
 10
1515.255045095217
 20
-4956.950421700159
 30
0.0
 11
1515.255045095217
 21
-4960.75042170016
 31
0.0
  0
LINE
  5
10332
330
18
100
AcDbEntity
  8
1外形線
 48
2.0
100
AcDbLine
 10
1421.555045095217
 20
-4821.250421700159
 30
0.0
 11
1403.955045095217
 21
-4821.250421700159
 31
0.0
  0
LINE
  5
10333
330
18
100
AcDbEntity
  8
1外形線
 48
2.0
100
AcDbLine
 10
1342.973397467346
 20
-4819.331579070143
 30
0.0
 11
1340.571018714224
 21
-4842.914274108989
 31
0.0
  0
LINE
  5
10337
330
18
100
AcDbEntity
  8
1外形線
 48
2.0
100
AcDbLine
 10
1399.755045095217
 20
-4811.450421700158
 30
0.0
 11
1348.500578548727
 21
-4811.450421700158
 31
0.0
  0
LINE
  5
1033B
330
18
100
AcDbEntity
  8
1外形線
 48
2.0
100
AcDbLine
 10
1407.305045095216
 20
-4806.750421700158
 30
0.0
 11
1356.901314956736
 21
-4806.750421700158
 31
0.0
  0
LINE
  5
1033C
330
18
100
AcDbEntity
  8
1外形線
 62
     3
 48
2.0
100
AcDbLine
 10
1403.755045095217
 20
-4812.450421700158
 30
0.0
 11
1403.755045095217
 21
-4821.05042170016
 31
0.0
  0
LINE
  5
10341
330
18
100
AcDbEntity
  8
1外形線
 48
2.0
100
AcDbLine
 10
1407.305045095216
 20
-4812.250421700158
 30
0.0
 11
1403.955045095217
 21
-4812.250421700158
 31
0.0
  0
LINE
  5
10342
330
18
100
AcDbEntity
  8
1外形線
 62
     3
 48
2.0
100
AcDbLine
 10
1407.505045095217
 20
-4806.950421700157
 30
0.0
 11
1407.505045095217
 21
-4812.05042170016
 31
0.0
  0
LINE
  5
10343
330
18
100
AcDbEntity
  8
1外形線
 48
2.0
100
AcDbLine
 10
1482.536692723088
 20
-4819.331579070143
 30
0.0
 11
1484.93907147621
 21
-4842.914274108989
 31
0.0
  0
LINE
  5
10346
330
18
100
AcDbEntity
  8
1外形線
 48
2.0
100
AcDbLine
 10
1418.205045095217
 20
-4806.750421700158
 30
0.0
 11
1468.608775233698
 21
-4806.750421700158
 31
0.0
  0
LINE
  5
10347
330
18
100
AcDbEntity
  8
1外形線
 62
     3
 48
2.0
100
AcDbLine
 10
1421.755045095217
 20
-4812.450421700158
 30
0.0
 11
1421.755045095217
 21
-4821.05042170016
 31
0.0
  0
LINE
  5
10349
330
18
100
AcDbEntity
  8
1外形線
 48
2.0
100
AcDbLine
 10
1418.205045095217
 20
-4812.250421700158
 30
0.0
 11
1421.555045095217
 21
-4812.250421700158
 31
0.0
  0
LINE
  5
1034B
330
18
100
AcDbEntity
  8
1外形線
 62
     3
 48
2.0
100
AcDbLine
 10
1418.005045095217
 20
-4806.950421700157
 30
0.0
 11
1418.005045095217
 21
-4812.05042170016
 31
0.0
  0
LINE
  5
1034F
330
18
100
AcDbEntity
  8
1外形線
 48
2.0
100
AcDbLine
 10
1310.255045095217
 20
-4960.75042170016
 30
0.0
 11
1515.255045095217
 21
-4960.75042170016
 31
0.0
  0
LINE
  5
10350
330
18
100
AcDbEntity
  8
1外形線
 48
2.0
100
AcDbLine
 10
1333.770117626883
 20
-4956.050421700158
 30
0.0
 11
1410.805045095217
 21
-4956.050421700158
 31
0.0
  0
LINE
  5
10351
330
18
100
AcDbEntity
  8
1外形線
 48
2.0
100
AcDbLine
 10
1340.936700793215
 20
-4885.700421700159
 30
0.0
 11
1333.770117626883
 21
-4956.050421700159
 31
0.0
  0
LINE
  5
10352
330
18
100
AcDbEntity
  8
1外形線
 48
2.0
100
AcDbLine
 10
1332.251042417299
 20
-4924.5864348729
 30
0.0
 11
1329.045793258209
 21
-4956.050421700158
 31
0.0
  0
LINE
  5
10353
330
18
100
AcDbEntity
  8
1外形線
 48
2.0
100
AcDbLine
 10
1329.045793258209
 20
-4956.050421700158
 30
0.0
 11
1310.255045095217
 21
-4956.050421700158
 31
0.0
  0
LINE
  5
10354
330
18
100
AcDbEntity
  8
1外形線
 48
2.0
100
AcDbLine
 10
1310.255045095217
 20
-4956.050421700158
 30
0.0
 11
1310.255045095217
 21
-4960.75042170016
 31
0.0
  0
LINE
  5
10357
330
18
100
AcDbEntity
  8
1外形線
 62
     3
 48
2.0
100
AcDbLine
 10
1410.805045095217
 20
-4885.700421700159
 30
0.0
 11
1410.805045095217
 21
-4956.050421700158
 31
0.0
  0
LINE
  5
10358
330
18
100
AcDbEntity
  8
1外形線
 62
     3
 48
2.0
100
AcDbLine
 10
1414.705045095217
 20
-4885.700421700159
 30
0.0
 11
1414.705045095217
 21
-4956.050421700158
 31
0.0
  0
LINE
  5
10359
330
18
100
AcDbEntity
  8
1外形線
 48
2.0
100
AcDbLine
 10
1484.573389397218
 20
-4885.700421700159
 30
0.0
 11
1491.73997256355
 21
-4956.050421700158
 31
0.0
  0
LINE
  5
1035A
330
18
100
AcDbEntity
  8
1外形線
 48
2.0
100
AcDbLine
 10
1491.73997256355
 20
-4956.050421700158
 30
0.0
 11
1414.705045095217
 21
-4956.050421700159
 31
0.0
  0
LINE
  5
1035E
330
18
100
AcDbEntity
  8
1外形線
 48
2.0
100
AcDbLine
 10
1493.259047773135
 20
-4924.5864348729
 30
0.0
 11
1496.464296932224
 21
-4956.050421700158
 31
0.0
  0
LINE
  5
1035F
330
18
100
AcDbEntity
  8
1外形線
 48
2.0
100
AcDbLine
 10
1496.464296932224
 20
-4956.050421700158
 30
0.0
 11
1515.255045095217
 21
-4956.050421700158
 31
0.0
  0
LINE
  5
10360
330
18
100
AcDbEntity
  8
1外形線
 48
2.0
100
AcDbLine
 10
1515.255045095217
 20
-4956.050421700158
 30
0.0
 11
1515.255045095217
 21
-4960.75042170016
 31
0.0
  0
LINE
  5
10361
330
18
100
AcDbEntity
  8
1外形線
 48
2.0
100
AcDbLine
 10
1421.755045095217
 20
-4821.250421700159
 30
0.0
 11
1403.755045095217
 21
-4821.250421700159
 31
0.0
  0
LINE
  5
10362
330
18
100
AcDbEntity
  8
1外形線
 48
2.0
100
AcDbLine
 10
1344.255045095217
 20
-4806.750421700158
 30
0.0
 11
1340.571018714224
 21
-4842.914274108989
 31
0.0
  0
LINE
  5
10363
330
18
100
AcDbEntity
  8
1外形線
 48
2.0
100
AcDbLine
 10
1348.500578548727
 20
-4811.450421700158
 30
0.0
 11
1341.333995382394
 21
-4881.800421700158
 31
0.0
  0
LINE
  5
10364
330
18
100
AcDbEntity
  8
1外形線
 62
     3
 48
2.0
100
AcDbLine
 10
1410.805045095217
 20
-4825.250421700157
 30
0.0
 11
1410.805045095217
 21
-4881.800421700158
 31
0.0
  0
LINE
  5
10365
330
18
100
AcDbEntity
  8
1外形線
 62
     3
 48
2.0
100
AcDbLine
 10
1410.805045095217
 20
-4885.700421700159
 30
0.0
 11
1340.936700793215
 21
-4885.700421700159
 31
0.0
  0
LINE
  5
10366
330
18
100
AcDbEntity
  8
1外形線
 62
     3
 48
2.0
100
AcDbLine
 10
1410.805045095217
 20
-4881.800421700158
 30
0.0
 11
1341.333995382394
 21
-4881.800421700158
 31
0.0
  0
LINE
  5
1036D
330
18
100
AcDbEntity
  8
1外形線
 48
2.0
100
AcDbLine
 10
1407.505045095217
 20
-4806.750421700158
 30
0.0
 11
1344.255045095217
 21
-4806.750421700158
 31
0.0
  0
LINE
  5
1036E
330
18
100
AcDbEntity
  8
1外形線
 62
     3
 48
2.0
100
AcDbLine
 10
1399.755045095217
 20
-4811.450421700158
 30
0.0
 11
1399.755045095217
 21
-4825.250421700157
 31
0.0
  0
LINE
  5
1036F
330
18
100
AcDbEntity
  8
1外形線
 62
     3
 48
2.0
100
AcDbLine
 10
1403.755045095217
 20
-4812.250421700158
 30
0.0
 11
1403.755045095217
 21
-4821.250421700159
 31
0.0
  0
LINE
  5
10370
330
18
100
AcDbEntity
  8
1外形線
 48
2.0
100
AcDbLine
 10
1399.755045095217
 20
-4825.250421700157
 30
0.0
 11
1410.805045095217
 21
-4825.250421700158
 31
0.0
  0
LINE
  5
10375
330
18
100
AcDbEntity
  8
1外形線
 48
2.0
100
AcDbLine
 10
1407.505045095217
 20
-4812.250421700158
 30
0.0
 11
1403.755045095217
 21
-4812.250421700158
 31
0.0
  0
LINE
  5
10376
330
18
100
AcDbEntity
  8
1外形線
 62
     3
 48
2.0
100
AcDbLine
 10
1407.505045095217
 20
-4806.750421700158
 30
0.0
 11
1407.505045095217
 21
-4812.250421700158
 31
0.0
  0
LINE
  5
10377
330
18
100
AcDbEntity
  8
1外形線
 48
2.0
100
AcDbLine
 10
1481.255045095217
 20
-4806.750421700158
 30
0.0
 11
1484.93907147621
 21
-4842.914274108989
 31
0.0
  0
LINE
  5
10378
330
18
100
AcDbEntity
  8
1外形線
 48
2.0
100
AcDbLine
 10
1477.009511641706
 20
-4811.450421700158
 30
0.0
 11
1484.176094808039
 21
-4881.800421700158
 31
0.0
  0
LINE
  5
10379
330
18
100
AcDbEntity
  8
1外形線
 62
     3
 48
2.0
100
AcDbLine
 10
1414.705045095217
 20
-4825.250421700157
 30
0.0
 11
1414.705045095217
 21
-4881.800421700158
 31
0.0
  0
LINE
  5
1037A
330
18
100
AcDbEntity
  8
1外形線
 62
     3
 48
2.0
100
AcDbLine
 10
1414.705045095217
 20
-4885.700421700159
 30
0.0
 11
1484.573389397218
 21
-4885.700421700159
 31
0.0
  0
LINE
  5
1037B
330
18
100
AcDbEntity
  8
1外形線
 62
     3
 48
2.0
100
AcDbLine
 10
1414.705045095217
 20
-4881.800421700158
 30
0.0
 11
1484.176094808039
 21
-4881.800421700158
 31
0.0
  0
LINE
  5
1037E
330
18
100
AcDbEntity
  8
1外形線
 48
2.0
100
AcDbLine
 10
1425.755045095217
 20
-4811.450421700158
 30
0.0
 11
1477.009511641706
 21
-4811.450421700158
 31
0.0
  0
LINE
  5
1037F
330
18
100
AcDbEntity
  8
1外形線
 48
2.0
100
AcDbLine
 10
1418.005045095217
 20
-4806.750421700158
 30
0.0
 11
1481.255045095217
 21
-4806.750421700158
 31
0.0
  0
LINE
  5
10380
330
18
100
AcDbEntity
  8
1外形線
 62
     3
 48
2.0
100
AcDbLine
 10
1425.755045095218
 20
-4811.450421700158
 30
0.0
 11
1425.755045095216
 21
-4825.250421700157
 31
0.0
  0
LINE
  5
10381
330
18
100
AcDbEntity
  8
1外形線
 62
     3
 48
2.0
100
AcDbLine
 10
1421.755045095217
 20
-4812.250421700158
 30
0.0
 11
1421.755045095217
 21
-4821.250421700159
 31
0.0
  0
LINE
  5
10382
330
18
100
AcDbEntity
  8
1外形線
 48
2.0
100
AcDbLine
 10
1425.755045095216
 20
-4825.250421700157
 30
0.0
 11
1414.705045095217
 21
-4825.250421700157
 31
0.0
  0
LINE
  5
10384
330
18
100
AcDbEntity
  8
1外形線
 48
2.0
100
AcDbLine
 10
1418.005045095217
 20
-4812.250421700158
 30
0.0
 11
1421.755045095217
 21
-4812.250421700158
 31
0.0
  0
LINE
  5
10386
330
18
100
AcDbEntity
  8
1外形線
 62
     3
 48
2.0
100
AcDbLine
 10
1418.005045095217
 20
-4806.750421700158
 30
0.0
 11
1418.005045095217
 21
-4812.250421700158
 31
0.0
  0
LINE
  5
1038A
330
18
100
AcDbEntity
  8
1外形線
 48
3.0
100
AcDbLine
 10
1632.942203809848
 20
-4806.750421700158
 30
0.0
 11
1632.942203809848
 21
-4960.75042170016
 31
0.0
  0
LINE
  5
1038B
330
18
100
AcDbEntity
  8
1外形線
 48
3.0
100
AcDbLine
 10
1632.942203809848
 20
-4960.75042170016
 30
0.0
 11
1731.934693424665
 21
-4960.75042170016
 31
0.0
  0
LINE
  5
1038C
330
18
100
AcDbEntity
  8
1外形線
 48
3.0
100
AcDbLine
 10
1632.942203809848
 20
-4806.750421700158
 30
0.0
 11
1632.942203809848
 21
-4960.75042170016
 31
0.0
  0
LINE
  5
1038E
330
18
100
AcDbEntity
  8
1外形線
 48
3.0
100
AcDbLine
 10
1632.942203809848
 20
-4960.75042170016
 30
0.0
 11
3432.94220380985
 21
-4960.75042170016
 31
0.0
  0
LINE
  5
1038F
330
18
100
AcDbEntity
  8
1外形線
 48
3.0
100
AcDbLine
 10
1632.942203809848
 20
-4806.750421700158
 30
0.0
 11
3432.94220380985
 21
-4806.750421700158
 31
0.0
  0
LINE
  5
10390
330
18
100
AcDbEntity
  8
1外形線
 48
3.0
100
AcDbLine
 10
1632.942203809848
 20
-4956.050421700158
 30
0.0
 11
3432.94220380985
 21
-4956.050421700158
 31
0.0
  0
LINE
  5
10391
330
18
100
AcDbEntity
  8
1外形線
 48
3.0
100
AcDbLine
 10
1632.942203809848
 20
-4843.906311007221
 30
0.0
 11
3432.94220380985
 21
-4843.906311007222
 31
0.0
  0
LINE
  5
10392
330
18
100
AcDbEntity
  8
1外形線
 48
3.0
100
AcDbLine
 10
1632.942203809848
 20
-4883.75042170016
 30
0.0
 11
3432.94220380985
 21
-4883.550993568173
 31
0.0
  0
LINE
  5
10393
330
18
100
AcDbEntity
  8
1外形線
 48
3.0
100
AcDbLine
 10
1632.942203809848
 20
-4923.494818327103
 30
0.0
 11
3432.94220380985
 21
-4923.494818327103
 31
0.0
  0
LINE
  5
10394
330
18
100
AcDbEntity
  8
1外形線
 48
3.0
100
AcDbLine
 10
1484.93907147621
 20
-4842.914274108989
 30
0.0
 11
1493.259047773135
 21
-4924.5864348729
 31
0.0
  0
LINE
  5
10395
330
18
100
AcDbEntity
  8
1外形線
 48
3.0
100
AcDbLine
 10
1340.571018714224
 20
-4842.914274108989
 30
0.0
 11
1332.251042417299
 21
-4924.5864348729
 31
0.0
  0
LINE
  5
10396
330
18
100
AcDbEntity
  8
1外形線
 48
3.0
100
AcDbLine
 10
3432.94220380985
 20
-4806.750421700158
 30
0.0
 11
3432.94220380985
 21
-4960.75042170016
 31
0.0
  0
LINE
  5
105F4
330
18
100
AcDbEntity
  8
1外形線
 48
2.0
100
AcDbLine
 10
1462.75504509522
 20
-1134.949422712939
 30
0.0
 11
1362.75504509522
 21
-1134.949422712939
 31
0.0
  0
LINE
  5
10602
330
18
100
AcDbEntity
  8
1外形線
 48
2.0
100
AcDbLine
 10
1632.942203809848
 20
-1134.949422712939
 30
0.0
 11
1992.942203809848
 21
-1134.949422712939
 31
0.0
  0
LINE
  5
1060A
330
18
100
AcDbEntity
  8
1外形線
 48
2.0
100
AcDbLine
 10
1457.255045095219
 20
-1597.878762062816
 30
0.0
 11
1357.255045095219
 21
-1597.878762062816
 31
0.0
  0
LINE
  5
1060B
330
18
100
AcDbEntity
  8
1外形線
 48
2.0
100
AcDbLine
 10
1627.442203809847
 20
-1597.878762062816
 30
0.0
 11
2077.442203809848
 21
-1597.878762062816
 31
0.0
  0
LINE
  5
10619
330
18
100
AcDbEntity
  8
1外形線
 48
2.0
100
AcDbLine
 10
1462.75504509522
 20
-2121.239970449672
 30
0.0
 11
1362.75504509522
 21
-2121.239970449672
 31
0.0
  0
LINE
  5
1061A
330
18
100
AcDbEntity
  8
1外形線
 48
2.0
100
AcDbLine
 10
1632.942203809848
 20
-2121.239970449672
 30
0.0
 11
2632.942203809848
 21
-2121.239970449671
 31
0.0
  0
LINE
  5
1069C
330
18
100
AcDbEntity
  8
1外形線
 48
3.0
100
AcDbLine
 10
1633.000017772551
 20
-450.3180589965007
 30
0.0
 11
1993.000017772551
 21
-450.3180589965007
 31
0.0
  0
LINE
  5
1069D
330
18
100
AcDbEntity
  8
1外形線
 48
3.0
100
AcDbLine
 10
1633.000017772551
 20
-364.3180589965008
 30
0.0
 11
1993.000017772551
 21
-364.3180589965008
 31
0.0
  0
LINE
  5
1069E
330
18
100
AcDbEntity
  8
1外形線
 48
3.0
100
AcDbLine
 10
1633.000017772551
 20
-364.3180589965008
 30
0.0
 11
1633.000017772551
 21
-450.3180589965007
 31
0.0
  0
LINE
  5
1069F
330
18
100
AcDbEntity
  8
1外形線
 48
3.0
100
AcDbLine
 10
1993.000017772551
 20
-364.3180589965008
 30
0.0
 11
1993.000017772551
 21
-450.3180589965007
 31
0.0
  0
LINE
  5
106A1
330
18
100
AcDbEntity
  8
1外形線
 48
3.0
100
AcDbLine
 10
1633.000017772551
 20
-401.8180589965007
 30
0.0
 11
1993.000017772551
 21
-401.8180589965007
 31
0.0
  0
LINE
  5
106A2
330
18
100
AcDbEntity
  8
1外形線
 48
3.0
100
AcDbLine
 10
1633.000017772551
 20
-412.8180589965007
 30
0.0
 11
1993.000017772551
 21
-412.8180589965007
 31
0.0
  0
LINE
  5
10739
330
18
100
AcDbEntity
  8
1外形線
 48
3.0
100
AcDbLine
 10
1632.942203809848
 20
-939.949422712938
 30
0.0
 11
1992.942203809848
 21
-939.949422712938
 31
0.0
  0
LINE
  5
1073A
330
18
100
AcDbEntity
  8
1外形線
 48
3.0
100
AcDbLine
 10
1627.442203809847
 20
-1402.878762062814
 30
0.0
 11
2077.442203809848
 21
-1402.878762062814
 31
0.0
  0
LINE
  5
1073B
330
18
100
AcDbEntity
  8
1外形線
 48
3.0
100
AcDbLine
 10
1632.942203809848
 20
-839.949422712938
 30
0.0
 11
1992.942203809848
 21
-839.949422712938
 31
0.0
  0
LINE
  5
1073C
330
18
100
AcDbEntity
  8
1外形線
 48
3.0
100
AcDbLine
 10
1627.442203809847
 20
-1302.878762062814
 30
0.0
 11
2077.442203809848
 21
-1302.878762062814
 31
0.0
  0
LINE
  5
10744
330
18
100
AcDbEntity
  8
1外形線
 48
3.0
100
AcDbLine
 10
1632.942203809848
 20
-839.949422712938
 30
0.0
 11
1632.942203809848
 21
-939.949422712938
 31
0.0
  0
LINE
  5
10745
330
18
100
AcDbEntity
  8
1外形線
 48
3.0
100
AcDbLine
 10
1992.942203809848
 20
-839.949422712938
 30
0.0
 11
1992.942203809848
 21
-939.949422712938
 31
0.0
  0
LINE
  5
10746
330
18
100
AcDbEntity
  8
1外形線
 48
3.0
100
AcDbLine
 10
1992.942203809848
 20
-939.949422712938
 30
0.0
 11
1992.942203809848
 21
-939.949422712938
 31
0.0
  0
LINE
  5
10747
330
18
100
AcDbEntity
  8
1外形線
 48
3.0
100
AcDbLine
 10
1627.442203809847
 20
-1402.878762062814
 30
0.0
 11
1627.442203809847
 21
-1302.878762062814
 31
0.0
  0
LINE
  5
10748
330
18
100
AcDbEntity
  8
1外形線
 48
3.0
100
AcDbLine
 10
2077.442203809848
 20
-1302.878762062814
 30
0.0
 11
2077.442203809848
 21
-1402.878762062814
 31
0.0
  0
LINE
  5
10752
330
18
100
AcDbEntity
  8
1外形線
 48
3.0
100
AcDbLine
 10
1632.942203809848
 20
-884.4494227129381
 30
0.0
 11
1992.942203809848
 21
-884.4494227129381
 31
0.0
  0
LINE
  5
10753
330
18
100
AcDbEntity
  8
1外形線
 48
3.0
100
AcDbLine
 10
1632.942203809848
 20
-895.449422712938
 30
0.0
 11
1992.942203809848
 21
-895.449422712938
 31
0.0
  0
LINE
  5
10754
330
18
100
AcDbEntity
  8
1外形線
 48
3.0
100
AcDbLine
 10
1627.442203809847
 20
-1347.378762062814
 30
0.0
 11
2077.442203809848
 21
-1347.378762062814
 31
0.0
  0
LINE
  5
10755
330
18
100
AcDbEntity
  8
1外形線
 48
3.0
100
AcDbLine
 10
1627.442203809847
 20
-1358.378762062814
 30
0.0
 11
2077.442203809848
 21
-1358.378762062814
 31
0.0
  0
LINE
  5
10791
330
18
100
AcDbEntity
  8
1外形線
 48
3.0
100
AcDbLine
 10
1632.942203809848
 20
-1926.239970449671
 30
0.0
 11
2632.942203809848
 21
-1926.23997044967
 31
0.0
  0
LINE
  5
10792
330
18
100
AcDbEntity
  8
1外形線
 48
3.0
100
AcDbLine
 10
1632.942203809848
 20
-2487.410540570671
 30
0.0
 11
2082.942203809848
 21
-2487.410540570671
 31
0.0
  0
LINE
  5
10793
330
18
100
AcDbEntity
  8
1外形線
 48
3.0
100
AcDbLine
 10
1632.942203809848
 20
-3068.112224822558
 30
0.0
 11
3432.942203809848
 21
-3068.112224822558
 31
0.0
  0
LINE
  5
10794
330
18
100
AcDbEntity
  8
1外形線
 48
3.0
100
AcDbLine
 10
1632.942203809848
 20
-3823.424628617247
 30
0.0
 11
2082.942203809848
 21
-3823.424628617247
 31
0.0
  0
LINE
  5
10795
330
18
100
AcDbEntity
  8
1外形線
 48
3.0
100
AcDbLine
 10
1632.942203809848
 20
-4706.750421700157
 30
0.0
 11
3432.94220380985
 21
-4706.750421700157
 31
0.0
  0
LINE
  5
10796
330
18
100
AcDbEntity
  8
1外形線
 48
3.0
100
AcDbLine
 10
1632.942203809848
 20
-1826.239970449671
 30
0.0
 11
2632.942203809848
 21
-1826.23997044967
 31
0.0
  0
LINE
  5
107A4
330
18
100
AcDbEntity
  8
1外形線
 48
3.0
100
AcDbLine
 10
1632.942203809848
 20
-2337.410540570671
 30
0.0
 11
2082.942203809848
 21
-2337.410540570671
 31
0.0
  0
LINE
  5
107A5
330
18
100
AcDbEntity
  8
1外形線
 48
3.0
100
AcDbLine
 10
1632.942203809848
 20
-2918.112224822559
 30
0.0
 11
3432.942203809848
 21
-2918.112224822559
 31
0.0
  0
LINE
  5
107B3
330
18
100
AcDbEntity
  8
1外形線
 48
3.0
100
AcDbLine
 10
1632.942203809848
 20
-3618.424628617248
 30
0.0
 11
2082.942203809848
 21
-3618.424628617248
 31
0.0
  0
LINE
  5
107B4
330
18
100
AcDbEntity
  8
1外形線
 48
3.0
100
AcDbLine
 10
1632.942203809848
 20
-4501.750421700157
 30
0.0
 11
3432.94220380985
 21
-4501.750421700157
 31
0.0
  0
LINE
  5
107B5
330
18
100
AcDbEntity
  8
1外形線
 48
3.0
100
AcDbLine
 10
1632.942203809848
 20
-1826.239970449671
 30
0.0
 11
1632.942203809848
 21
-1926.239970449671
 31
0.0
  0
LINE
  5
107B6
330
18
100
AcDbEntity
  8
1外形線
 48
3.0
100
AcDbLine
 10
2632.942203809848
 20
-1826.23997044967
 30
0.0
 11
2632.942203809848
 21
-1926.23997044967
 31
0.0
  0
LINE
  5
107B7
330
18
100
AcDbEntity
  8
1外形線
 48
3.0
100
AcDbLine
 10
1632.942203809848
 20
-2337.410540570671
 30
0.0
 11
1632.942203809848
 21
-2487.410540570671
 31
0.0
  0
LINE
  5
107B8
330
18
100
AcDbEntity
  8
1外形線
 48
3.0
100
AcDbLine
 10
2082.942203809848
 20
-2337.410540570671
 30
0.0
 11
2082.942203809848
 21
-2487.410540570671
 31
0.0
  0
LINE
  5
107B9
330
18
100
AcDbEntity
  8
1外形線
 48
3.0
100
AcDbLine
 10
1632.942203809848
 20
-2918.112224822559
 30
0.0
 11
1632.942203809848
 21
-3068.112224822558
 31
0.0
  0
LINE
  5
107BA
330
18
100
AcDbEntity
  8
1外形線
 48
3.0
100
AcDbLine
 10
1632.942203809848
 20
-3068.112224822558
 30
0.0
 11
1632.942203809848
 21
-3068.112224822558
 31
0.0
  0
LINE
  5
107BB
330
18
100
AcDbEntity
  8
1外形線
 48
3.0
100
AcDbLine
 10
1632.942203809848
 20
-3068.112224822558
 30
0.0
 11
1632.942203809848
 21
-3068.112224822558
 31
0.0
  0
LINE
  5
107BC
330
18
100
AcDbEntity
  8
1外形線
 48
3.0
100
AcDbLine
 10
3432.942203809848
 20
-2918.112224822559
 30
0.0
 11
3432.942203809848
 21
-3068.112224822558
 31
0.0
  0
LINE
  5
107BD
330
18
100
AcDbEntity
  8
1外形線
 48
3.0
100
AcDbLine
 10
1632.942203809848
 20
-3618.424628617248
 30
0.0
 11
1632.942203809848
 21
-3823.424628617247
 31
0.0
  0
LINE
  5
107BE
330
18
100
AcDbEntity
  8
1外形線
 48
3.0
100
AcDbLine
 10
2082.942203809848
 20
-3618.424628617248
 30
0.0
 11
2082.942203809848
 21
-3823.424628617247
 31
0.0
  0
LINE
  5
107BF
330
18
100
AcDbEntity
  8
1外形線
 48
3.0
100
AcDbLine
 10
1632.942203809848
 20
-4501.750421700157
 30
0.0
 11
1632.942203809848
 21
-4706.750421700157
 31
0.0
  0
LINE
  5
107C0
330
18
100
AcDbEntity
  8
1外形線
 48
3.0
100
AcDbLine
 10
3432.94220380985
 20
-4501.750421700157
 30
0.0
 11
3432.94220380985
 21
-4706.750421700157
 31
0.0
  0
LINE
  5
107D9
330
18
100
AcDbEntity
  8
1外形線
 48
3.0
100
AcDbLine
 10
1632.942203809848
 20
-1881.739970449671
 30
0.0
 11
2632.942203809848
 21
-1881.739970449671
 31
0.0
  0
LINE
  5
107DA
330
18
100
AcDbEntity
  8
1外形線
 48
3.0
100
AcDbLine
 10
1632.942203809848
 20
-1870.739970449671
 30
0.0
 11
2632.942203809848
 21
-1870.739970449671
 31
0.0
  0
LINE
  5
107DC
330
18
100
AcDbEntity
  8
1外形線
 48
3.0
100
AcDbLine
 10
1632.942203809848
 20
-2407.160540570671
 30
0.0
 11
2082.942203809848
 21
-2407.160540570671
 31
0.0
  0
LINE
  5
107DD
330
18
100
AcDbEntity
  8
1外形線
 48
3.0
100
AcDbLine
 10
1632.942203809848
 20
-2417.660540570671
 30
0.0
 11
2082.942203809848
 21
-2417.660540570671
 31
0.0
  0
LINE
  5
107F8
330
18
100
AcDbEntity
  8
1外形線
 48
3.0
100
AcDbLine
 10
1632.942203809848
 20
-2998.362224822558
 30
0.0
 11
3432.942203809848
 21
-2998.362224822558
 31
0.0
  0
LINE
  5
107F9
330
18
100
AcDbEntity
  8
1外形線
 48
3.0
100
AcDbLine
 10
1632.942203809848
 20
-2987.862224822558
 30
0.0
 11
3432.942203809848
 21
-2987.862224822558
 31
0.0
  0
LINE
  5
107FB
330
18
100
AcDbEntity
  8
1外形線
 48
3.0
100
AcDbLine
 10
1632.942203809848
 20
-3715.674628617247
 30
0.0
 11
2082.942203809848
 21
-3715.674628617247
 31
0.0
  0
LINE
  5
107FC
330
18
100
AcDbEntity
  8
1外形線
 48
3.0
100
AcDbLine
 10
1632.942203809848
 20
-3726.174628617247
 30
0.0
 11
2082.942203809848
 21
-3726.174628617247
 31
0.0
  0
LINE
  5
10824
330
18
100
AcDbEntity
  8
1外形線
 48
3.0
100
AcDbLine
 10
1632.942203809848
 20
-4609.500421700158
 30
0.0
 11
3432.942203809849
 21
-4609.500421700157
 31
0.0
  0
LINE
  5
10825
330
18
100
AcDbEntity
  8
1外形線
 48
3.0
100
AcDbLine
 10
1632.942203809848
 20
-4599.000421700157
 30
0.0
 11
3432.942203809849
 21
-4599.000421700156
 31
0.0
  0
ENDSEC
  0
SECTION
  2
OBJECTS
  0
DICTIONARY
  5
C
330
0
100
AcDbDictionary
281
     1
  3
ACAD_COLOR
350
450A
  3
ACAD_GROUP
350
D
  3
ACAD_LAYOUT
350
3A74
  3
ACAD_MATERIAL
350
4509
  3
ACAD_MLEADERSTYLE
350
49F9
  3
ACAD_MLINESTYLE
350
1B
  3
ACAD_PLOTSETTINGS
350
3A75
  3
ACAD_PLOTSTYLENAME
350
3A72
  3
ACAD_SCALELIST
350
49E7
  3
ACAD_TABLESTYLE
350
450B
  3
ACAD_VISUALSTYLE
350
49D6
  3
ACDB_RECOMPOSE_DATA
350
60E6
  3
ACDBHEADERROUNDTRIPXREC
350
10871
  3
ACDBVARIABLEDICTIONARY
350
12D
  3
DWGPROPS
350
10870
  0
DICTIONARY
  5
60E8
330
8
100
AcDbDictionary
280
     1
281
     1
  3
ACAD_XREC_ROUNDTRIP
360
7E72
  0
DICTIONARY
  5
818B
330
2
100
AcDbDictionary
280
     1
281
     1
  3
ACAD_LAYERSTATES
360
818C
  0
DICTIONARY
  5
5267
330
E
100
AcDbDictionary
280
     1
281
     1
  3
ADSK_XREC_LAYER_RECONCILED
360
5268
  0
DICTIONARY
  5
5269
330
20
100
AcDbDictionary
280
     1
281
     1
  3
ADSK_XREC_LAYER_RECONCILED
360
526A
  0
DICTIONARY
  5
3AB8
330
18
100
AcDbDictionary
280
     1
281
     1
  3
ACAD_LAYOUTSELFREF
360
3AB9
  3
ACAD_SORTENTS
360
4766
  0
DICTIONARY
  5
3AB6
330
15
100
AcDbDictionary
280
     1
281
     1
  3
ACAD_LAYOUTSELFREF
360
3AB7
  0
DICTIONARY
  5
450A
102
{ACAD_REACTORS
330
C
102
}
330
C
100
AcDbDictionary
281
     1
  0
DICTIONARY
  5
D
102
{ACAD_REACTORS
330
C
102
}
330
C
100
AcDbDictionary
281
     1
  0
DICTIONARY
  5
3A74
102
{ACAD_REACTORS
330
C
102
}
330
C
100
AcDbDictionary
281
     1
  3
Model
350
3A76
  3
ﾚｲｱｳﾄ1
350
3A77
  0
DICTIONARY
  5
4509
102
{ACAD_REACTORS
330
C
102
}
330
C
100
AcDbDictionary
281
     1
  3
ByBlock
350
49C6
  3
ByLayer
350
49BE
  3
Global
350
49CE
  0
DICTIONARY
  5
49F9
102
{ACAD_REACTORS
330
C
102
}
330
C
100
AcDbDictionary
281
     1
  3
Standard
350
49FA
  0
DICTIONARY
  5
1B
102
{ACAD_REACTORS
330
C
102
}
330
C
100
AcDbDictionary
281
     1
  3
STANDARD
350
1C
  0
DICTIONARY
  5
3A75
102
{ACAD_REACTORS
330
C
102
}
330
C
100
AcDbDictionary
281
     1
  0
ACDBDICTIONARYWDFLT
  5
3A72
102
{ACAD_REACTORS
330
C
102
}
330
C
100
AcDbDictionary
281
     1
  3
Normal
350
3A73
100
AcDbDictionaryWithDefault
340
3A73
  0
DICTIONARY
  5
49E7
102
{ACAD_REACTORS
330
C
102
}
330
C
100
AcDbDictionary
281
     1
  3
A0
350
49E8
  3
A1
350
49E9
  3
A2
350
49EA
  3
A3
350
49EB
  3
A4
350
49EC
  3
A5
350
49ED
  3
A6
350
49EE
  3
A7
350
49EF
  3
A8
350
49F0
  3
A9
350
49F1
  3
B0
350
49F2
  3
B1
350
49F3
  3
B2
350
49F4
  3
B3
350
49F5
  3
B4
350
49F6
  3
B5
350
49F7
  3
B6
350
49F8
  0
DICTIONARY
  5
450B
102
{ACAD_REACTORS
330
C
102
}
330
C
100
AcDbDictionary
281
     1
  3
Standard
350
450C
  0
DICTIONARY
  5
49D6
102
{ACAD_REACTORS
330
C
102
}
330
C
100
AcDbDictionary
281
     1
  3
2dWireframe
350
49DC
  3
3D Hidden
350
49DE
  3
3dWireframe
350
49DD
  3
Basic
350
49DB
  3
Brighten
350
49E2
  3
ColorChange
350
49E6
  3
Conceptual
350
49DF
  3
Dim
350
49E1
  3
Facepattern
350
49E5
  3
Flat
350
49D7
  3
FlatWithEdges
350
49D8
  3
Gouraud
350
49D9
  3
GouraudWithEdges
350
49DA
  3
Linepattern
350
49E4
  3
Realistic
350
49E0
  3
Thicken
350
49E3
  0
XRECORD
  5
60E6
102
{ACAD_REACTORS
330
C
102
}
330
C
100
AcDbXrecord
280
     1
 90
        1
330
450C
  0
DICTIONARY
  5
10871
102
{ACAD_REACTORS
330
C
102
}
330
C
100
AcDbDictionary
281
     1
  0
DICTIONARY
  5
12D
102
{ACAD_REACTORS
330
C
102
}
330
C
100
AcDbDictionary
281
     1
  3
CANNOSCALE
350
60F3
  3
CMLEADERSTYLE
350
60F2
  3
CTABLESTYLE
350
488F
  3
DIMASSOC
350
3A8B
  3
INDEXCTL
350
60F4
  3
PROJECTNAME
350
49BC
  3
SORTENTS
350
12E
  0
XRECORD
  5
10870
102
{ACAD_REACTORS
330
C
102
}
330
C
100
AcDbXrecord
280
     1
  1
DWGPROPS COOKIE
  2

  3

  4

  6

  7

  8
chiaki.yunoue
  9

300
=
301
=
302
=
303
=
304
=
305
=
306
=
307
=
308
=
309
=
 40
1.596602986111111
 41
2453108.381052986
 42
2456162.570631018
  1

 90
        0
  0
XRECORD
  5
7E72
102
{ACAD_REACTORS
330
60E8
102
}
330
60E8
100
AcDbXrecord
280
     1
102
VTR_0.000_0.000_1.000_1.000_VISUALSTYLE
340
49DC
102
VTR_0.000_0.000_1.000_1.000_GRIDDISPLAY
 70
     3
102
VTR_0.000_0.000_1.000_1.000_GRIDMAJOR
 70
     5
102
VTR_0.000_0.000_1.000_1.000_DEFAULTLIGHTING
280
     1
102
VTR_0.000_0.000_1.000_1.000_DEFAULTLIGHTINGTYPE
 70
     1
102
VTR_0.000_0.000_1.000_1.000_BRIGHTNESS
141
0.0
102
VTR_0.000_0.000_1.000_1.000_CONTRAST
142
0.0
  0
DICTIONARY
  5
818C
102
{ACAD_REACTORS
330
818B
102
}
330
818B
100
AcDbDictionary
281
     1
  0
XRECORD
  5
5268
102
{ACAD_REACTORS
330
5267
102
}
330
5267
100
AcDbXrecord
280
     1
290
     1
  0
XRECORD
  5
526A
102
{ACAD_REACTORS
330
5269
102
}
330
5269
100
AcDbXrecord
280
     1
290
     1
  0
XRECORD
  5
3AB9
102
{ACAD_REACTORS
330
3AB8
102
}
330
3AB8
100
AcDbXrecord
280
     1
340
18
  0
SORTENTSTABLE
  5
4766
102
{ACAD_REACTORS
330
3AB8
102
}
330
3AB8
100
AcDbSortentsTable
330
18
331
107DD
  5
107DC
331
10306
  5
1031A
331
1060B
  5
10289
331
107B6
  5
107B6
331
27BF
  5
2B31
331
FB41
  5
10105
331
FEFE
  5
101F1
331
FBF8
  5
10132
331
F0A1
  5
F1E1
331
B523
  5
B6D3
331
A134
  5
B4FD
331
F14C
  5
F6DE
331
10115
  5
C06C
331
A0DD
  5
A0FA
331
B4C4
  5
B512
331
B5F2
  5
C078
331
B4DC
  5
B53A
331
A0ED
  5
A134
331
B5FA
  5
C07E
331
B4E4
  5
B548
331
1011B
  5
C074
331
1030E
  5
10332
331
102B7
  5
102E1
331
10280
  5
10295
331
10229
  5
1023A
331
10192
  5
10192
331
10316
  5
10349
331
102D7
  5
102EA
331
10288
  5
1029D
331
10231
  5
10242
331
1019A
  5
F1FC
331
10384
  5
1069C
331
102DF
  5
102F2
331
10290
  5
102A5
331
10239
  5
1024A
331
1013B
  5
FEA7
331
107BE
  5
107BE
331
10748
  5
10796
331
1038C
  5
106A1
331
102E7
  5
102FB
331
10394
  5
10748
331
105F4
  5
B525
331
F164
  5
F6E7
331
FBA1
  5
10118
331
F1FB
  5
F70D
331
F10D
  5
F6CD
331
100A6
  5
10230
331
FE20
  5
10159
331
B4FC
  5
B551
331
B702
  5
C077
331
B50C
  5
B56D
331
A0FD
  5
AA60
331
B514
  5
B5F2
331
A105
  5
AA63
331
B72A
  5
F1D8
331
A0D6
  5
A0DD
331
10298
  5
102B0
331
10241
  5
10253
331
102EF
  5
10303
331
102A0
  5
102D7
331
10249
  5
1027F
331
1014B
  5
1010D
331
101E2
  5
B558
331
102F7
  5
1030B
331
10365
  5
1038B
331
102FF
  5
10313
331
1015B
  5
1013A
331
1036D
  5
1038D
331
10307
  5
1031B
331
10375
  5
10392
331
10739
  5
C07F
331
107B7
  5
107B7
331
FBF1
  5
1012E
331
10106
  5
B536
331
10116
  5
C05D
331
A0DE
  5
A100
331
B4C5
  5
B519
331
B5F3
  5
C079
331
102B0
  5
102E9
331
10222
  5
10233
331
1030F
  5
10333
331
10281
  5
10296
331
1022A
  5
1023B
331
10193
  5
10191
331
1012C
  5
F708
331
10317
  5
1034B
331
102D8
  5
102EB
331
10289
  5
1029E
331
10232
  5
10243
331
1019B
  5
F1E6
331
10346
  5
10365
331
102E0
  5
102F4
331
10291
  5
102A6
331
1023A
  5
1024B
331
1013C
  5
F6F3
331
107F8
  5
107F8
331
107BF
  5
107BF
331
10327
  5
10352
331
10395
  5
10751
331
1069C
  5
A0D6
331
1035E
  5
1037F
331
F15D
  5
F6E3
331
F0F6
  5
F6C9
331
F1E4
  5
F709
331
FEB0
  5
10199
331
FAA3
  5
FF0B
331
F175
  5
F6EF
331
B6D3
  5
C084
331
B723
  5
F18A
331
B564
  5
C070
331
A0C7
  5
A0D9
331
A0D7
  5
A0E0
331
102E8
  5
102FC
331
10299
  5
102B1
331
10242
  5
10254
331
101DB
  5
B5F9
331
102F0
  5
10304
331
102A1
  5
102D8
331
1024A
  5
10281
331
1014C
  5
10166
331
10337
  5
1035F
331
102F8
  5
1030C
331
102A9
  5
102E0
331
10252
  5
1028A
331
10366
  5
1038C
331
10300
  5
10314
331
1015C
  5
100F5
331
1036E
  5
1038F
331
10376
  5
10393
331
1037E
  5
10412
331
1073A
  5
1028D
331
2B31
  5
3B63
331
F126
  5
F6D0
331
10107
  5
B54A
331
FF08
  5
10222
331
FB53
  5
10106
331
F234
  5
FE81
331
B584
  5
C073
331
10117
  5
C05F
331
B525
  5
B6D6
331
F0B3
  5
F232
331
B52D
  5
B726
331
B4C6
  5
B51E
331
B5FC
  5
C081
331
10308
  5
10327
331
10223
  5
10234
331
10310
  5
10337
331
10282
  5
10297
331
1022B
  5
1023C
331
10194
  5
101DB
331
1012D
  5
F713
331
10318
  5
1034F
331
102D9
  5
102EC
331
1028A
  5
1029F
331
10233
  5
10244
331
1019C
  5
F710
331
107B8
  5
107B8
331
10386
  5
1069D
331
10347
  5
10366
331
102E1
  5
102F5
331
10292
  5
102A7
331
1023B
  5
1024C
331
1013D
  5
F6F5
331
107F9
  5
107F9
331
107C0
  5
107C0
331
1038E
  5
10739
331
1034F
  5
1036F
331
10752
  5
107A5
331
10396
  5
106A2
331
10357
  5
10379
331
1069D
  5
A0D8
331
1035F
  5
10380
331
10791
  5
102E6
331
10088
  5
10224
331
FB5B
  5
10109
331
10090
  5
10228
331
FEB1
  5
1019A
331
B6D4
  5
C083
331
B53D
  5
C062
331
100B8
  5
10231
331
FAB4
  5
100F8
331
A0F7
  5
AA5C
331
A0FF
  5
AA61
331
B724
  5
F18B
331
B56D
  5
C071
331
10328
  5
10353
331
102E9
  5
102FD
331
1029A
  5
102B2
331
10243
  5
10255
331
101DC
  5
C066
331
10330
  5
10358
331
102F1
  5
10305
331
102A2
  5
102D9
331
1024B
  5
10282
331
1014D
  5
10194
331
102F9
  5
1030D
331
10253
  5
1028B
331
10301
  5
10315
331
10273
  5
10285
331
1015D
  5
1013D
331
1036F
  5
10390
331
10377
  5
10394
331
1037F
  5
1041F
331
1073B
  5
C080
331
FBC3
  5
1012C
331
F21D
  5
F718
331
F127
  5
F6D1
331
10108
  5
C072
331
A0D8
  5
A0E4
331
FC0B
  5
10133
331
A0E0
  5
A105
331
B536
  5
C05A
331
10309
  5
10328
331
10165
  5
10148
331
10311
  5
1033B
331
10283
  5
10298
331
1022C
  5
1023D
331
1012E
  5
F6D6
331
10319
  5
10350
331
102DA
  5
102ED
331
1028B
  5
102A0
331
10234
  5
10245
331
107B9
  5
107B9
331
102E2
  5
102F6
331
10293
  5
102A8
331
1023C
  5
1024D
331
1013E
  5
F238
331
1038F
  5
1073A
331
10350
  5
10370
331
10753
  5
107A4
331
1069E
  5
10752
331
10358
  5
1037A
331
10792
  5
FE6D
331
FDA3
  5
1013B
331
F110
  5
F6CE
331
100B9
  5
10232
331
F206
  5
F712
331
F187
  5
F6F8
331
B725
  5
F19A
331
A108
  5
B4EA
331
10329
  5
10354
331
102EA
  5
102FE
331
1029B
  5
102B3
331
10244
  5
10256
331
101DD
  5
C06A
331
10331
  5
10359
331
102A3
  5
102DA
331
1024C
  5
10283
331
1014E
  5
10198
331
10360
  5
10381
331
102FA
  5
1030E
331
10254
  5
1028C
331
1020D
  5
101DC
331
107D9
  5
107D9
331
10302
  5
10316
331
1015E
  5
10139
331
10370
  5
10391
331
10378
  5
10395
331
1073C
  5
1028E
331
FB2D
  5
100F9
331
10111
  5
C068
331
F0B5
  5
F235
331
B5EE
  5
C075
331
B52F
  5
B728
331
F0C5
  5
F334
331
B4E0
  5
B53D
331
B5FE
  5
C082
331
1030A
  5
10329
331
1027C
  5
10291
331
10225
  5
10236
331
10312
  5
1033C
331
10284
  5
10299
331
1022D
  5
1023E
331
10196
  5
10140
331
1012F
  5
F70E
331
10380
  5
1042C
331
10341
  5
10362
331
1031A
  5
10351
331
102DB
  5
102EE
331
1028C
  5
102A1
331
10235
  5
10246
331
1019E
  5
F70A
331
107BA
  5
107BA
331
10744
  5
10792
331
10349
  5
1036D
331
102E3
  5
102F7
331
10294
  5
102A9
331
1023D
  5
1024E
331
1013F
  5
F222
331
107FB
  5
107FC
331
10390
  5
10744
331
10351
  5
10375
331
10754
  5
107B4
331
1069F
  5
10754
331
10359
  5
1037B
331
10793
  5
10342
331
FE8B
  5
10193
331
F336
  5
FEA8
331
F1D7
  5
F704
331
F160
  5
F6E4
331
100A2
  5
10229
331
F1FF
  5
F70F
331
FBBD
  5
10119
331
B726
  5
F1C9
331
1032A
  5
10357
331
102EB
  5
102FF
331
1029C
  5
102B4
331
10245
  5
10257
331
101DE
  5
C069
331
10332
  5
1035A
331
102F3
  5
10307
331
102A4
  5
102DB
331
1024D
  5
10284
331
1014F
  5
101E2
331
10361
  5
10382
331
102FB
  5
1030F
331
102AC
  5
102E3
331
10255
  5
1028F
331
107DA
  5
107DA
331
10303
  5
10317
331
1015F
  5
1015D
331
10379
  5
10396
331
107B3
  5
1022C
331
FEEB
  5
101E1
331
FE34
  5
1015E
331
F1C8
  5
F6FE
331
F237
  5
FE8B
331
F149
  5
F6D7
331
10112
  5
B724
331
A0DA
  5
A0EE
331
A0EA
  5
A109
331
10118
  5
C06F
331
1030B
  5
1032A
331
1027D
  5
10292
331
10226
  5
10237
331
102B4
  5
F6FF
331
10313
  5
10341
331
10285
  5
1029A
331
1022E
  5
1023F
331
10197
  5
10147
331
10130
  5
F715
331
10381
  5
10439
331
10342
  5
10363
331
1031B
  5
10306
331
102DC
  5
102EF
331
1028D
  5
102A2
331
10236
  5
10247
331
1019F
  5
F705
331
107BB
  5
107BB
331
10745
  5
10793
331
102E4
  5
102F8
331
10295
  5
102AA
331
1023E
  5
10250
331
107FC
  5
107FB
331
10391
  5
10745
331
10352
  5
10376
331
10755
  5
107B3
331
1035A
  5
1037E
331
10794
  5
1022A
331
FC15
  5
10134
331
FE94
  5
10197
331
A0F2
  5
AA59
331
FEE4
  5
101DE
331
FBBE
  5
1011B
331
B558
  5
C06D
331
B727
  5
F1CA
331
B519
  5
B5F8
331
102EC
  5
10300
331
1029D
  5
102B5
331
10246
  5
10273
331
10148
  5
F1E4
331
101DF
  5
B613
331
10333
  5
1035E
331
102F4
  5
10308
331
102A5
  5
102DC
331
10150
  5
101DF
331
10362
  5
10384
331
1033B
  5
10360
331
102FC
  5
10310
331
102AD
  5
102E4
331
10256
  5
10290
331
10304
  5
10318
331
10619
  5
10293
331
107A4
  5
FE77
331
1037A
  5
103F8
331
107B4
  5
1073C
331
F189
  5
F6FC
331
F220
  5
F719
331
F199
  5
F6FD
331
10103
  5
B610
331
F132
  5
F6D3
331
1010B
  5
B51F
331
F238
  5
FE9B
331
10113
  5
C06B
331
A0DB
  5
A0F5
331
A132
  5
271F
331
A0E3
  5
A107
331
A0EB
  5
A10B
331
B5F8
  5
C07B
331
10119
  5
C065
331
1030C
  5
10330
331
10227
  5
10238
331
102B5
  5
1022D
331
10190
  5
1019F
331
10314
  5
10346
331
102D5
  5
102DF
331
10286
  5
1029B
331
1022F
  5
10240
331
10131
  5
F71A
331
10198
  5
F711
331
10382
  5
1069B
331
10343
  5
10364
331
102DD
  5
102F0
331
1028E
  5
102A3
331
10237
  5
10248
331
101A0
  5
F70B
331
107BC
  5
107BC
331
10746
  5
10794
331
1038A
  5
1069E
331
1034B
  5
1036E
331
102E5
  5
102F9
331
10296
  5
102AB
331
1023F
  5
10251
331
10392
  5
10746
331
10353
  5
10377
331
106A1
  5
10791
331
10795
  5
1073B
331
1008C
  5
10225
331
F1E1
  5
F707
331
F103
  5
F6CC
331
FD96
  5
10135
331
100A4
  5
1022E
331
FAB0
  5
10085
331
A0F3
  5
AA5A
331
A0FB
  5
AA5E
331
B512
  5
B582
331
A103
  5
AA62
331
B728
  5
F1CB
331
10141
  5
F20A
331
102ED
  5
10301
331
1029E
  5
102B6
331
10247
  5
1027C
331
10149
  5
F717
331
101E0
  5
B612
331
102F5
  5
10309
331
102A6
  5
102DD
331
1024F
  5
10286
331
10151
  5
101DD
331
10363
  5
10386
331
1033C
  5
10361
331
102FD
  5
10311
331
102AE
  5
102E5
331
10602
  5
C07A
331
107DC
  5
107DD
331
10305
  5
10319
331
1060A
  5
10235
331
107A5
  5
10343
331
1061A
  5
102E2
331
1037B
  5
10405
331
107B5
  5
107B5
331
F12B
  5
F6D2
331
FE46
  5
1015F
331
F231
  5
F71B
331
F1CA
  5
F701
331
1010C
  5
B523
331
FE4E
  5
10165
331
10114
  5
C06E
331
A133
  5
B4FC
331
10085
  5
10223
331
B5F9
  5
C07C
331
10161
  5
10149
331
1030D
  5
10331
331
1027F
  5
10294
331
10228
  5
10239
331
10191
  5
10190
331
10315
  5
10347
331
10287
  5
1029C
331
10230
  5
10241
331
10132
  5
FEA0
331
102D6
  5
F6F1
331
102DE
  5
102F1
331
1028F
  5
102A4
331
10238
  5
10249
331
1013A
  5
F714
331
101A1
  5
F706
331
107BD
  5
107BD
331
10747
  5
10795
331
1038B
  5
1069F
331
102E6
  5
102FA
331
10297
  5
102AC
331
10393
  5
10747
331
10354
  5
10378
331
106A2
  5
10755
331
10796
  5
102E7
331
F0F4
  5
F336
331
2707
  5
2707
331
1008D
  5
10227
331
FB98
  5
10116
331
F349
  5
FECA
331
F163
  5
F6E5
331
F1FA
  5
F70C
331
100A5
  5
1022F
331
FEB6
  5
1019B
331
FDA7
  5
1013E
331
A0D5
  5
A0DB
331
10240
  5
10252
331
10142
  5
F703
331
102EE
  5
10302
331
1029F
  5
102B7
331
10248
  5
1027E
331
1014A
  5
F716
331
101E1
  5
B549
331
102F6
  5
1030A
331
102A7
  5
102DE
331
10250
  5
10288
331
10152
  5
1019D
331
10364
  5
1038A
331
102FE
  5
10312
331
102AF
  5
102E8
  0
XRECORD
  5
3AB7
102
{ACAD_REACTORS
330
3AB6
102
}
330
3AB6
100
AcDbXrecord
280
     1
340
15
  0
LAYOUT
  5
3A76
102
{ACAD_XDICTIONARY
360
10872
102
}
102
{ACAD_REACTORS
330
3A74
102
}
330
3A74
100
AcDbPlotSettings
  1

  2
Canon LBP3920/3970 LIPSLX
  4
A4
  6

 40
5.873749732971191
 41
5.873747825622557
 42
5.873748779296875
 43
5.873748779296875
 44
209.9733276367186
 45
296.9259948730469
 46
0.0
 47
2.338922734222221
 48
1295.395097043759
 49
-893.6486340267947
140
1706.963975999288
141
-602.7987502261943
142
1.0
143
1.46726531595435
 70
 11956
 72
     1
 73
     1
 74
     4
  7
INABA-CAD(MONO).ctb
 75
     0
147
0.68153999765855
148
-1295.395097043759
149
893.6486340267947
100
AcDbLayout
  1
Model
 70
     1
 71
     0
 10
0.0
 20
0.0
 11
12.0
 21
9.0
 12
0.0
 22
0.0
 32
0.0
 14
0.0
 24
0.0
 34
0.0
 15
0.0
 25
0.0
 35
0.0
146
0.0
 13
0.0
 23
0.0
 33
0.0
 16
1.0
 26
0.0
 36
0.0
 17
0.0
 27
1.0
 37
0.0
 76
     0
330
18
1001
ACAD_PSEXT
1000
Canon LBP3920/3970 LIPSLX
1000
Canon LBP3920/3970 LIPSLX
1000
192.168.180.205:lp
1000

1070
     0
  0
LAYOUT
  5
3A77
102
{ACAD_XDICTIONARY
360
10874
102
}
102
{ACAD_REACTORS
330
3A74
102
}
330
3A74
100
AcDbPlotSettings
  1

  2
Canon LASER SHOT LBP-1710
  4

  6

 40
0.0
 41
0.0
 42
0.0
 43
0.0
 44
0.0
 45
0.0
 46
0.0
 47
0.0
 48
0.0
 49
0.0
140
0.0
141
0.0
142
1.0
143
1.0
 70
   688
 72
     0
 73
     0
 74
     5
  7
INABA-CAD(MONO).ctb
 75
    16
147
1.0
148
0.0
149
0.0
100
AcDbLayout
  1
ﾚｲｱｳﾄ1
 70
     1
 71
     1
 10
0.0
 20
0.0
 11
420.0
 21
297.0
 12
0.0
 22
0.0
 32
0.0
 14
1.000000000000000E+20
 24
1.000000000000000E+20
 34
1.000000000000000E+20
 15
-1.000000000000000E+20
 25
-1.000000000000000E+20
 35
-1.000000000000000E+20
146
0.0
 13
0.0
 23
0.0
 33
0.0
 16
1.0
 26
0.0
 36
0.0
 17
0.0
 27
1.0
 37
0.0
 76
     0
330
15
  0
MATERIAL
  5
49C6
102
{ACAD_XDICTIONARY
360
49C7
102
}
102
{ACAD_REACTORS
330
4509
102
}
330
4509
100
AcDbMaterial
  1
ByBlock
 72
     0
 73
     2
 43
0.0208333333333333
 43
0.0
 43
0.0
 43
0.0
 43
0.0
 43
0.0208333333333333
 43
0.0
 43
0.0
 43
0.0
 43
0.0
 43
1.0
 43
0.0
 43
0.0
 43
0.0
 43
0.0
 43
1.0
 77
     0
 78
     2
 47
0.0208333333333333
 47
0.0
 47
0.0
 47
0.0
 47
0.0
 47
0.0208333333333333
 47
0.0
 47
0.0
 47
0.0
 47
0.0
 47
1.0
 47
0.0
 47
0.0
 47
0.0
 47
0.0
 47
1.0
171
     0
172
     2
 49
0.0208333333333333
 49
0.0
 49
0.0
 49
0.0
 49
0.0
 49
0.0208333333333333
 49
0.0
 49
0.0
 49
0.0
 49
0.0
 49
1.0
 49
0.0
 49
0.0
 49
0.0
 49
0.0
 49
1.0
175
     0
176
     2
142
0.0208333333333333
142
0.0
142
0.0
142
0.0
142
0.0
142
0.0208333333333333
142
0.0
142
0.0
142
0.0
142
0.0
142
1.0
142
0.0
142
0.0
142
0.0
142
0.0
142
1.0
179
     0
270
     2
144
0.0208333333333333
144
0.0
144
0.0
144
0.0
144
0.0
144
0.0208333333333333
144
0.0
144
0.0
144
0.0
144
0.0
144
1.0
144
0.0
144
0.0
144
0.0
144
0.0
144
1.0
274
     2
147
0.0208333333333333
147
0.0
147
0.0
147
0.0
147
0.0
147
0.0208333333333333
147
0.0
147
0.0
147
0.0
147
0.0
147
1.0
147
0.0
147
0.0
147
0.0
147
0.0
147
1.0
  0
MATERIAL
  5
49BE
102
{ACAD_XDICTIONARY
360
49BF
102
}
102
{ACAD_REACTORS
330
4509
102
}
330
4509
100
AcDbMaterial
  1
ByLayer
 72
     0
 73
     2
 43
0.0208333333333333
 43
0.0
 43
0.0
 43
0.0
 43
0.0
 43
0.0208333333333333
 43
0.0
 43
0.0
 43
0.0
 43
0.0
 43
1.0
 43
0.0
 43
0.0
 43
0.0
 43
0.0
 43
1.0
 77
     0
 78
     2
 47
0.0208333333333333
 47
0.0
 47
0.0
 47
0.0
 47
0.0
 47
0.0208333333333333
 47
0.0
 47
0.0
 47
0.0
 47
0.0
 47
1.0
 47
0.0
 47
0.0
 47
0.0
 47
0.0
 47
1.0
171
     0
172
     2
 49
0.0208333333333333
 49
0.0
 49
0.0
 49
0.0
 49
0.0
 49
0.0208333333333333
 49
0.0
 49
0.0
 49
0.0
 49
0.0
 49
1.0
 49
0.0
 49
0.0
 49
0.0
 49
0.0
 49
1.0
175
     0
176
     2
142
0.0208333333333333
142
0.0
142
0.0
142
0.0
142
0.0
142
0.0208333333333333
142
0.0
142
0.0
142
0.0
142
0.0
142
1.0
142
0.0
142
0.0
142
0.0
142
0.0
142
1.0
179
     0
270
     2
144
0.0208333333333333
144
0.0
144
0.0
144
0.0
144
0.0
144
0.0208333333333333
144
0.0
144
0.0
144
0.0
144
0.0
144
1.0
144
0.0
144
0.0
144
0.0
144
0.0
144
1.0
274
     2
147
0.0208333333333333
147
0.0
147
0.0
147
0.0
147
0.0
147
0.0208333333333333
147
0.0
147
0.0
147
0.0
147
0.0
147
1.0
147
0.0
147
0.0
147
0.0
147
0.0
147
1.0
  0
MATERIAL
  5
49CE
102
{ACAD_XDICTIONARY
360
49CF
102
}
102
{ACAD_REACTORS
330
4509
102
}
330
4509
100
AcDbMaterial
  1
Global
 72
     0
 73
     2
 43
0.0208333333333333
 43
0.0
 43
0.0
 43
0.0
 43
0.0
 43
0.0208333333333333
 43
0.0
 43
0.0
 43
0.0
 43
0.0
 43
1.0
 43
0.0
 43
0.0
 43
0.0
 43
0.0
 43
1.0
 77
     0
 78
     2
 47
0.0208333333333333
 47
0.0
 47
0.0
 47
0.0
 47
0.0
 47
0.0208333333333333
 47
0.0
 47
0.0
 47
0.0
 47
0.0
 47
1.0
 47
0.0
 47
0.0
 47
0.0
 47
0.0
 47
1.0
171
     0
172
     2
 49
0.0208333333333333
 49
0.0
 49
0.0
 49
0.0
 49
0.0
 49
0.0208333333333333
 49
0.0
 49
0.0
 49
0.0
 49
0.0
 49
1.0
 49
0.0
 49
0.0
 49
0.0
 49
0.0
 49
1.0
175
     0
176
     2
142
0.0208333333333333
142
0.0
142
0.0
142
0.0
142
0.0
142
0.0208333333333333
142
0.0
142
0.0
142
0.0
142
0.0
142
1.0
142
0.0
142
0.0
142
0.0
142
0.0
142
1.0
179
     0
270
     2
144
0.0208333333333333
144
0.0
144
0.0
144
0.0
144
0.0
144
0.0208333333333333
144
0.0
144
0.0
144
0.0
144
0.0
144
1.0
144
0.0
144
0.0
144
0.0
144
0.0
144
1.0
274
     2
147
0.0208333333333333
147
0.0
147
0.0
147
0.0
147
0.0
147
0.0208333333333333
147
0.0
147
0.0
147
0.0
147
0.0
147
1.0
147
0.0
147
0.0
147
0.0
147
0.0
147
1.0
  0
ACAD_PROXY_OBJECT
  5
49FA
102
{ACAD_REACTORS
330
49F9
102
}
330
49F9
100
AcDbProxyObject
 90
      499
 91
      514
 95
   983063
 70
     0
 93
      618
310
40901902A4063FBFFFFFE000000000000002040AD7A3703D0AD73F4254DD185B99185C99000000000000000104090141901A00000000000004100000000000000041025764000000000000300FC0
340
12
340
0
340
F
340
0
 94
        0
1001
ACAD_MLEADERVER
1070
     2
1001
ACAD
1000
AcRTDxfName
1000
MLEADERSTYLE
1000
AcRTDxfName
1000
MLEADERSTYLE
1000
AcRTDxfName
1000
MLEADERSTYLE
1000
AcRTDxfName
1000
MLEADERSTYLE
1000
AcRTDxfName
1000
MLEADERSTYLE
1000
AcRTDxfName
1000
MLEADERSTYLE
1000
AcRTDxfName
1000
MLEADERSTYLE
1000
AcRTDxfName
1000
MLEADERSTYLE
  0
MLINESTYLE
  5
1C
102
{ACAD_REACTORS
330
1B
102
}
330
1B
100
AcDbMlineStyle
  2
STANDARD
 70
     0
  3

 62
   256
 51
90.0
 52
90.0
 71
     2
 49
0.5
 62
   256
  6
BYLAYER
 49
-0.5
 62
   256
  6
BYLAYER
  0
ACDBPLACEHOLDER
  5
3A73
102
{ACAD_REACTORS
330
3A72
102
}
330
3A72
  0
ACAD_PROXY_OBJECT
  5
49E8
102
{ACAD_REACTORS
330
49E7
102
}
330
49E7
100
AcDbProxyObject
 90
      499
 91
      513
 95
   983063
 70
     0
 93
       49
310
904313A3100580
 94
        0
1001
ACAD
1000
AcRTDxfName
1000
SCALE
1000
AcRTDxfName
1000
SCALE
1000
AcRTDxfName
1000
SCALE
1000
AcRTDxfName
1000
SCALE
1000
AcRTDxfName
1000
SCALE
1000
AcRTDxfName
1000
SCALE
1000
AcRTDxfName
1000
SCALE
1000
AcRTDxfName
1000
SCALE
  0
ACAD_PROXY_OBJECT
  5
49E9
102
{ACAD_REACTORS
330
49E7
102
}
330
49E7
100
AcDbProxyObject
 90
      499
 91
      513
 95
   983063
 70
     0
 93
      113
310
904313A32004000000000000004040
 94
        0
1001
ACAD
1000
AcRTDxfName
1000
SCALE
1000
AcRTDxfName
1000
SCALE
1000
AcRTDxfName
1000
SCALE
1000
AcRTDxfName
1000
SCALE
1000
AcRTDxfName
1000
SCALE
1000
AcRTDxfName
1000
SCALE
1000
AcRTDxfName
1000
SCALE
1000
AcRTDxfName
1000
SCALE
  0
ACAD_PROXY_OBJECT
  5
49EA
102
{ACAD_REACTORS
330
49E7
102
}
330
49E7
100
AcDbProxyObject
 90
      499
 91
      513
 95
   983063
 70
     0
 93
      113
310
904313A34004000000000000104040
 94
        0
1001
ACAD
1000
AcRTDxfName
1000
SCALE
1000
AcRTDxfName
1000
SCALE
1000
AcRTDxfName
1000
SCALE
1000
AcRTDxfName
1000
SCALE
1000
AcRTDxfName
1000
SCALE
1000
AcRTDxfName
1000
SCALE
1000
AcRTDxfName
1000
SCALE
1000
AcRTDxfName
1000
SCALE
  0
ACAD_PROXY_OBJECT
  5
49EB
102
{ACAD_REACTORS
330
49E7
102
}
330
49E7
100
AcDbProxyObject
 90
      499
 91
      513
 95
   983063
 70
     0
 93
      113
310
904313A35004000000000000144040
 94
        0
1001
ACAD
1000
AcRTDxfName
1000
SCALE
1000
AcRTDxfName
1000
SCALE
1000
AcRTDxfName
1000
SCALE
1000
AcRTDxfName
1000
SCALE
1000
AcRTDxfName
1000
SCALE
1000
AcRTDxfName
1000
SCALE
1000
AcRTDxfName
1000
SCALE
1000
AcRTDxfName
1000
SCALE
  0
ACAD_PROXY_OBJECT
  5
49EC
102
{ACAD_REACTORS
330
49E7
102
}
330
49E7
100
AcDbProxyObject
 90
      499
 91
      513
 95
   983063
 70
     0
 93
      113
310
904313A38004000000000000204040
 94
        0
1001
ACAD
1000
AcRTDxfName
1000
SCALE
1000
AcRTDxfName
1000
SCALE
1000
AcRTDxfName
1000
SCALE
1000
AcRTDxfName
1000
SCALE
1000
AcRTDxfName
1000
SCALE
1000
AcRTDxfName
1000
SCALE
1000
AcRTDxfName
1000
SCALE
1000
AcRTDxfName
1000
SCALE
  0
ACAD_PROXY_OBJECT
  5
49ED
102
{ACAD_REACTORS
330
49E7
102
}
330
49E7
100
AcDbProxyObject
 90
      499
 91
      513
 95
   983063
 70
     0
 93
      121
310
905313A3130004000000000000244040
 94
        0
1001
ACAD
1000
AcRTDxfName
1000
SCALE
1000
AcRTDxfName
1000
SCALE
1000
AcRTDxfName
1000
SCALE
1000
AcRTDxfName
1000
SCALE
1000
AcRTDxfName
1000
SCALE
1000
AcRTDxfName
1000
SCALE
1000
AcRTDxfName
1000
SCALE
1000
AcRTDxfName
1000
SCALE
  0
ACAD_PROXY_OBJECT
  5
49EE
102
{ACAD_REACTORS
330
49E7
102
}
330
49E7
100
AcDbProxyObject
 90
      499
 91
      513
 95
   983063
 70
     0
 93
      121
310
905313A3136004000000000000304000
 94
        0
1001
ACAD
1000
AcRTDxfName
1000
SCALE
1000
AcRTDxfName
1000
SCALE
1000
AcRTDxfName
1000
SCALE
1000
AcRTDxfName
1000
SCALE
1000
AcRTDxfName
1000
SCALE
1000
AcRTDxfName
1000
SCALE
1000
AcRTDxfName
1000
SCALE
1000
AcRTDxfName
1000
SCALE
  0
ACAD_PROXY_OBJECT
  5
49EF
102
{ACAD_REACTORS
330
49E7
102
}
330
49E7
100
AcDbProxyObject
 90
      499
 91
      513
 95
   983063
 70
     0
 93
      121
310
905313A3230004000000000000344040
 94
        0
1001
ACAD
1000
AcRTDxfName
1000
SCALE
1000
AcRTDxfName
1000
SCALE
1000
AcRTDxfName
1000
SCALE
1000
AcRTDxfName
1000
SCALE
1000
AcRTDxfName
1000
SCALE
1000
AcRTDxfName
1000
SCALE
1000
AcRTDxfName
1000
SCALE
1000
AcRTDxfName
1000
SCALE
  0
ACAD_PROXY_OBJECT
  5
49F0
102
{ACAD_REACTORS
330
49E7
102
}
330
49E7
100
AcDbProxyObject
 90
      499
 91
      513
 95
   983063
 70
     0
 93
      121
310
905313A33300040000000000003E4000
 94
        0
1001
ACAD
1000
AcRTDxfName
1000
SCALE
1000
AcRTDxfName
1000
SCALE
1000
AcRTDxfName
1000
SCALE
1000
AcRTDxfName
1000
SCALE
1000
AcRTDxfName
1000
SCALE
1000
AcRTDxfName
1000
SCALE
1000
AcRTDxfName
1000
SCALE
1000
AcRTDxfName
1000
SCALE
  0
ACAD_PROXY_OBJECT
  5
49F1
102
{ACAD_REACTORS
330
49E7
102
}
330
49E7
100
AcDbProxyObject
 90
      499
 91
      513
 95
   983063
 70
     0
 93
      121
310
905313A3430004000000000000444040
 94
        0
1001
ACAD
1000
AcRTDxfName
1000
SCALE
1000
AcRTDxfName
1000
SCALE
1000
AcRTDxfName
1000
SCALE
1000
AcRTDxfName
1000
SCALE
1000
AcRTDxfName
1000
SCALE
1000
AcRTDxfName
1000
SCALE
1000
AcRTDxfName
1000
SCALE
1000
AcRTDxfName
1000
SCALE
  0
ACAD_PROXY_OBJECT
  5
49F2
102
{ACAD_REACTORS
330
49E7
102
}
330
49E7
100
AcDbProxyObject
 90
      499
 91
      513
 95
   983063
 70
     0
 93
      121
310
905313A3530004000000000000494000
 94
        0
1001
ACAD
1000
AcRTDxfName
1000
SCALE
1000
AcRTDxfName
1000
SCALE
1000
AcRTDxfName
1000
SCALE
1000
AcRTDxfName
1000
SCALE
1000
AcRTDxfName
1000
SCALE
1000
AcRTDxfName
1000
SCALE
1000
AcRTDxfName
1000
SCALE
1000
AcRTDxfName
1000
SCALE
  0
ACAD_PROXY_OBJECT
  5
49F3
102
{ACAD_REACTORS
330
49E7
102
}
330
49E7
100
AcDbProxyObject
 90
      499
 91
      513
 95
   983063
 70
     0
 93
      129
310
906313A313030004000000000000594000
 94
        0
1001
ACAD
1000
AcRTDxfName
1000
SCALE
1000
AcRTDxfName
1000
SCALE
1000
AcRTDxfName
1000
SCALE
1000
AcRTDxfName
1000
SCALE
1000
AcRTDxfName
1000
SCALE
1000
AcRTDxfName
1000
SCALE
1000
AcRTDxfName
1000
SCALE
1000
AcRTDxfName
1000
SCALE
  0
ACAD_PROXY_OBJECT
  5
49F4
102
{ACAD_REACTORS
330
49E7
102
}
330
49E7
100
AcDbProxyObject
 90
      499
 91
      513
 95
   983063
 70
     0
 93
      113
310
904323A31000000000000000010100
 94
        0
1001
ACAD
1000
AcRTDxfName
1000
SCALE
1000
AcRTDxfName
1000
SCALE
1000
AcRTDxfName
1000
SCALE
1000
AcRTDxfName
1000
SCALE
1000
AcRTDxfName
1000
SCALE
1000
AcRTDxfName
1000
SCALE
1000
AcRTDxfName
1000
SCALE
1000
AcRTDxfName
1000
SCALE
  0
ACAD_PROXY_OBJECT
  5
49F5
102
{ACAD_REACTORS
330
49E7
102
}
330
49E7
100
AcDbProxyObject
 90
      499
 91
      513
 95
   983063
 70
     0
 93
      113
310
904343A31000000000000000410101
 94
        0
1001
ACAD
1000
AcRTDxfName
1000
SCALE
1000
AcRTDxfName
1000
SCALE
1000
AcRTDxfName
1000
SCALE
1000
AcRTDxfName
1000
SCALE
1000
AcRTDxfName
1000
SCALE
1000
AcRTDxfName
1000
SCALE
1000
AcRTDxfName
1000
SCALE
1000
AcRTDxfName
1000
SCALE
  0
ACAD_PROXY_OBJECT
  5
49F6
102
{ACAD_REACTORS
330
49E7
102
}
330
49E7
100
AcDbProxyObject
 90
      499
 91
      513
 95
   983063
 70
     0
 93
      113
310
904383A31000000000000000810100
 94
        0
1001
ACAD
1000
AcRTDxfName
1000
SCALE
1000
AcRTDxfName
1000
SCALE
1000
AcRTDxfName
1000
SCALE
1000
AcRTDxfName
1000
SCALE
1000
AcRTDxfName
1000
SCALE
1000
AcRTDxfName
1000
SCALE
1000
AcRTDxfName
1000
SCALE
1000
AcRTDxfName
1000
SCALE
  0
ACAD_PROXY_OBJECT
  5
49F7
102
{ACAD_REACTORS
330
49E7
102
}
330
49E7
100
AcDbProxyObject
 90
      499
 91
      513
 95
   983063
 70
     0
 93
      121
310
90531303A31000000000000000910101
 94
        0
1001
ACAD
1000
AcRTDxfName
1000
SCALE
1000
AcRTDxfName
1000
SCALE
1000
AcRTDxfName
1000
SCALE
1000
AcRTDxfName
1000
SCALE
1000
AcRTDxfName
1000
SCALE
1000
AcRTDxfName
1000
SCALE
1000
AcRTDxfName
1000
SCALE
1000
AcRTDxfName
1000
SCALE
  0
ACAD_PROXY_OBJECT
  5
49F8
102
{ACAD_REACTORS
330
49E7
102
}
330
49E7
100
AcDbProxyObject
 90
      499
 91
      513
 95
   983063
 70
     0
 93
      129
310
9063130303A31000000000000001650100
 94
        0
1001
ACAD
1000
AcRTDxfName
1000
SCALE
1000
AcRTDxfName
1000
SCALE
1000
AcRTDxfName
1000
SCALE
1000
AcRTDxfName
1000
SCALE
1000
AcRTDxfName
1000
SCALE
1000
AcRTDxfName
1000
SCALE
1000
AcRTDxfName
1000
SCALE
1000
AcRTDxfName
1000
SCALE
  0
TABLESTYLE
  5
450C
102
{ACAD_XDICTIONARY
360
60E4
102
}
102
{ACAD_REACTORS
330
450B
102
}
330
450B
100
AcDbTableStyle
  3
Standard
 70
     0
 71
     0
 40
1.5
 41
1.5
280
     0
281
     0
  7
STANDARD
140
4.5
170
     2
 62
     0
 63
     7
283
     0
274
    -2
284
     1
 64
     0
275
    -2
285
     1
 65
     0
276
    -2
286
     1
 66
     0
277
    -2
287
     1
 67
     0
278
    -2
288
     1
 68
     0
279
    -2
289
     1
 69
     0
  7
STANDARD
140
6.0
170
     5
 62
     0
 63
     7
283
     0
274
    -2
284
     1
 64
     0
275
    -2
285
     1
 65
     0
276
    -2
286
     1
 66
     0
277
    -2
287
     1
 67
     0
278
    -2
288
     1
 68
     0
279
    -2
289
     1
 69
     0
  7
STANDARD
140
4.5
170
     5
 62
     0
 63
     7
283
     0
274
    -2
284
     1
 64
     0
275
    -2
285
     1
 65
     0
276
    -2
286
     1
 66
     0
277
    -2
287
     1
 67
     0
278
    -2
288
     1
 68
     0
279
    -2
289
     1
 69
     0
  0
ACAD_PROXY_OBJECT
  5
49DC
102
{ACAD_REACTORS
330
49D6
102
}
330
49D6
100
AcDbProxyObject
 90
      499
 91
      512
 95
   983063
 70
     0
 93
      444
310
430C9915DA5C99599C985B59401049028333333333333E3BF0000000000000FB0107901411070040501600405405064090741402480A0340
 94
        0
1001
ACAD
1000
AcDbSavedByObjectVersion
1070
     0
1000
AcRTDxfName
1000
VISUALSTYLE
1000
AcRTDxfName
1000
VISUALSTYLE
1000
AcRTDxfName
1000
VISUALSTYLE
1000
AcRTDxfName
1000
VISUALSTYLE
1000
AcRTDxfName
1000
VISUALSTYLE
1000
AcRTDxfName
1000
VISUALSTYLE
1000
AcRTDxfName
1000
VISUALSTYLE
1000
AcRTDxfName
1000
VISUALSTYLE
  0
ACAD_PROXY_OBJECT
  5
49DE
102
{ACAD_REACTORS
330
49D6
102
}
330
49D6
100
AcDbProxyObject
 90
      499
 91
      512
 95
   983063
 70
     0
 93
      508
310
428CD108121A5919195B8010640502408333333333333E3BF0000000000000FB01079024090700405020000000000001110200405405064090740C02480A0343
 94
        0
1001
ACAD
1000
AcDbSavedByObjectVersion
1070
     0
1000
AcRTDxfName
1000
VISUALSTYLE
1000
AcRTDxfName
1000
VISUALSTYLE
1000
AcRTDxfName
1000
VISUALSTYLE
1000
AcRTDxfName
1000
VISUALSTYLE
1000
AcRTDxfName
1000
VISUALSTYLE
1000
AcRTDxfName
1000
VISUALSTYLE
1000
AcRTDxfName
1000
VISUALSTYLE
1000
AcRTDxfName
1000
VISUALSTYLE
  0
ACAD_PROXY_OBJECT
  5
49DD
102
{ACAD_REACTORS
330
49D6
102
}
330
49D6
100
AcDbProxyObject
 90
      499
 91
      512
 95
   983063
 70
     0
 93
      444
310
430CD915DA5C99599C985B59401059028333333333333E3BF0000000000000FB0107901411070040501600405405064090741402480A0340
 94
        0
1001
ACAD
1000
AcDbSavedByObjectVersion
1070
     0
1000
AcRTDxfName
1000
VISUALSTYLE
1000
AcRTDxfName
1000
VISUALSTYLE
1000
AcRTDxfName
1000
VISUALSTYLE
1000
AcRTDxfName
1000
VISUALSTYLE
1000
AcRTDxfName
1000
VISUALSTYLE
1000
AcRTDxfName
1000
VISUALSTYLE
1000
AcRTDxfName
1000
VISUALSTYLE
1000
AcRTDxfName
1000
VISUALSTYLE
  0
ACAD_PROXY_OBJECT
  5
49DB
102
{ACAD_REACTORS
330
49D6
102
}
330
49D6
100
AcDbProxyObject
 90
      499
 91
      512
 95
   983063
 70
     0
 93
      396
310
4190985CDA58C0107406404333333333333E3BF0000000000000FB0107A41107004050150841D405064090741402480A0354
 94
        0
1001
ACAD
1000
AcDbSavedByObjectVersion
1070
     0
1000
AcRTDxfName
1000
VISUALSTYLE
1000
AcRTDxfName
1000
VISUALSTYLE
1000
AcRTDxfName
1000
VISUALSTYLE
1000
AcRTDxfName
1000
VISUALSTYLE
1000
AcRTDxfName
1000
VISUALSTYLE
1000
AcRTDxfName
1000
VISUALSTYLE
1000
AcRTDxfName
1000
VISUALSTYLE
1000
AcRTDxfName
1000
VISUALSTYLE
  0
ACAD_PROXY_OBJECT
  5
49E2
102
{ACAD_REACTORS
330
49D6
102
}
330
49D6
100
AcDbProxyObject
 90
      499
 91
      512
 95
   983063
 70
     0
 93
      436
310
42509C9A59DA1D195B8010C409028333333333333E3BF0000000000000FB010790141107004050150841D405064090741402480A02995A
 94
        0
1001
ACAD
1000
AcDbSavedByObjectVersion
1070
     0
1000
AcRTDxfName
1000
VISUALSTYLE
1000
AcRTDxfName
1000
VISUALSTYLE
1000
AcRTDxfName
1000
VISUALSTYLE
1000
AcRTDxfName
1000
VISUALSTYLE
1000
AcRTDxfName
1000
VISUALSTYLE
1000
AcRTDxfName
1000
VISUALSTYLE
1000
AcRTDxfName
1000
VISUALSTYLE
1000
AcRTDxfName
1000
VISUALSTYLE
  0
ACAD_PROXY_OBJECT
  5
49E6
102
{ACAD_REACTORS
330
49D6
102
}
330
49D6
100
AcDbProxyObject
 90
      499
 91
      512
 95
   983063
 70
     0
 93
      460
310
4310DBDB1BDC90DA185B99D9401104090240C333333333333E3BF0000000000000FB0108901411070040501508421405064090741402480A0352
 94
        0
1001
ACAD
1000
AcDbSavedByObjectVersion
1070
     0
1000
AcRTDxfName
1000
VISUALSTYLE
1000
AcRTDxfName
1000
VISUALSTYLE
1000
AcRTDxfName
1000
VISUALSTYLE
1000
AcRTDxfName
1000
VISUALSTYLE
1000
AcRTDxfName
1000
VISUALSTYLE
1000
AcRTDxfName
1000
VISUALSTYLE
1000
AcRTDxfName
1000
VISUALSTYLE
1000
AcRTDxfName
1000
VISUALSTYLE
  0
ACAD_PROXY_OBJECT
  5
49DF
102
{ACAD_REACTORS
330
49D6
102
}
330
49D6
100
AcDbProxyObject
 90
      499
 91
      512
 95
   983063
 70
     0
 93
      508
310
42D0DBDB98D95C1D1D585B0010940D028333333333333E3BF0000000000000FB0107902409070040501000000000000111010841D405064090740C02480A0340
 94
        0
1001
ACAD
1000
AcDbSavedByObjectVersion
1070
     0
1000
AcRTDxfName
1000
VISUALSTYLE
1000
AcRTDxfName
1000
VISUALSTYLE
1000
AcRTDxfName
1000
VISUALSTYLE
1000
AcRTDxfName
1000
VISUALSTYLE
1000
AcRTDxfName
1000
VISUALSTYLE
1000
AcRTDxfName
1000
VISUALSTYLE
1000
AcRTDxfName
1000
VISUALSTYLE
1000
AcRTDxfName
1000
VISUALSTYLE
  0
ACAD_PROXY_OBJECT
  5
49E1
102
{ACAD_REACTORS
330
49D6
102
}
330
49D6
100
AcDbProxyObject
 90
      499
 91
      512
 95
   983063
 70
     0
 93
      420
310
41111A5B4010B409028333333333333E3BF0000000000000FB010790141107004050150841D405064090741402480A02677FFFFFD2
 94
        0
1001
ACAD
1000
AcDbSavedByObjectVersion
1070
     0
1000
AcRTDxfName
1000
VISUALSTYLE
1000
AcRTDxfName
1000
VISUALSTYLE
1000
AcRTDxfName
1000
VISUALSTYLE
1000
AcRTDxfName
1000
VISUALSTYLE
1000
AcRTDxfName
1000
VISUALSTYLE
1000
AcRTDxfName
1000
VISUALSTYLE
1000
AcRTDxfName
1000
VISUALSTYLE
1000
AcRTDxfName
1000
VISUALSTYLE
  0
ACAD_PROXY_OBJECT
  5
49E5
102
{ACAD_REACTORS
330
49D6
102
}
330
49D6
100
AcDbProxyObject
 90
      499
 91
      512
 95
   983063
 70
     0
 93
      452
310
43119858D95C185D1D195C9B8010F409028333333333333E3BF0000000000000FB010790141107004050150841D405064090741402480A0351
 94
        0
1001
ACAD
1000
AcDbSavedByObjectVersion
1070
     0
1000
AcRTDxfName
1000
VISUALSTYLE
1000
AcRTDxfName
1000
VISUALSTYLE
1000
AcRTDxfName
1000
VISUALSTYLE
1000
AcRTDxfName
1000
VISUALSTYLE
1000
AcRTDxfName
1000
VISUALSTYLE
1000
AcRTDxfName
1000
VISUALSTYLE
1000
AcRTDxfName
1000
VISUALSTYLE
1000
AcRTDxfName
1000
VISUALSTYLE
  0
ACAD_PROXY_OBJECT
  5
49D7
102
{ACAD_REACTORS
330
49D6
102
}
330
49D6
100
AcDbProxyObject
 90
      499
 91
      512
 95
   983063
 70
     0
 93
      396
310
41519B185D00240901404333333333333E3BF0000000000000F9010740A41107004050150841D405064090741402480A1B58
 94
        0
1001
ACAD
1000
AcDbSavedByObjectVersion
1070
     0
1000
AcRTDxfName
1000
VISUALSTYLE
1000
AcRTDxfName
1000
VISUALSTYLE
1000
AcRTDxfName
1000
VISUALSTYLE
1000
AcRTDxfName
1000
VISUALSTYLE
1000
AcRTDxfName
1000
VISUALSTYLE
1000
AcRTDxfName
1000
VISUALSTYLE
1000
AcRTDxfName
1000
VISUALSTYLE
1000
AcRTDxfName
1000
VISUALSTYLE
  0
ACAD_PROXY_OBJECT
  5
49D8
102
{ACAD_REACTORS
330
49D6
102
}
330
49D6
100
AcDbProxyObject
 90
      499
 91
      512
 95
   983063
 70
     0
 93
      484
310
43919B185D15DA5D1A115919D95CC010140901404333333333333E3BF0000000000000F9010740901411070040501600405405064090741402480A1B58
 94
        0
1001
ACAD
1000
AcDbSavedByObjectVersion
1070
     0
1000
AcRTDxfName
1000
VISUALSTYLE
1000
AcRTDxfName
1000
VISUALSTYLE
1000
AcRTDxfName
1000
VISUALSTYLE
1000
AcRTDxfName
1000
VISUALSTYLE
1000
AcRTDxfName
1000
VISUALSTYLE
1000
AcRTDxfName
1000
VISUALSTYLE
1000
AcRTDxfName
1000
VISUALSTYLE
1000
AcRTDxfName
1000
VISUALSTYLE
  0
ACAD_PROXY_OBJECT
  5
49D9
102
{ACAD_REACTORS
330
49D6
102
}
330
49D6
100
AcDbProxyObject
 90
      499
 91
      512
 95
   983063
 70
     0
 93
      420
310
4211DBDD5C985D590010240902404333333333333E3BF0000000000000F9010740A411070040501641D405064090741402480A1B58
 94
        0
1001
ACAD
1000
AcDbSavedByObjectVersion
1070
     0
1000
AcRTDxfName
1000
VISUALSTYLE
1000
AcRTDxfName
1000
VISUALSTYLE
1000
AcRTDxfName
1000
VISUALSTYLE
1000
AcRTDxfName
1000
VISUALSTYLE
1000
AcRTDxfName
1000
VISUALSTYLE
1000
AcRTDxfName
1000
VISUALSTYLE
1000
AcRTDxfName
1000
VISUALSTYLE
1000
AcRTDxfName
1000
VISUALSTYLE
  0
ACAD_PROXY_OBJECT
  5
49DA
102
{ACAD_REACTORS
330
49D6
102
}
330
49D6
100
AcDbProxyObject
 90
      499
 91
      512
 95
   983063
 70
     0
 93
      508
310
4451DBDD5C985D5915DA5D1A115919D95CC010340902404333333333333E3BF0000000000000F9010740901411070040501600405405064090741402480A1B53
 94
        0
1001
ACAD
1000
AcDbSavedByObjectVersion
1070
     0
1000
AcRTDxfName
1000
VISUALSTYLE
1000
AcRTDxfName
1000
VISUALSTYLE
1000
AcRTDxfName
1000
VISUALSTYLE
1000
AcRTDxfName
1000
VISUALSTYLE
1000
AcRTDxfName
1000
VISUALSTYLE
1000
AcRTDxfName
1000
VISUALSTYLE
1000
AcRTDxfName
1000
VISUALSTYLE
1000
AcRTDxfName
1000
VISUALSTYLE
  0
ACAD_PROXY_OBJECT
  5
49E4
102
{ACAD_REACTORS
330
49D6
102
}
330
49D6
100
AcDbProxyObject
 90
      499
 91
      512
 95
   983063
 70
     0
 93
      452
310
43131A5B995C185D1D195C9B8010E409028333333333333E3BF0000000000000FB010790141107004050750841D405064090741402483A0353
 94
        0
1001
ACAD
1000
AcDbSavedByObjectVersion
1070
     0
1000
AcRTDxfName
1000
VISUALSTYLE
1000
AcRTDxfName
1000
VISUALSTYLE
1000
AcRTDxfName
1000
VISUALSTYLE
1000
AcRTDxfName
1000
VISUALSTYLE
1000
AcRTDxfName
1000
VISUALSTYLE
1000
AcRTDxfName
1000
VISUALSTYLE
1000
AcRTDxfName
1000
VISUALSTYLE
1000
AcRTDxfName
1000
VISUALSTYLE
  0
ACAD_PROXY_OBJECT
  5
49E0
102
{ACAD_REACTORS
330
49D6
102
}
330
49D6
100
AcDbProxyObject
 90
      499
 91
      512
 95
   983063
 70
     0
 93
      428
310
429499585B1A5CDD1A58C0108409028333333333333E3BF0000000000000FB01079019070040501508421405064090741402480A1B49
 94
        0
1001
ACAD
1000
AcDbSavedByObjectVersion
1070
     0
1000
AcRTDxfName
1000
VISUALSTYLE
1000
AcRTDxfName
1000
VISUALSTYLE
1000
AcRTDxfName
1000
VISUALSTYLE
1000
AcRTDxfName
1000
VISUALSTYLE
1000
AcRTDxfName
1000
VISUALSTYLE
1000
AcRTDxfName
1000
VISUALSTYLE
1000
AcRTDxfName
1000
VISUALSTYLE
1000
AcRTDxfName
1000
VISUALSTYLE
  0
ACAD_PROXY_OBJECT
  5
49E3
102
{ACAD_REACTORS
330
49D6
102
}
330
49D6
100
AcDbProxyObject
 90
      499
 91
      512
 95
   983063
 70
     0
 93
      420
310
42151A1A58DAD95B8010D409028333333333333E3BF0000000000000FB010790141107004050150C41D405064090741402480A0352
 94
        0
1001
ACAD
1000
AcDbSavedByObjectVersion
1070
     0
1000
AcRTDxfName
1000
VISUALSTYLE
1000
AcRTDxfName
1000
VISUALSTYLE
1000
AcRTDxfName
1000
VISUALSTYLE
1000
AcRTDxfName
1000
VISUALSTYLE
1000
AcRTDxfName
1000
VISUALSTYLE
1000
AcRTDxfName
1000
VISUALSTYLE
1000
AcRTDxfName
1000
VISUALSTYLE
1000
AcRTDxfName
1000
VISUALSTYLE
  0
DICTIONARYVAR
  5
60F3
102
{ACAD_REACTORS
330
12D
102
}
330
12D
100
DictionaryVariables
280
     0
  1
1:1
  0
DICTIONARYVAR
  5
60F2
102
{ACAD_REACTORS
330
12D
102
}
330
12D
100
DictionaryVariables
280
     0
  1
STANDARD
  0
DICTIONARYVAR
  5
488F
102
{ACAD_REACTORS
330
12D
102
}
330
12D
100
DictionaryVariables
280
     0
  1
STANDARD
  0
DICTIONARYVAR
  5
3A8B
102
{ACAD_REACTORS
330
12D
102
}
330
12D
100
DictionaryVariables
280
     0
  1
1
  0
DICTIONARYVAR
  5
60F4
102
{ACAD_REACTORS
330
12D
102
}
330
12D
100
DictionaryVariables
280
     0
  1
0
  0
DICTIONARYVAR
  5
49BC
102
{ACAD_REACTORS
330
12D
102
}
330
12D
100
DictionaryVariables
280
     0
  1

  0
DICTIONARYVAR
  5
12E
102
{ACAD_REACTORS
330
12D
102
}
330
12D
100
DictionaryVariables
280
     0
  1
96
  0
DICTIONARY
  5
10872
330
3A76
100
AcDbDictionary
280
     1
281
     1
  3
ACAD_XREC_ROUNDTRIP
360
10873
  0
DICTIONARY
  5
10874
330
3A77
100
AcDbDictionary
280
     1
281
     1
  3
ACAD_XREC_ROUNDTRIP
360
10875
  0
DICTIONARY
  5
49C7
330
49C6
100
AcDbDictionary
280
     1
281
     1
  3
ACAD_XREC_ROUNDTRIP
360
7E79
  3
BUMPTILE
360
49C9
  3
DIFFUSETILE
360
49C8
  3
OPACITYTILE
360
49CC
  3
REFLECTIONTILE
360
49CB
  3
REFRACTIONTILE
360
49CD
  3
SPECULARTILE
360
49CA
  0
DICTIONARY
  5
49BF
330
49BE
100
AcDbDictionary
280
     1
281
     1
  3
ACAD_XREC_ROUNDTRIP
360
7E78
  3
BUMPTILE
360
49C1
  3
DIFFUSETILE
360
49C0
  3
OPACITYTILE
360
49C4
  3
REFLECTIONTILE
360
49C3
  3
REFRACTIONTILE
360
49C5
  3
SPECULARTILE
360
49C2
  0
DICTIONARY
  5
49CF
330
49CE
100
AcDbDictionary
280
     1
281
     1
  3
ACAD_XREC_ROUNDTRIP
360
7E7A
  3
BUMPTILE
360
49D1
  3
DIFFUSETILE
360
49D0
  3
OPACITYTILE
360
49D4
  3
REFLECTIONTILE
360
49D3
  3
REFRACTIONTILE
360
49D5
  3
SPECULARTILE
360
49D2
  0
DICTIONARY
  5
60E4
330
450C
100
AcDbDictionary
280
     1
281
     1
  3
ACAD_ROUNDTRIP_2008_TABLESTYLE_CELLSTYLEMAP
360
7E70
  3
ACAD_XREC_ROUNDTRIP
360
7E77
  0
XRECORD
  5
10873
102
{ACAD_REACTORS
330
10872
102
}
330
10872
100
AcDbXrecord
280
     1
102
SHADEPLOT
 70
     0
102
SHADEPLOTRESLEVEL
 70
     2
102
SHADEPLOTCUSTOMDPI
 70
   300
  0
XRECORD
  5
10875
102
{ACAD_REACTORS
330
10874
102
}
330
10874
100
AcDbXrecord
280
     1
102
SHADEPLOT
 70
     0
102
SHADEPLOTRESLEVEL
 70
     2
102
SHADEPLOTCUSTOMDPI
 70
   300
  0
XRECORD
  5
7E79
102
{ACAD_REACTORS
330
49C7
102
}
330
49C7
100
AcDbXrecord
280
     1
102
MATERIAL
148
0.0
149
0.0
149
0.0
 93
        0
 94
      127
282
     0
 72
     0
 77
     0
171
     0
175
     0
179
     0
273
     0
  0
XRECORD
  5
49C9
102
{ACAD_REACTORS
330
49C7
102
}
330
49C7
100
AcDbXrecord
280
     1
270
     1
271
     1
  0
XRECORD
  5
49C8
102
{ACAD_REACTORS
330
49C7
102
}
330
49C7
100
AcDbXrecord
280
     1
270
     1
271
     1
  0
XRECORD
  5
49CC
102
{ACAD_REACTORS
330
49C7
102
}
330
49C7
100
AcDbXrecord
280
     1
270
     1
271
     1
  0
XRECORD
  5
49CB
102
{ACAD_REACTORS
330
49C7
102
}
330
49C7
100
AcDbXrecord
280
     1
270
     1
271
     1
  0
XRECORD
  5
49CD
102
{ACAD_REACTORS
330
49C7
102
}
330
49C7
100
AcDbXrecord
280
     1
270
     1
271
     1
  0
XRECORD
  5
49CA
102
{ACAD_REACTORS
330
49C7
102
}
330
49C7
100
AcDbXrecord
280
     1
270
     1
271
     1
  0
XRECORD
  5
7E78
102
{ACAD_REACTORS
330
49BF
102
}
330
49BF
100
AcDbXrecord
280
     1
102
MATERIAL
148
0.0
149
0.0
149
0.0
 93
        0
 94
      127
282
     0
 72
     0
 77
     0
171
     0
175
     0
179
     0
273
     0
  0
XRECORD
  5
49C1
102
{ACAD_REACTORS
330
49BF
102
}
330
49BF
100
AcDbXrecord
280
     1
270
     1
271
     1
  0
XRECORD
  5
49C0
102
{ACAD_REACTORS
330
49BF
102
}
330
49BF
100
AcDbXrecord
280
     1
270
     1
271
     1
  0
XRECORD
  5
49C4
102
{ACAD_REACTORS
330
49BF
102
}
330
49BF
100
AcDbXrecord
280
     1
270
     1
271
     1
  0
XRECORD
  5
49C3
102
{ACAD_REACTORS
330
49BF
102
}
330
49BF
100
AcDbXrecord
280
     1
270
     1
271
     1
  0
XRECORD
  5
49C5
102
{ACAD_REACTORS
330
49BF
102
}
330
49BF
100
AcDbXrecord
280
     1
270
     1
271
     1
  0
XRECORD
  5
49C2
102
{ACAD_REACTORS
330
49BF
102
}
330
49BF
100
AcDbXrecord
280
     1
270
     1
271
     1
  0
XRECORD
  5
7E7A
102
{ACAD_REACTORS
330
49CF
102
}
330
49CF
100
AcDbXrecord
280
     1
102
MATERIAL
148
0.0
149
0.0
149
0.0
 93
        0
 94
      127
282
     0
 72
     0
 77
     0
171
     0
175
     0
179
     0
273
     0
  0
XRECORD
  5
49D1
102
{ACAD_REACTORS
330
49CF
102
}
330
49CF
100
AcDbXrecord
280
     1
270
     1
271
     1
  0
XRECORD
  5
49D0
102
{ACAD_REACTORS
330
49CF
102
}
330
49CF
100
AcDbXrecord
280
     1
270
     1
271
     1
  0
XRECORD
  5
49D4
102
{ACAD_REACTORS
330
49CF
102
}
330
49CF
100
AcDbXrecord
280
     1
270
     1
271
     1
  0
XRECORD
  5
49D3
102
{ACAD_REACTORS
330
49CF
102
}
330
49CF
100
AcDbXrecord
280
     1
270
     1
271
     1
  0
XRECORD
  5
49D5
102
{ACAD_REACTORS
330
49CF
102
}
330
49CF
100
AcDbXrecord
280
     1
270
     1
271
     1
  0
XRECORD
  5
49D2
102
{ACAD_REACTORS
330
49CF
102
}
330
49CF
100
AcDbXrecord
280
     1
270
     1
271
     1
  0
ACAD_PROXY_OBJECT
  5
7E70
102
{ACAD_REACTORS
330
60E4
102
}
330
60E4
100
AcDbProxyObject
 90
      499
 91
      515
 95
   983063
 70
     0
 93
     5232
310
40D054060020000020000003200101A412A5058000000C10000000000000006101010000000000003E0FC000000000000F83F0000000000003E0FC000000000000F83F02B5E8DC0F42B1CFC0AD7A3703D0AC73F419019018000000C1003FBFFFFFE02B5E8DC0F42A9CFD029018000000C1003FBFFFFFE02B5E8DC0F42A9CFD
310
049018000000C1003FBFFFFFE02B5E8DC0F42A9CFD089018000000C1003FBFFFFFE02B5E8DC0F42A9CFD109018000000C1003FBFFFFFE02B5E8DC0F42A9CFD209018000000C1003FBFFFFFE02B5E8DC0F42A9CFD01405075F5449544C450041501A8000000C800406904A94160000003040000000000000012404040000000
310
00000F83F0000000000003E0FC000000000000F83F0000000000003E0FC0AD7A3703D0AC73F02B5E8DC0F42B1CFD0640640600000030400FEFFFFFF80AD7A3703D0AA73F40A40600000030400FEFFFFFF80AD7A3703D0AA73F41240600000030400FEFFFFFF80AD7A3703D0AA73F42240600000030400FEFFFFFF80AD7A370
310
3D0AA73F44240600000030400FEFFFFFF80AD7A3703D0AA73F48240600000030400FEFFFFFF80AD7A3703D0AA73F409014217D2115051115480105406A0000003200101A412A5028000000C10000000000000004901010000000000003E0FC000000000000F83F0000000000003E0FC000000000000F83F02B5E8DC0F42B1C
310
FC0AD7A3703D0AC73F419019018000000C1003FBFFFFFE02B5E8DC0F42A9CFD029018000000C1003FBFFFFFE02B5E8DC0F42A9CFD049018000000C1003FBFFFFFE02B5E8DC0F42A9CFD089018000000C1003FBFFFFFE02B5E8DC0F42A9CFD109018000000C1003FBFFFFFE02B5E8DC0F42A9CFD209018000000C1003FBFFFF
310
FE02B5E8DC0F42A9CFD03409065F444154410000
340
F
340
0
340
0
340
0
340
0
340
0
340
0
340
F
340
0
340
0
340
0
340
0
340
0
340
0
340
F
340
0
340
0
340
0
340
0
340
0
340
0
 94
        0
1001
ACAD
1000
AcRTDxfName
1000
CELLSTYLEMAP
1000
AcRTDxfName
1000
CELLSTYLEMAP
1000
AcRTDxfName
1000
CELLSTYLEMAP
1000
AcRTDxfName
1000
CELLSTYLEMAP
1000
AcRTDxfName
1000
CELLSTYLEMAP
1000
AcRTDxfName
1000
CELLSTYLEMAP
1000
AcRTDxfName
1000
CELLSTYLEMAP
1000
AcRTDxfName
1000
CELLSTYLEMAP
  0
XRECORD
  5
7E77
102
{ACAD_REACTORS
330
60E4
102
}
330
60E4
100
AcDbXrecord
280
     1
102
ACAD_ROUNDTRIP_PRE2007_TABLESTYLE
 90
        4
 91
        0
  1

 92
        4
 93
        0
  2

 94
        4
 95
        0
  3

  0
ENDSEC
  0
EOF
