  0
SECTION
  2
HEADER
  9
$ACADVER
  1
AC1024
  9
$ACADMAINTVER
 70
   226
  9
$DWGCODEPAGE
  3
ANSI_932
  9
$LASTSAVEDBY
  1
takaaki.hirami
  9
$INSBASE
 10
0.0
 20
0.0
 30
0.0
  9
$EXTMIN
 10
20.56885705743468
 20
18.45266288119955
 30
0.0
  9
$EXTMAX
 10
437.3688570574345
 20
988.9339395816868
 30
0.0
  9
$LIMMIN
 10
0.0
 20
0.0
  9
$LIMMAX
 10
420.0
 20
297.0
  9
$ORTHOMODE
 70
     0
  9
$REGENMODE
 70
     1
  9
$FILLMODE
 70
     1
  9
$QTEXTMODE
 70
     0
  9
$MIRRTEXT
 70
     1
  9
$LTSCALE
 40
1.0
  9
$ATTMODE
 70
     1
  9
$TEXTSIZE
 40
2.5
  9
$TRACEWID
 40
1.0
  9
$TEXTSTYLE
  7
STANDARD
  9
$CLAYER
  8
0
  9
$CELTYPE
  6
ByLayer
  9
$CECOLOR
 62
   256
  9
$CELTSCALE
 40
1.0
  9
$DISPSILH
 70
     0
  9
$DIMSCALE
 40
1.0
  9
$DIMASZ
 40
2.5
  9
$DIMEXO
 40
0.625
  9
$DIMDLI
 40
3.75
  9
$DIMRND
 40
0.0
  9
$DIMDLE
 40
0.0
  9
$DIMEXE
 40
1.25
  9
$DIMTP
 40
0.0
  9
$DIMTM
 40
0.0
  9
$DIMTXT
 40
2.5
  9
$DIMCEN
 40
2.5
  9
$DIMTSZ
 40
0.0
  9
$DIMTOL
 70
     0
  9
$DIMLIM
 70
     0
  9
$DIMTIH
 70
     0
  9
$DIMTOH
 70
     0
  9
$DIMSE1
 70
     0
  9
$DIMSE2
 70
     0
  9
$DIMTAD
 70
     1
  9
$DIMZIN
 70
     8
  9
$DIMBLK
  1

  9
$DIMASO
 70
     1
  9
$DIMSHO
 70
     1
  9
$DIMPOST
  1

  9
$DIMAPOST
  1

  9
$DIMALT
 70
     0
  9
$DIMALTD
 70
     3
  9
$DIMALTF
 40
0.03937007874016
  9
$DIMLFAC
 40
1.0
  9
$DIMTOFL
 70
     1
  9
$DIMTVP
 40
0.0
  9
$DIMTIX
 70
     0
  9
$DIMSOXD
 70
     0
  9
$DIMSAH
 70
     0
  9
$DIMBLK1
  1

  9
$DIMBLK2
  1

  9
$DIMSTYLE
  2
ISO-25
  9
$DIMCLRD
 70
     0
  9
$DIMCLRE
 70
     0
  9
$DIMCLRT
 70
     0
  9
$DIMTFAC
 40
1.0
  9
$DIMGAP
 40
0.625
  9
$DIMJUST
 70
     0
  9
$DIMSD1
 70
     0
  9
$DIMSD2
 70
     0
  9
$DIMTOLJ
 70
     1
  9
$DIMTZIN
 70
     0
  9
$DIMALTZ
 70
     0
  9
$DIMALTTZ
 70
     0
  9
$DIMUPT
 70
     0
  9
$DIMDEC
 70
     4
  9
$DIMTDEC
 70
     4
  9
$DIMALTU
 70
     2
  9
$DIMALTTD
 70
     2
  9
$DIMTXSTY
  7
STANDARD
  9
$DIMAUNIT
 70
     0
  9
$DIMADEC
 70
     0
  9
$DIMALTRND
 40
0.0
  9
$DIMAZIN
 70
     0
  9
$DIMDSEP
 70
    46
  9
$DIMATFIT
 70
     3
  9
$DIMFRAC
 70
     0
  9
$DIMLDRBLK
  1

  9
$DIMLUNIT
 70
     2
  9
$DIMLWD
 70
    -2
  9
$DIMLWE
 70
    -2
  9
$DIMTMOVE
 70
     0
  9
$DIMFXL
 40
1.0
  9
$DIMFXLON
 70
     0
  9
$DIMJOGANG
 40
0.7853981633974483
  9
$DIMTFILL
 70
     0
  9
$DIMTFILLCLR
 70
     0
  9
$DIMARCSYM
 70
     0
  9
$DIMLTYPE
  6

  9
$DIMLTEX1
  6

  9
$DIMLTEX2
  6

  9
$DIMTXTDIRECTION
 70
     0
  9
$LUNITS
 70
     2
  9
$LUPREC
 70
     4
  9
$SKETCHINC
 40
1.0
  9
$FILLETRAD
 40
10.0
  9
$AUNITS
 70
     0
  9
$AUPREC
 70
     0
  9
$MENU
  1
.
  9
$ELEVATION
 40
0.0
  9
$PELEVATION
 40
0.0
  9
$THICKNESS
 40
0.0
  9
$LIMCHECK
 70
     0
  9
$CHAMFERA
 40
10.0
  9
$CHAMFERB
 40
10.0
  9
$CHAMFERC
 40
0.0
  9
$CHAMFERD
 40
0.0
  9
$SKPOLY
 70
     0
  9
$TDCREATE
 40
2452216.477743056
  9
$TDUCREATE
 40
2452216.102743056
  9
$TDUPDATE
 40
2459235.408125000
  9
$TDUUPDATE
 40
2459235.033125001
  9
$TDINDWG
 40
0.0012263194
  9
$TDUSRTIMER
 40
0.0012263194
  9
$USRTIMER
 70
     1
  9
$ANGBASE
 50
0.0
  9
$ANGDIR
 70
     0
  9
$PDMODE
 70
     0
  9
$PDSIZE
 40
0.0
  9
$PLINEWID
 40
0.0
  9
$SPLFRAME
 70
     0
  9
$SPLINETYPE
 70
     6
  9
$SPLINESEGS
 70
     8
  9
$HANDSEED
  5
927
  9
$SURFTAB1
 70
     6
  9
$SURFTAB2
 70
     6
  9
$SURFTYPE
 70
     6
  9
$SURFU
 70
     6
  9
$SURFV
 70
     6
  9
$UCSBASE
  2

  9
$UCSNAME
  2

  9
$UCSORG
 10
0.0
 20
0.0
 30
0.0
  9
$UCSXDIR
 10
1.0
 20
0.0
 30
0.0
  9
$UCSYDIR
 10
0.0
 20
1.0
 30
0.0
  9
$UCSORTHOREF
  2

  9
$UCSORTHOVIEW
 70
     0
  9
$UCSORGTOP
 10
0.0
 20
0.0
 30
0.0
  9
$UCSORGBOTTOM
 10
0.0
 20
0.0
 30
0.0
  9
$UCSORGLEFT
 10
0.0
 20
0.0
 30
0.0
  9
$UCSORGRIGHT
 10
0.0
 20
0.0
 30
0.0
  9
$UCSORGFRONT
 10
0.0
 20
0.0
 30
0.0
  9
$UCSORGBACK
 10
0.0
 20
0.0
 30
0.0
  9
$PUCSBASE
  2

  9
$PUCSNAME
  2

  9
$PUCSORG
 10
0.0
 20
0.0
 30
0.0
  9
$PUCSXDIR
 10
1.0
 20
0.0
 30
0.0
  9
$PUCSYDIR
 10
0.0
 20
1.0
 30
0.0
  9
$PUCSORTHOREF
  2

  9
$PUCSORTHOVIEW
 70
     0
  9
$PUCSORGTOP
 10
0.0
 20
0.0
 30
0.0
  9
$PUCSORGBOTTOM
 10
0.0
 20
0.0
 30
0.0
  9
$PUCSORGLEFT
 10
0.0
 20
0.0
 30
0.0
  9
$PUCSORGRIGHT
 10
0.0
 20
0.0
 30
0.0
  9
$PUCSORGFRONT
 10
0.0
 20
0.0
 30
0.0
  9
$PUCSORGBACK
 10
0.0
 20
0.0
 30
0.0
  9
$USERI1
 70
     0
  9
$USERI2
 70
     0
  9
$USERI3
 70
     0
  9
$USERI4
 70
     0
  9
$USERI5
 70
     0
  9
$USERR1
 40
0.0
  9
$USERR2
 40
0.0
  9
$USERR3
 40
0.0
  9
$USERR4
 40
0.0
  9
$USERR5
 40
0.0
  9
$WORLDVIEW
 70
     1
  9
$SHADEDGE
 70
     3
  9
$SHADEDIF
 70
    70
  9
$TILEMODE
 70
     1
  9
$MAXACTVP
 70
    64
  9
$PINSBASE
 10
0.0
 20
0.0
 30
0.0
  9
$PLIMCHECK
 70
     0
  9
$PEXTMIN
 10
1.000000000000000E+20
 20
1.000000000000000E+20
 30
1.000000000000000E+20
  9
$PEXTMAX
 10
-1.000000000000000E+20
 20
-1.000000000000000E+20
 30
-1.000000000000000E+20
  9
$PLIMMIN
 10
0.0
 20
0.0
  9
$PLIMMAX
 10
420.0
 20
297.0
  9
$UNITMODE
 70
     0
  9
$VISRETAIN
 70
     1
  9
$PLINEGEN
 70
     0
  9
$PSLTSCALE
 70
     1
  9
$TREEDEPTH
 70
  3020
  9
$CMLSTYLE
  2
Standard
  9
$CMLJUST
 70
     0
  9
$CMLSCALE
 40
1.0
  9
$PROXYGRAPHICS
 70
     1
  9
$MEASUREMENT
 70
     0
  9
$CELWEIGHT
370
    -1
  9
$ENDCAPS
280
     0
  9
$JOINSTYLE
280
     0
  9
$LWDISPLAY
290
     0
  9
$INSUNITS
 70
     0
  9
$HYPERLINKBASE
  1

  9
$STYLESHEET
  1

  9
$XEDIT
290
     1
  9
$CEPSNTYPE
380
     0
  9
$PSTYLEMODE
290
     1
  9
$FINGERPRINTGUID
  2
{A39B3F5D-E0D9-AA4F-894C-E139627DA2E2}
  9
$VERSIONGUID
  2
{2AC0F248-5A0C-FE43-B609-8331AD23895D}
  9
$EXTNAMES
290
     1
  9
$PSVPSCALE
 40
0.0
  9
$OLESTARTUP
290
     0
  9
$SORTENTS
280
   127
  9
$INDEXCTL
280
     0
  9
$HIDETEXT
280
     0
  9
$XCLIPFRAME
280
     2
  9
$HALOGAP
280
     0
  9
$OBSCOLOR
 70
   257
  9
$OBSLTYPE
280
     0
  9
$INTERSECTIONDISPLAY
280
     0
  9
$INTERSECTIONCOLOR
 70
   257
  9
$DIMASSOC
280
     1
  9
$PROJECTNAME
  1

  9
$CAMERADISPLAY
290
     0
  9
$LENSLENGTH
 40
50.0
  9
$CAMERAHEIGHT
 40
0.0
  9
$STEPSPERSEC
 40
2.0
  9
$STEPSIZE
 40
6.0
  9
$3DDWFPREC
 40
2.0
  9
$PSOLWIDTH
 40
0.25
  9
$PSOLHEIGHT
 40
4.0
  9
$LOFTANG1
 40
1.570796326794896
  9
$LOFTANG2
 40
1.570796326794896
  9
$LOFTMAG1
 40
0.0
  9
$LOFTMAG2
 40
0.0
  9
$LOFTPARAM
 70
     7
  9
$LOFTNORMALS
280
     1
  9
$LATITUDE
 40
37.795
  9
$LONGITUDE
 40
-122.394
  9
$NORTHDIRECTION
 40
0.0
  9
$TIMEZONE
 70
 -8000
  9
$LIGHTGLYPHDISPLAY
280
     1
  9
$TILEMODELIGHTSYNCH
280
     1
  9
$CMATERIAL
347
86A
  9
$SOLIDHIST
280
     0
  9
$SHOWHIST
280
     1
  9
$DWFFRAME
280
     2
  9
$DGNFRAME
280
     0
  9
$REALWORLDSCALE
290
     1
  9
$INTERFERECOLOR
 62
     1
  9
$INTERFEREOBJVS
345
88C
  9
$INTERFEREVPVS
346
889
  9
$CSHADOW
280
     0
  9
$SHADOWPLANELOCATION
 40
0.0
  0
ENDSEC
  0
SECTION
  2
CLASSES
  0
CLASS
  1
ACDBDICTIONARYWDFLT
  2
AcDbDictionaryWithDefault
  3
ObjectDBX Classes
 90
        0
 91
        1
280
     0
281
     0
  0
CLASS
  1
MATERIAL
  2
AcDbMaterial
  3
ObjectDBX Classes
 90
     1153
 91
        3
280
     0
281
     0
  0
CLASS
  1
VISUALSTYLE
  2
AcDbVisualStyle
  3
ObjectDBX Classes
 90
     4095
 91
       24
280
     0
281
     0
  0
CLASS
  1
SCALE
  2
AcDbScale
  3
ObjectDBX Classes
 90
     1153
 91
       17
280
     0
281
     0
  0
CLASS
  1
TABLESTYLE
  2
AcDbTableStyle
  3
ObjectDBX Classes
 90
     4095
 91
        1
280
     0
281
     0
  0
CLASS
  1
MLEADERSTYLE
  2
AcDbMLeaderStyle
  3
ACDB_MLEADERSTYLE_CLASS
 90
     4095
 91
        1
280
     0
281
     0
  0
CLASS
  1
ACDBSECTIONVIEWSTYLE
  2
AcDbSectionViewStyle
  3
ObjectDBX Classes
 90
     1025
 91
        1
280
     0
281
     0
  0
CLASS
  1
ACDBDETAILVIEWSTYLE
  2
AcDbDetailViewStyle
  3
ObjectDBX Classes
 90
     1025
 91
        1
280
     0
281
     0
  0
CLASS
  1
DICTIONARYVAR
  2
AcDbDictionaryVar
  3
ObjectDBX Classes
 90
        0
 91
        9
280
     0
281
     0
  0
CLASS
  1
CELLSTYLEMAP
  2
AcDbCellStyleMap
  3
ObjectDBX Classes
 90
     1152
 91
        1
280
     0
281
     0
  0
ENDSEC
  0
SECTION
  2
TABLES
  0
TABLE
  2
VPORT
  5
861
330
0
100
AcDbSymbolTable
 70
     1
  0
VPORT
  5
8CC
330
861
100
AcDbSymbolTableRecord
100
AcDbViewportTableRecord
  2
*ACTIVE
 70
     0
 10
0.0
 20
0.0
 11
1.0
 21
1.0
 12
627.1405690834281
 22
560.4354769444776
 13
0.0
 23
0.0
 14
10.0
 24
10.0
 15
10.0
 25
10.0
 16
0.0
 26
0.0
 36
1.0
 17
0.0
 27
0.0
 37
0.0
 40
1435.604822387044
 41
1.98015873015873
 42
50.0
 43
0.0
 44
0.0
 50
0.0
 51
0.0
 71
     0
 72
   100
 73
     1
 74
     3
 75
     0
 76
     0
 77
     0
 78
     0
281
     0
 65
     1
110
0.0
120
0.0
130
0.0
111
1.0
121
0.0
131
0.0
112
0.0
122
1.0
132
0.0
 79
     0
146
0.0
348
888
 60
     3
 61
     5
292
     1
282
     0
141
0.0
142
0.0
 63
   250
421
  3355443
1001
ACAD_NAV_VCDISPLAY
1070
     3
  0
ENDTAB
  0
TABLE
  2
LTYPE
  5
85E
330
0
100
AcDbSymbolTable
 70
     2
  0
LTYPE
  5
8B3
330
85E
100
AcDbSymbolTableRecord
100
AcDbLinetypeTableRecord
  2
ByBlock
 70
     0
  3

 72
    65
 73
     0
 40
0.0
  0
LTYPE
  5
8B4
330
85E
100
AcDbSymbolTableRecord
100
AcDbLinetypeTableRecord
  2
ByLayer
 70
     0
  3

 72
    65
 73
     0
 40
0.0
  0
LTYPE
  5
8B5
330
85E
100
AcDbSymbolTableRecord
100
AcDbLinetypeTableRecord
  2
CONTINUOUS
 70
     0
  3
Solid line
 72
    65
 73
     0
 40
0.0
  0
ENDTAB
  0
TABLE
  2
LAYER
  5
85B
330
0
100
AcDbSymbolTable
 70
     3
  0
LAYER
  5
8AD
102
{ACAD_XDICTIONARY
360
8DF
102
}
330
85B
100
AcDbSymbolTableRecord
100
AcDbLayerTableRecord
  2
0
 70
     0
 62
     7
  6
CONTINUOUS
370
    -3
390
868
347
87A
  0
LAYER
  5
8CD
102
{ACAD_XDICTIONARY
360
8E1
102
}
330
85B
100
AcDbSymbolTableRecord
100
AcDbLayerTableRecord
  2
1外形線
 70
     0
 62
     3
  6
CONTINUOUS
370
    -3
390
868
347
87A
  0
LAYER
  5
8DB
102
{ACAD_XDICTIONARY
360
8E3
102
}
330
85B
100
AcDbSymbolTableRecord
100
AcDbLayerTableRecord
  2
1
 70
     0
 62
     7
  6
CONTINUOUS
370
    -3
390
868
347
87A
  0
ENDTAB
  0
TABLE
  2
STYLE
  5
85C
330
0
100
AcDbSymbolTable
 70
     3
  0
STYLE
  5
8AE
330
85C
100
AcDbSymbolTableRecord
100
AcDbTextStyleTableRecord
  2
STANDARD
 70
     0
 40
0.0
 41
1.0
 50
0.0
 71
     0
 42
2.5
  3
txt
  4

  0
STYLE
  5
8B2
330
85C
100
AcDbSymbolTableRecord
100
AcDbTextStyleTableRecord
  2
Annotative
 70
     0
 40
0.0
 41
1.0
 50
0.0
 71
     0
 42
0.2
  3
txt
  4

1001
AcadAnnotative
1000
AnnotativeData
1002
{
1070
     1
1070
     1
1002
}
  0
STYLE
  5
8CE
330
85C
100
AcDbSymbolTableRecord
100
AcDbTextStyleTableRecord
  2
KANJI
 70
     0
 40
0.0
 41
1.0
 50
0.0
 71
     0
 42
2.5
  3
simplex.shx
  4
extfont.shx
  0
ENDTAB
  0
TABLE
  2
VIEW
  5
85F
330
0
100
AcDbSymbolTable
 70
     0
  0
ENDTAB
  0
TABLE
  2
UCS
  5
860
330
0
100
AcDbSymbolTable
 70
     0
  0
ENDTAB
  0
TABLE
  2
APPID
  5
862
330
0
100
AcDbSymbolTable
 70
     4
  0
APPID
  5
8AF
330
862
100
AcDbSymbolTableRecord
100
AcDbRegAppTableRecord
  2
ACAD
 70
     0
  0
APPID
  5
8B6
330
862
100
AcDbSymbolTableRecord
100
AcDbRegAppTableRecord
  2
AcadAnnotative
 70
     0
  0
APPID
  5
8DD
330
862
100
AcDbSymbolTableRecord
100
AcDbRegAppTableRecord
  2
ACAD_EXEMPT_FROM_CAD_STANDARDS
 70
     0
  0
APPID
  5
8EF
330
862
100
AcDbSymbolTableRecord
100
AcDbRegAppTableRecord
  2
ACAD_NAV_VCDISPLAY
 70
     0
  0
ENDTAB
  0
TABLE
  2
DIMSTYLE
  5
863
330
0
100
AcDbSymbolTable
 70
     3
100
AcDbDimStyleTable
 71
     0
  0
DIMSTYLE
105
8B0
330
863
100
AcDbSymbolTableRecord
100
AcDbDimStyleTableRecord
  2
STANDARD
 70
     0
274
     3
279
     2
284
     8
285
     8
286
     8
340
8AE
  0
DIMSTYLE
105
8B1
330
863
100
AcDbSymbolTableRecord
100
AcDbDimStyleTableRecord
  2
Annotative
 70
     0
340
8AE
1001
AcadAnnotative
1000
AnnotativeData
1002
{
1070
     1
1070
     1
1002
}
  0
DIMSTYLE
105
8CF
330
863
100
AcDbSymbolTableRecord
100
AcDbDimStyleTableRecord
  2
ISO-25
 70
     0
 41
2.5
 42
0.625
 43
3.75
 44
1.25
 73
     0
 74
     0
 77
     1
 78
     8
140
2.5
141
2.5
143
0.03937007874016
147
0.625
171
     3
172
     1
274
     3
279
     2
284
     8
285
     8
286
     8
340
8AE
  0
ENDTAB
  0
TABLE
  2
BLOCK_RECORD
  5
85A
330
0
100
AcDbSymbolTable
 70
     4
  0
BLOCK_RECORD
  5
8C8
330
85A
100
AcDbSymbolTableRecord
100
AcDbBlockTableRecord
  2
*Model_Space
340
8CB
 70
     0
280
     1
281
     0
  0
BLOCK_RECORD
  5
8C4
330
85A
100
AcDbSymbolTableRecord
100
AcDbBlockTableRecord
  2
*Paper_Space
340
8C7
 70
     0
280
     1
281
     0
  0
BLOCK_RECORD
  5
8D3
330
85A
100
AcDbSymbolTableRecord
100
AcDbBlockTableRecord
  2
$MODEL_SPACE
340
0
 70
     0
280
     1
281
     0
  0
BLOCK_RECORD
  5
8D5
330
85A
100
AcDbSymbolTableRecord
100
AcDbBlockTableRecord
  2
$PAPER_SPACE
340
0
 70
     0
280
     1
281
     0
  0
BLOCK_RECORD
  5
8D7
330
85A
100
AcDbSymbolTableRecord
100
AcDbBlockTableRecord
  2
2
340
0
 70
     0
280
     1
281
     0
  0
BLOCK_RECORD
  5
8D9
330
85A
100
AcDbSymbolTableRecord
100
AcDbBlockTableRecord
  2
*U3
340
0
102
{BLKREFS
331
2C
102
}
 70
     0
280
     1
281
     0
  0
ENDTAB
  0
ENDSEC
  0
SECTION
  2
BLOCKS
  0
BLOCK
  5
8C9
330
8C8
100
AcDbEntity
  8
0
100
AcDbBlockBegin
  2
*Model_Space
 70
     0
 10
0.0
 20
0.0
 30
0.0
  3
*Model_Space
  1

  0
ENDBLK
  5
8CA
330
8C8
100
AcDbEntity
  8
0
100
AcDbBlockEnd
  0
BLOCK
  5
8C5
330
8C4
100
AcDbEntity
 67
     1
  8
0
100
AcDbBlockBegin
  2
*Paper_Space
 70
     0
 10
0.0
 20
0.0
 30
0.0
  3
*Paper_Space
  1

  0
ENDBLK
  5
8C6
330
8C4
100
AcDbEntity
 67
     1
  8
0
100
AcDbBlockEnd
  0
BLOCK
  5
8D4
330
8D3
100
AcDbEntity
  8
0
100
AcDbBlockBegin
  2
$MODEL_SPACE
 70
     0
 10
0.0
 20
0.0
 30
0.0
  3
$MODEL_SPACE
  1

  0
ENDBLK
  5
21
330
8D3
100
AcDbEntity
  8
0
100
AcDbBlockEnd
  0
BLOCK
  5
8D6
330
8D5
100
AcDbEntity
  8
0
100
AcDbBlockBegin
  2
$PAPER_SPACE
 70
     0
 10
0.0
 20
0.0
 30
0.0
  3
$PAPER_SPACE
  1

  0
ENDBLK
  5
1D
330
8D5
100
AcDbEntity
  8
0
100
AcDbBlockEnd
  0
BLOCK
  5
8D8
330
8D7
100
AcDbEntity
  8
0
100
AcDbBlockBegin
  2
2
 70
     0
 10
0.0
 20
0.0
 30
0.0
  3
2
  1

  0
INSERT
  5
2C
330
8D7
100
AcDbEntity
  8
0
  6
Continuous
100
AcDbBlockReference
  2
*U3
 10
0.0
 20
0.0
 30
0.0
1001
ACAD
1002
{
1000
R14_HATCH_DATA
1000
2C
1011
1.0
1021
0.0
1031
0.0
1011
0.0
1021
1.0
1031
0.0
1011
0.0
1021
0.0
1031
1.0
1040
0.0
1010
0.0
1020
0.0
1030
1.0
1000
SOLID
1070
     1
1070
     1
1071
        1
1071
        7
1070
     0
1070
     1
1071
        3
1040
0.0000000000000284
1040
0.0
1040
-0.899999999998343
1040
0.2411542731875897
1040
-0.8999999999983572
1040
-0.2411542731875613
1071
        3
1005
2F
1005
2D
1005
30
1070
     0
1070
     1
1040
0.0028941747346077
1071
        1
1040
-0.5303136156475148
1040
-0.0796654556697263
1040
0.0
1002
}
  0
LINE
  5
2D
330
8D7
100
AcDbEntity
  8
0
100
AcDbLine
 10
-0.8999999999983572
 20
0.2411542731879876
 30
0.0
 11
-0.8999999999983572
 21
-0.2411542731880445
 31
0.0
  0
LINE
  5
2E
330
8D7
100
AcDbEntity
  8
0
100
AcDbLine
 10
-0.9999999999983517
 20
0.0
 30
0.0
 11
0.0
 21
0.0
 31
0.0
  0
LINE
  5
2F
330
8D7
100
AcDbEntity
  8
0
100
AcDbLine
 10
-0.8999999999984423
 20
0.2411542731875897
 30
0.0
 11
0.0
 21
0.0
 31
0.0
  0
LINE
  5
30
330
8D7
100
AcDbEntity
  8
0
100
AcDbLine
 10
-0.8999999999984423
 20
-0.2411542731875897
 30
0.0
 11
0.0
 21
0.0
 31
0.0
  0
ENDBLK
  5
32
330
8D7
100
AcDbEntity
  8
0
100
AcDbBlockEnd
  0
BLOCK
  5
8DA
330
8D9
100
AcDbEntity
  8
0
100
AcDbBlockBegin
  2
*U3
 70
     1
 10
0.0
 20
0.0
 30
0.0
  3
*U3
  1

  0
SOLID
  5
549
330
8D9
100
AcDbEntity
  8
0
  6
Continuous
100
AcDbTrace
 10
-0.5999999999988905
 20
0.0000000000000095
 30
0.0
 11
0.0000000000000284
 21
0.0
 31
0.0
 12
-0.899999999998343
 22
0.2411542731875897
 32
0.0
 13
-0.899999999998343
 23
0.2411542731875897
 33
0.0
  0
SOLID
  5
54A
330
8D9
100
AcDbEntity
  8
0
  6
Continuous
100
AcDbTrace
 10
-0.5999999999988905
 20
0.0000000000000095
 30
0.0
 11
-0.899999999998343
 21
0.2411542731875897
 31
0.0
 12
-0.8999999999983572
 22
-0.2411542731875613
 32
0.0
 13
-0.8999999999983572
 23
-0.2411542731875613
 33
0.0
  0
SOLID
  5
54B
330
8D9
100
AcDbEntity
  8
0
  6
Continuous
100
AcDbTrace
 10
-0.5999999999988905
 20
0.0000000000000095
 30
0.0
 11
-0.8999999999983572
 21
-0.2411542731875613
 31
0.0
 12
0.0000000000000284
 22
0.0
 32
0.0
 13
0.0000000000000284
 23
0.0
 33
0.0
  0
ENDBLK
  5
54D
330
8D9
100
AcDbEntity
  8
0
100
AcDbBlockEnd
  0
ENDSEC
  0
SECTION
  2
ENTITIES
  0
LINE
  5
2BE
330
8C8
100
AcDbEntity
  8
1外形線
100
AcDbLine
 10
437.3688570574345
 20
988.9339395816868
 30
0.0
 11
437.3688570574345
 21
18.45266288119955
 31
0.0
  0
LINE
  5
2BF
330
8C8
100
AcDbEntity
  8
1外形線
100
AcDbLine
 10
20.56885705743468
 20
988.9339395816868
 30
0.0
 11
20.56885705743468
 21
18.45266288119955
 31
0.0
  0
LINE
  5
2C0
330
8C8
100
AcDbEntity
  8
1外形線
100
AcDbLine
 10
345.116932239327
 20
465.348581556619
 30
0.0
 11
345.1169322393272
 21
515.4826593607765
 31
0.0
  0
LINE
  5
2C1
330
8C8
100
AcDbEntity
  8
1外形線
100
AcDbLine
 10
353.96159245577
 20
459.6818007529937
 30
0.0
 11
353.96159245577
 21
509.5966176821981
 31
0.0
  0
ARC
  5
2C2
330
8C8
100
AcDbEntity
  8
1外形線
100
AcDbCircle
 10
334.7513751973332
 20
490.3186206787538
 30
0.0
 40
27.21531950172839
100
AcDbArc
 50
8.484330316764353
 51
89.98798095670272
  0
ARC
  5
2C3
330
8C8
100
AcDbEntity
  8
1外形線
100
AcDbCircle
 10
334.7570842059862
 20
490.3339395816874
 30
0.0
 40
27.9
100
AcDbArc
 50
8.242853148287727
 51
90.0
  0
ARC
  5
2C4
330
8C8
100
AcDbEntity
  8
1外形線
100
AcDbCircle
 10
118.5688570574353
 20
404.1339395816871
 30
0.0
 40
96.62933271535136
100
AcDbArc
 50
35.28912467431339
 51
90.0
  0
ARC
  5
2C5
330
8C8
100
AcDbEntity
  8
1外形線
100
AcDbCircle
 10
118.5688570574353
 20
404.1339395816871
 30
0.0
 40
105.4620575973554
100
AcDbArc
 50
35.28912467431339
 51
90.0
  0
ARC
  5
2C6
330
8C8
100
AcDbEntity
  8
1外形線
100
AcDbCircle
 10
118.5688570574353
 20
404.1339395816871
 30
0.0
 40
111.3498220416365
100
AcDbArc
 50
35.28912467431339
 51
90.0
  0
LINE
  5
2C7
330
8C8
100
AcDbEntity
  8
1外形線
100
AcDbLine
 10
288.9761216590994
 20
459.6818007529937
 30
0.0
 11
288.9761216590995
 21
509.5966176821983
 31
0.0
  0
LINE
  5
2C8
330
8C8
100
AcDbEntity
  8
1外形線
100
AcDbLine
 10
297.8207818755425
 20
465.348581556619
 30
0.0
 11
297.8207818755423
 21
515.4826593607765
 31
0.0
  0
ARC
  5
2C9
330
8C8
100
AcDbEntity
  8
1外形線
100
AcDbCircle
 10
308.1863389175363
 20
490.3186206787538
 30
0.0
 40
27.21531950172839
100
AcDbArc
 50
90.01201904329731
 51
171.5156696832356
  0
ARC
  5
2CA
330
8C8
100
AcDbEntity
  8
1外形線
100
AcDbCircle
 10
308.1806299088832
 20
490.3339395816874
 30
0.0
 40
27.9
100
AcDbArc
 50
90.0
 51
171.7571468517123
  0
LINE
  5
2CB
330
8C8
100
AcDbEntity
  8
1外形線
  6
Continuous
100
AcDbLine
 10
321.4688570574348
 20
381.4433012314434
 30
0.0
 11
321.4688570574348
 21
529.4433012314434
 31
0.0
  0
LINE
  5
2CC
330
8C8
100
AcDbEntity
  8
1外形線
100
AcDbLine
 10
76.56885705743468
 20
517.5339395816871
 30
0.0
 11
76.56885705743468
 21
495.3339395816887
 31
0.0
  0
LINE
  5
2CD
330
8C8
100
AcDbEntity
  8
1外形線
100
AcDbLine
 10
107.0688570574344
 20
497.5339395816873
 30
0.0
 11
108.0347066380765
 21
510.7054442451929
 31
0.0
  0
LINE
  5
2CE
330
8C8
100
AcDbEntity
  8
1外形線
100
AcDbLine
 10
97.09735212506176
 20
510.7420397962768
 30
0.0
 11
98.06885705743423
 21
497.5339395816871
 31
0.0
  0
ARC
  5
2CF
330
8C8
100
AcDbEntity
  8
1外形線
100
AcDbCircle
 10
118.5688570574353
 20
404.1339395816871
 30
0.0
 40
113.4
100
AcDbArc
 50
35.28912467431339
 51
90.0
  0
LINE
  5
2D0
330
8C8
100
AcDbEntity
  8
1外形線
100
AcDbLine
 10
70.56885705743468
 20
517.2339395816874
 30
0.0
 11
70.56885705743468
 21
450.2433012314432
 31
0.0
  0
ARC
  5
2D1
330
8C8
100
AcDbEntity
  8
1外形線
100
AcDbCircle
 10
118.5688570574346
 20
407.1339395816885
 30
0.0
 40
88.2
100
AcDbArc
 50
34.4431145826228
 51
90.0
  0
LINE
  5
2D2
330
8C8
100
AcDbEntity
  8
1外形線
100
AcDbLine
 10
20.56885705743468
 20
18.45266288119955
 30
0.0
 11
437.3688570574345
 21
18.45266288119955
 31
0.0
  0
LINE
  5
2D3
330
8C8
100
AcDbEntity
  8
1外形線
100
AcDbLine
 10
20.56885705743468
 20
370.2433012314437
 30
0.0
 11
437.3688570574345
 21
370.2433012314437
 31
0.0
  0
ARC
  5
2D4
330
8C8
100
AcDbEntity
  8
1外形線
100
AcDbCircle
 10
308.4688570574348
 20
94.65266288119858
 30
0.0
 40
27.9
100
AcDbArc
 50
90.0
 51
180.0
  0
ARC
  5
2D5
330
8C8
100
AcDbEntity
  8
1外形線
100
AcDbCircle
 10
118.5688570574353
 20
59.3433012314432
 30
0.0
 40
96.77845480505068
100
AcDbArc
 50
35.28912467431339
 51
90.0
  0
ARC
  5
2D6
330
8C8
100
AcDbEntity
  8
1外形線
100
AcDbCircle
 10
118.5688570574353
 20
59.3433012314432
 30
0.0
 40
105.6718030341385
100
AcDbArc
 50
35.28912467431339
 51
90.0
  0
ARC
  5
2D7
330
8C8
100
AcDbEntity
  8
1外形線
100
AcDbCircle
 10
118.5688570574353
 20
59.3433012314432
 30
0.0
 40
111.4958861001712
100
AcDbArc
 50
35.28912467431339
 51
90.0
  0
ARC
  5
2D8
330
8C8
100
AcDbEntity
  8
1外形線
100
AcDbCircle
 10
118.5688570574346
 20
48.45266288119876
 30
0.0
 40
63.15654354239411
100
AcDbArc
 50
34.78138384827944
 51
90.0
  0
ARC
  5
2D9
330
8C8
100
AcDbEntity
  8
1外形線
100
AcDbCircle
 10
118.5688570574353
 20
59.3433012314432
 30
0.0
 40
113.4
100
AcDbArc
 50
35.28912467431339
 51
90.0
  0
ARC
  5
2DA
330
8C8
100
AcDbEntity
  8
1外形線
100
AcDbCircle
 10
118.5688570574346
 20
57.34330123144468
 30
0.0
 40
82.2
100
AcDbArc
 50
34.4431145826228
 51
90.0
  0
ARC
  5
2DB
330
8C8
100
AcDbEntity
  8
1外形線
100
AcDbCircle
 10
118.5688570574346
 20
57.34330123144468
 30
0.0
 40
85.20000000000001
100
AcDbArc
 50
34.4431145826228
 51
90.0
  0
ARC
  5
2DC
330
8C8
100
AcDbEntity
  8
1外形線
100
AcDbCircle
 10
118.5688570574346
 20
57.34330123144468
 30
0.0
 40
88.2
100
AcDbArc
 50
34.4431145826228
 51
90.0
  0
ARC
  5
2DD
330
8C8
100
AcDbEntity
  8
1外形線
100
AcDbCircle
 10
118.5688570574346
 20
48.45266288119876
 30
0.0
 40
50.0
100
AcDbArc
 50
5.215908570455905
 51
90.0
  0
LINE
  5
2DE
330
8C8
100
AcDbEntity
  8
1外形線
100
AcDbLine
 10
76.06885705743469
 20
173.4433012314435
 30
0.0
 11
71.56885705743468
 21
173.4433012314435
 31
0.0
  0
LINE
  5
2DF
330
8C8
100
AcDbEntity
  8
1外形線
100
AcDbLine
 10
70.56885705743468
 20
98.45266288119908
 30
0.0
 11
118.5688570574351
 21
98.45266288119876
 31
0.0
  0
LINE
  5
2E0
330
8C8
100
AcDbEntity
  8
1外形線
100
AcDbLine
 10
118.5688570574353
 20
139.5433012314446
 30
0.0
 11
70.56885705743468
 21
139.5433012314446
 31
0.0
  0
LINE
  5
2E1
330
8C8
100
AcDbEntity
  8
1外形線
100
AcDbLine
 10
118.5688570574353
 20
142.5433012314446
 30
0.0
 11
70.56885705743455
 21
142.5433012314446
 31
0.0
  0
LINE
  5
2E2
330
8C8
100
AcDbEntity
  8
1外形線
100
AcDbLine
 10
118.5688570574353
 20
145.5433012314446
 30
0.0
 11
70.56885705743468
 21
145.5433012314446
 31
0.0
  0
LINE
  5
2E3
330
8C8
100
AcDbEntity
  8
1外形線
100
AcDbLine
 10
70.56885705743468
 20
172.4433012314436
 30
0.0
 11
70.56885705743468
 21
98.45266288119908
 31
0.0
  0
ARC
  5
2E4
330
8C8
100
AcDbEntity
  8
1外形線
100
AcDbCircle
 10
71.56885705743468
 20
172.4433012314436
 30
0.0
 40
1.0
100
AcDbArc
 50
90.0
 51
180.0
  0
LINE
  5
2E5
330
8C8
100
AcDbEntity
  8
1外形線
100
AcDbLine
 10
76.56885705743468
 20
139.5433012314446
 30
0.0
 11
76.56885705743468
 21
98.45266288119908
 31
0.0
  0
LINE
  5
2E6
330
8C8
100
AcDbEntity
  8
1外形線
100
AcDbLine
 10
118.5688570574353
 20
111.6092064235928
 30
0.0
 11
76.56885705743468
 21
111.6092064235928
 31
0.0
  0
LINE
  5
2E7
330
8C8
100
AcDbEntity
  8
1外形線
100
AcDbLine
 10
118.5688570574353
 20
170.8391873316143
 30
0.0
 11
76.56885705743468
 21
170.8391873316145
 31
0.0
  0
POLYLINE
  5
2E8
330
8C8
100
AcDbEntity
  8
1外形線
100
AcDb3dPolyline
 66
     1
 10
0.0
 20
0.0
 30
0.0
 70
     8
  0
VERTEX
  5
54E
330
2E8
100
AcDbEntity
  8
1
100
AcDbVertex
100
AcDb3dPolylineVertex
 10
97.0826
 20
166.07
 30
0.0
 70
    32
  0
VERTEX
  5
54F
330
2E8
100
AcDbEntity
  8
1
100
AcDbVertex
100
AcDb3dPolylineVertex
 10
97.0744
 20
166.167
 30
0.0
 70
    32
  0
VERTEX
  5
550
330
2E8
100
AcDbEntity
  8
1
100
AcDbVertex
100
AcDb3dPolylineVertex
 10
97.06990000000001
 20
166.265
 30
0.0
 70
    32
  0
VERTEX
  5
551
330
2E8
100
AcDbEntity
  8
1
100
AcDbVertex
100
AcDb3dPolylineVertex
 10
97.069
 20
166.363
 30
0.0
 70
    32
  0
VERTEX
  5
552
330
2E8
100
AcDbEntity
  8
1
100
AcDbVertex
100
AcDb3dPolylineVertex
 10
97.07170000000001
 20
166.461
 30
0.0
 70
    32
  0
VERTEX
  5
553
330
2E8
100
AcDbEntity
  8
1
100
AcDbVertex
100
AcDb3dPolylineVertex
 10
97.078
 20
166.559
 30
0.0
 70
    32
  0
VERTEX
  5
554
330
2E8
100
AcDbEntity
  8
1
100
AcDbVertex
100
AcDb3dPolylineVertex
 10
97.088
 20
166.657
 30
0.0
 70
    32
  0
VERTEX
  5
555
330
2E8
100
AcDbEntity
  8
1
100
AcDbVertex
100
AcDb3dPolylineVertex
 10
97.10160000000001
 20
166.754
 30
0.0
 70
    32
  0
VERTEX
  5
556
330
2E8
100
AcDbEntity
  8
1
100
AcDbVertex
100
AcDb3dPolylineVertex
 10
97.1188
 20
166.851
 30
0.0
 70
    32
  0
VERTEX
  5
557
330
2E8
100
AcDbEntity
  8
1
100
AcDbVertex
100
AcDb3dPolylineVertex
 10
97.13970000000001
 20
166.948
 30
0.0
 70
    32
  0
VERTEX
  5
558
330
2E8
100
AcDbEntity
  8
1
100
AcDbVertex
100
AcDb3dPolylineVertex
 10
97.164
 20
167.045
 30
0.0
 70
    32
  0
VERTEX
  5
559
330
2E8
100
AcDbEntity
  8
1
100
AcDbVertex
100
AcDb3dPolylineVertex
 10
97.192
 20
167.141
 30
0.0
 70
    32
  0
VERTEX
  5
55A
330
2E8
100
AcDbEntity
  8
1
100
AcDbVertex
100
AcDb3dPolylineVertex
 10
97.2235
 20
167.236
 30
0.0
 70
    32
  0
VERTEX
  5
55B
330
2E8
100
AcDbEntity
  8
1
100
AcDbVertex
100
AcDb3dPolylineVertex
 10
97.2586
 20
167.331
 30
0.0
 70
    32
  0
VERTEX
  5
55C
330
2E8
100
AcDbEntity
  8
1
100
AcDbVertex
100
AcDb3dPolylineVertex
 10
97.2971
 20
167.425
 30
0.0
 70
    32
  0
VERTEX
  5
55D
330
2E8
100
AcDbEntity
  8
1
100
AcDbVertex
100
AcDb3dPolylineVertex
 10
97.33920000000001
 20
167.519
 30
0.0
 70
    32
  0
VERTEX
  5
55E
330
2E8
100
AcDbEntity
  8
1
100
AcDbVertex
100
AcDb3dPolylineVertex
 10
97.38469999999999
 20
167.612
 30
0.0
 70
    32
  0
VERTEX
  5
55F
330
2E8
100
AcDbEntity
  8
1
100
AcDbVertex
100
AcDb3dPolylineVertex
 10
97.4336
 20
167.703
 30
0.0
 70
    32
  0
VERTEX
  5
560
330
2E8
100
AcDbEntity
  8
1
100
AcDbVertex
100
AcDb3dPolylineVertex
 10
97.4859
 20
167.794
 30
0.0
 70
    32
  0
VERTEX
  5
561
330
2E8
100
AcDbEntity
  8
1
100
AcDbVertex
100
AcDb3dPolylineVertex
 10
97.5416
 20
167.884
 30
0.0
 70
    32
  0
VERTEX
  5
562
330
2E8
100
AcDbEntity
  8
1
100
AcDbVertex
100
AcDb3dPolylineVertex
 10
97.60049999999999
 20
167.973
 30
0.0
 70
    32
  0
VERTEX
  5
563
330
2E8
100
AcDbEntity
  8
1
100
AcDbVertex
100
AcDb3dPolylineVertex
 10
97.66280000000001
 20
168.0609999999999
 30
0.0
 70
    32
  0
VERTEX
  5
564
330
2E8
100
AcDbEntity
  8
1
100
AcDbVertex
100
AcDb3dPolylineVertex
 10
97.7283
 20
168.148
 30
0.0
 70
    32
  0
VERTEX
  5
565
330
2E8
100
AcDbEntity
  8
1
100
AcDbVertex
100
AcDb3dPolylineVertex
 10
97.797
 20
168.234
 30
0.0
 70
    32
  0
VERTEX
  5
566
330
2E8
100
AcDbEntity
  8
1
100
AcDbVertex
100
AcDb3dPolylineVertex
 10
97.86889999999999
 20
168.318
 30
0.0
 70
    32
  0
VERTEX
  5
567
330
2E8
100
AcDbEntity
  8
1
100
AcDbVertex
100
AcDb3dPolylineVertex
 10
97.9438
 20
168.4009999999999
 30
0.0
 70
    32
  0
VERTEX
  5
568
330
2E8
100
AcDbEntity
  8
1
100
AcDbVertex
100
AcDb3dPolylineVertex
 10
98.02190000000001
 20
168.483
 30
0.0
 70
    32
  0
VERTEX
  5
569
330
2E8
100
AcDbEntity
  8
1
100
AcDbVertex
100
AcDb3dPolylineVertex
 10
98.10290000000001
 20
168.563
 30
0.0
 70
    32
  0
VERTEX
  5
56A
330
2E8
100
AcDbEntity
  8
1
100
AcDbVertex
100
AcDb3dPolylineVertex
 10
98.1869
 20
168.642
 30
0.0
 70
    32
  0
VERTEX
  5
56B
330
2E8
100
AcDbEntity
  8
1
100
AcDbVertex
100
AcDb3dPolylineVertex
 10
98.27370000000001
 20
168.719
 30
0.0
 70
    32
  0
VERTEX
  5
56C
330
2E8
100
AcDbEntity
  8
1
100
AcDbVertex
100
AcDb3dPolylineVertex
 10
98.36339999999999
 20
168.795
 30
0.0
 70
    32
  0
VERTEX
  5
56D
330
2E8
100
AcDbEntity
  8
1
100
AcDbVertex
100
AcDb3dPolylineVertex
 10
98.45590000000001
 20
168.869
 30
0.0
 70
    32
  0
VERTEX
  5
56E
330
2E8
100
AcDbEntity
  8
1
100
AcDbVertex
100
AcDb3dPolylineVertex
 10
98.55110000000001
 20
168.941
 30
0.0
 70
    32
  0
VERTEX
  5
56F
330
2E8
100
AcDbEntity
  8
1
100
AcDbVertex
100
AcDb3dPolylineVertex
 10
98.6489
 20
169.012
 30
0.0
 70
    32
  0
VERTEX
  5
570
330
2E8
100
AcDbEntity
  8
1
100
AcDbVertex
100
AcDb3dPolylineVertex
 10
98.7494
 20
169.081
 30
0.0
 70
    32
  0
VERTEX
  5
571
330
2E8
100
AcDbEntity
  8
1
100
AcDbVertex
100
AcDb3dPolylineVertex
 10
98.85229999999999
 20
169.148
 30
0.0
 70
    32
  0
VERTEX
  5
572
330
2E8
100
AcDbEntity
  8
1
100
AcDbVertex
100
AcDb3dPolylineVertex
 10
98.95780000000002
 20
169.213
 30
0.0
 70
    32
  0
VERTEX
  5
573
330
2E8
100
AcDbEntity
  8
1
100
AcDbVertex
100
AcDb3dPolylineVertex
 10
99.0656
 20
169.2759999999999
 30
0.0
 70
    32
  0
VERTEX
  5
574
330
2E8
100
AcDbEntity
  8
1
100
AcDbVertex
100
AcDb3dPolylineVertex
 10
99.17570000000001
 20
169.338
 30
0.0
 70
    32
  0
VERTEX
  5
575
330
2E8
100
AcDbEntity
  8
1
100
AcDbVertex
100
AcDb3dPolylineVertex
 10
99.288
 20
169.397
 30
0.0
 70
    32
  0
VERTEX
  5
576
330
2E8
100
AcDbEntity
  8
1
100
AcDbVertex
100
AcDb3dPolylineVertex
 10
99.4025
 20
169.455
 30
0.0
 70
    32
  0
VERTEX
  5
577
330
2E8
100
AcDbEntity
  8
1
100
AcDbVertex
100
AcDb3dPolylineVertex
 10
99.51920000000001
 20
169.51
 30
0.0
 70
    32
  0
VERTEX
  5
578
330
2E8
100
AcDbEntity
  8
1
100
AcDbVertex
100
AcDb3dPolylineVertex
 10
99.63779999999999
 20
169.563
 30
0.0
 70
    32
  0
VERTEX
  5
579
330
2E8
100
AcDbEntity
  8
1
100
AcDbVertex
100
AcDb3dPolylineVertex
 10
99.75830000000001
 20
169.614
 30
0.0
 70
    32
  0
VERTEX
  5
57A
330
2E8
100
AcDbEntity
  8
1
100
AcDbVertex
100
AcDb3dPolylineVertex
 10
99.8808
 20
169.663
 30
0.0
 70
    32
  0
VERTEX
  5
57B
330
2E8
100
AcDbEntity
  8
1
100
AcDbVertex
100
AcDb3dPolylineVertex
 10
100.005
 20
169.71
 30
0.0
 70
    32
  0
VERTEX
  5
57C
330
2E8
100
AcDbEntity
  8
1
100
AcDbVertex
100
AcDb3dPolylineVertex
 10
100.131
 20
169.755
 30
0.0
 70
    32
  0
VERTEX
  5
57D
330
2E8
100
AcDbEntity
  8
1
100
AcDbVertex
100
AcDb3dPolylineVertex
 10
100.258
 20
169.797
 30
0.0
 70
    32
  0
VERTEX
  5
57E
330
2E8
100
AcDbEntity
  8
1
100
AcDbVertex
100
AcDb3dPolylineVertex
 10
100.387
 20
169.837
 30
0.0
 70
    32
  0
VERTEX
  5
57F
330
2E8
100
AcDbEntity
  8
1
100
AcDbVertex
100
AcDb3dPolylineVertex
 10
100.518
 20
169.875
 30
0.0
 70
    32
  0
VERTEX
  5
580
330
2E8
100
AcDbEntity
  8
1
100
AcDbVertex
100
AcDb3dPolylineVertex
 10
100.65
 20
169.91
 30
0.0
 70
    32
  0
VERTEX
  5
581
330
2E8
100
AcDbEntity
  8
1
100
AcDbVertex
100
AcDb3dPolylineVertex
 10
100.783
 20
169.9429999999999
 30
0.0
 70
    32
  0
VERTEX
  5
582
330
2E8
100
AcDbEntity
  8
1
100
AcDbVertex
100
AcDb3dPolylineVertex
 10
100.917
 20
169.974
 30
0.0
 70
    32
  0
VERTEX
  5
583
330
2E8
100
AcDbEntity
  8
1
100
AcDbVertex
100
AcDb3dPolylineVertex
 10
101.052
 20
170.002
 30
0.0
 70
    32
  0
VERTEX
  5
584
330
2E8
100
AcDbEntity
  8
1
100
AcDbVertex
100
AcDb3dPolylineVertex
 10
101.189
 20
170.028
 30
0.0
 70
    32
  0
VERTEX
  5
585
330
2E8
100
AcDbEntity
  8
1
100
AcDbVertex
100
AcDb3dPolylineVertex
 10
101.326
 20
170.051
 30
0.0
 70
    32
  0
VERTEX
  5
586
330
2E8
100
AcDbEntity
  8
1
100
AcDbVertex
100
AcDb3dPolylineVertex
 10
101.464
 20
170.072
 30
0.0
 70
    32
  0
VERTEX
  5
587
330
2E8
100
AcDbEntity
  8
1
100
AcDbVertex
100
AcDb3dPolylineVertex
 10
101.603
 20
170.09
 30
0.0
 70
    32
  0
VERTEX
  5
588
330
2E8
100
AcDbEntity
  8
1
100
AcDbVertex
100
AcDb3dPolylineVertex
 10
101.742
 20
170.106
 30
0.0
 70
    32
  0
VERTEX
  5
589
330
2E8
100
AcDbEntity
  8
1
100
AcDbVertex
100
AcDb3dPolylineVertex
 10
101.882
 20
170.12
 30
0.0
 70
    32
  0
VERTEX
  5
58A
330
2E8
100
AcDbEntity
  8
1
100
AcDbVertex
100
AcDb3dPolylineVertex
 10
102.023
 20
170.1309999999999
 30
0.0
 70
    32
  0
VERTEX
  5
58B
330
2E8
100
AcDbEntity
  8
1
100
AcDbVertex
100
AcDb3dPolylineVertex
 10
102.164
 20
170.139
 30
0.0
 70
    32
  0
VERTEX
  5
58C
330
2E8
100
AcDbEntity
  8
1
100
AcDbVertex
100
AcDb3dPolylineVertex
 10
102.305
 20
170.145
 30
0.0
 70
    32
  0
VERTEX
  5
58D
330
2E8
100
AcDbEntity
  8
1
100
AcDbVertex
100
AcDb3dPolylineVertex
 10
102.446
 20
170.149
 30
0.0
 70
    32
  0
VERTEX
  5
58E
330
2E8
100
AcDbEntity
  8
1
100
AcDbVertex
100
AcDb3dPolylineVertex
 10
102.587
 20
170.15
 30
0.0
 70
    32
  0
VERTEX
  5
58F
330
2E8
100
AcDbEntity
  8
1
100
AcDbVertex
100
AcDb3dPolylineVertex
 10
102.729
 20
170.148
 30
0.0
 70
    32
  0
VERTEX
  5
590
330
2E8
100
AcDbEntity
  8
1
100
AcDbVertex
100
AcDb3dPolylineVertex
 10
102.87
 20
170.144
 30
0.0
 70
    32
  0
VERTEX
  5
591
330
2E8
100
AcDbEntity
  8
1
100
AcDbVertex
100
AcDb3dPolylineVertex
 10
103.011
 20
170.137
 30
0.0
 70
    32
  0
VERTEX
  5
592
330
2E8
100
AcDbEntity
  8
1
100
AcDbVertex
100
AcDb3dPolylineVertex
 10
103.152
 20
170.128
 30
0.0
 70
    32
  0
VERTEX
  5
593
330
2E8
100
AcDbEntity
  8
1
100
AcDbVertex
100
AcDb3dPolylineVertex
 10
103.292
 20
170.1159999999999
 30
0.0
 70
    32
  0
VERTEX
  5
594
330
2E8
100
AcDbEntity
  8
1
100
AcDbVertex
100
AcDb3dPolylineVertex
 10
103.432
 20
170.102
 30
0.0
 70
    32
  0
VERTEX
  5
595
330
2E8
100
AcDbEntity
  8
1
100
AcDbVertex
100
AcDb3dPolylineVertex
 10
103.571
 20
170.086
 30
0.0
 70
    32
  0
VERTEX
  5
596
330
2E8
100
AcDbEntity
  8
1
100
AcDbVertex
100
AcDb3dPolylineVertex
 10
103.71
 20
170.067
 30
0.0
 70
    32
  0
VERTEX
  5
597
330
2E8
100
AcDbEntity
  8
1
100
AcDbVertex
100
AcDb3dPolylineVertex
 10
103.848
 20
170.045
 30
0.0
 70
    32
  0
VERTEX
  5
598
330
2E8
100
AcDbEntity
  8
1
100
AcDbVertex
100
AcDb3dPolylineVertex
 10
103.985
 20
170.021
 30
0.0
 70
    32
  0
VERTEX
  5
599
330
2E8
100
AcDbEntity
  8
1
100
AcDbVertex
100
AcDb3dPolylineVertex
 10
104.121
 20
169.995
 30
0.0
 70
    32
  0
VERTEX
  5
59A
330
2E8
100
AcDbEntity
  8
1
100
AcDbVertex
100
AcDb3dPolylineVertex
 10
104.256
 20
169.9659999999999
 30
0.0
 70
    32
  0
VERTEX
  5
59B
330
2E8
100
AcDbEntity
  8
1
100
AcDbVertex
100
AcDb3dPolylineVertex
 10
104.39
 20
169.935
 30
0.0
 70
    32
  0
VERTEX
  5
59C
330
2E8
100
AcDbEntity
  8
1
100
AcDbVertex
100
AcDb3dPolylineVertex
 10
104.523
 20
169.901
 30
0.0
 70
    32
  0
VERTEX
  5
59D
330
2E8
100
AcDbEntity
  8
1
100
AcDbVertex
100
AcDb3dPolylineVertex
 10
104.654
 20
169.865
 30
0.0
 70
    32
  0
VERTEX
  5
59E
330
2E8
100
AcDbEntity
  8
1
100
AcDbVertex
100
AcDb3dPolylineVertex
 10
104.784
 20
169.827
 30
0.0
 70
    32
  0
VERTEX
  5
59F
330
2E8
100
AcDbEntity
  8
1
100
AcDbVertex
100
AcDb3dPolylineVertex
 10
104.913
 20
169.7859999999999
 30
0.0
 70
    32
  0
VERTEX
  5
5A0
330
2E8
100
AcDbEntity
  8
1
100
AcDbVertex
100
AcDb3dPolylineVertex
 10
105.04
 20
169.743
 30
0.0
 70
    32
  0
VERTEX
  5
5A1
330
2E8
100
AcDbEntity
  8
1
100
AcDbVertex
100
AcDb3dPolylineVertex
 10
105.165
 20
169.698
 30
0.0
 70
    32
  0
VERTEX
  5
5A2
330
2E8
100
AcDbEntity
  8
1
100
AcDbVertex
100
AcDb3dPolylineVertex
 10
105.289
 20
169.651
 30
0.0
 70
    32
  0
VERTEX
  5
5A3
330
2E8
100
AcDbEntity
  8
1
100
AcDbVertex
100
AcDb3dPolylineVertex
 10
105.411
 20
169.601
 30
0.0
 70
    32
  0
VERTEX
  5
5A4
330
2E8
100
AcDbEntity
  8
1
100
AcDbVertex
100
AcDb3dPolylineVertex
 10
105.531
 20
169.55
 30
0.0
 70
    32
  0
VERTEX
  5
5A5
330
2E8
100
AcDbEntity
  8
1
100
AcDbVertex
100
AcDb3dPolylineVertex
 10
105.649
 20
169.496
 30
0.0
 70
    32
  0
VERTEX
  5
5A6
330
2E8
100
AcDbEntity
  8
1
100
AcDbVertex
100
AcDb3dPolylineVertex
 10
105.765
 20
169.44
 30
0.0
 70
    32
  0
VERTEX
  5
5A7
330
2E8
100
AcDbEntity
  8
1
100
AcDbVertex
100
AcDb3dPolylineVertex
 10
105.879
 20
169.382
 30
0.0
 70
    32
  0
VERTEX
  5
5A8
330
2E8
100
AcDbEntity
  8
1
100
AcDbVertex
100
AcDb3dPolylineVertex
 10
105.991
 20
169.322
 30
0.0
 70
    32
  0
VERTEX
  5
5A9
330
2E8
100
AcDbEntity
  8
1
100
AcDbVertex
100
AcDb3dPolylineVertex
 10
106.101
 20
169.26
 30
0.0
 70
    32
  0
VERTEX
  5
5AA
330
2E8
100
AcDbEntity
  8
1
100
AcDbVertex
100
AcDb3dPolylineVertex
 10
106.208
 20
169.196
 30
0.0
 70
    32
  0
VERTEX
  5
5AB
330
2E8
100
AcDbEntity
  8
1
100
AcDbVertex
100
AcDb3dPolylineVertex
 10
106.313
 20
169.13
 30
0.0
 70
    32
  0
VERTEX
  5
5AC
330
2E8
100
AcDbEntity
  8
1
100
AcDbVertex
100
AcDb3dPolylineVertex
 10
106.415
 20
169.063
 30
0.0
 70
    32
  0
VERTEX
  5
5AD
330
2E8
100
AcDbEntity
  8
1
100
AcDbVertex
100
AcDb3dPolylineVertex
 10
106.515
 20
168.994
 30
0.0
 70
    32
  0
VERTEX
  5
5AE
330
2E8
100
AcDbEntity
  8
1
100
AcDbVertex
100
AcDb3dPolylineVertex
 10
106.612
 20
168.922
 30
0.0
 70
    32
  0
VERTEX
  5
5AF
330
2E8
100
AcDbEntity
  8
1
100
AcDbVertex
100
AcDb3dPolylineVertex
 10
106.706
 20
168.85
 30
0.0
 70
    32
  0
VERTEX
  5
5B0
330
2E8
100
AcDbEntity
  8
1
100
AcDbVertex
100
AcDb3dPolylineVertex
 10
106.798
 20
168.775
 30
0.0
 70
    32
  0
VERTEX
  5
5B1
330
2E8
100
AcDbEntity
  8
1
100
AcDbVertex
100
AcDb3dPolylineVertex
 10
106.887
 20
168.699
 30
0.0
 70
    32
  0
VERTEX
  5
5B2
330
2E8
100
AcDbEntity
  8
1
100
AcDbVertex
100
AcDb3dPolylineVertex
 10
106.973
 20
168.6209999999999
 30
0.0
 70
    32
  0
VERTEX
  5
5B3
330
2E8
100
AcDbEntity
  8
1
100
AcDbVertex
100
AcDb3dPolylineVertex
 10
107.056
 20
168.542
 30
0.0
 70
    32
  0
VERTEX
  5
5B4
330
2E8
100
AcDbEntity
  8
1
100
AcDbVertex
100
AcDb3dPolylineVertex
 10
107.137
 20
168.461
 30
0.0
 70
    32
  0
VERTEX
  5
5B5
330
2E8
100
AcDbEntity
  8
1
100
AcDbVertex
100
AcDb3dPolylineVertex
 10
107.214
 20
168.379
 30
0.0
 70
    32
  0
VERTEX
  5
5B6
330
2E8
100
AcDbEntity
  8
1
100
AcDbVertex
100
AcDb3dPolylineVertex
 10
107.288
 20
168.296
 30
0.0
 70
    32
  0
VERTEX
  5
5B7
330
2E8
100
AcDbEntity
  8
1
100
AcDbVertex
100
AcDb3dPolylineVertex
 10
107.359
 20
168.2109999999999
 30
0.0
 70
    32
  0
VERTEX
  5
5B8
330
2E8
100
AcDbEntity
  8
1
100
AcDbVertex
100
AcDb3dPolylineVertex
 10
107.427
 20
168.1259999999999
 30
0.0
 70
    32
  0
VERTEX
  5
5B9
330
2E8
100
AcDbEntity
  8
1
100
AcDbVertex
100
AcDb3dPolylineVertex
 10
107.492
 20
168.0379999999999
 30
0.0
 70
    32
  0
VERTEX
  5
5BA
330
2E8
100
AcDbEntity
  8
1
100
AcDbVertex
100
AcDb3dPolylineVertex
 10
107.553
 20
167.95
 30
0.0
 70
    32
  0
VERTEX
  5
5BB
330
2E8
100
AcDbEntity
  8
1
100
AcDbVertex
100
AcDb3dPolylineVertex
 10
107.611
 20
167.861
 30
0.0
 70
    32
  0
VERTEX
  5
5BC
330
2E8
100
AcDbEntity
  8
1
100
AcDbVertex
100
AcDb3dPolylineVertex
 10
107.666
 20
167.771
 30
0.0
 70
    32
  0
VERTEX
  5
5BD
330
2E8
100
AcDbEntity
  8
1
100
AcDbVertex
100
AcDb3dPolylineVertex
 10
107.717
 20
167.679
 30
0.0
 70
    32
  0
VERTEX
  5
5BE
330
2E8
100
AcDbEntity
  8
1
100
AcDbVertex
100
AcDb3dPolylineVertex
 10
107.765
 20
167.587
 30
0.0
 70
    32
  0
VERTEX
  5
5BF
330
2E8
100
AcDbEntity
  8
1
100
AcDbVertex
100
AcDb3dPolylineVertex
 10
107.81
 20
167.494
 30
0.0
 70
    32
  0
VERTEX
  5
5C0
330
2E8
100
AcDbEntity
  8
1
100
AcDbVertex
100
AcDb3dPolylineVertex
 10
107.851
 20
167.4009999999999
 30
0.0
 70
    32
  0
VERTEX
  5
5C1
330
2E8
100
AcDbEntity
  8
1
100
AcDbVertex
100
AcDb3dPolylineVertex
 10
107.889
 20
167.3059999999999
 30
0.0
 70
    32
  0
VERTEX
  5
5C2
330
2E8
100
AcDbEntity
  8
1
100
AcDbVertex
100
AcDb3dPolylineVertex
 10
107.923
 20
167.211
 30
0.0
 70
    32
  0
VERTEX
  5
5C3
330
2E8
100
AcDbEntity
  8
1
100
AcDbVertex
100
AcDb3dPolylineVertex
 10
107.953
 20
167.116
 30
0.0
 70
    32
  0
VERTEX
  5
5C4
330
2E8
100
AcDbEntity
  8
1
100
AcDbVertex
100
AcDb3dPolylineVertex
 10
107.98
 20
167.02
 30
0.0
 70
    32
  0
VERTEX
  5
5C5
330
2E8
100
AcDbEntity
  8
1
100
AcDbVertex
100
AcDb3dPolylineVertex
 10
108.004
 20
166.923
 30
0.0
 70
    32
  0
VERTEX
  5
5C6
330
2E8
100
AcDbEntity
  8
1
100
AcDbVertex
100
AcDb3dPolylineVertex
 10
108.024
 20
166.826
 30
0.0
 70
    32
  0
VERTEX
  5
5C7
330
2E8
100
AcDbEntity
  8
1
100
AcDbVertex
100
AcDb3dPolylineVertex
 10
108.04
 20
166.729
 30
0.0
 70
    32
  0
VERTEX
  5
5C8
330
2E8
100
AcDbEntity
  8
1
100
AcDbVertex
100
AcDb3dPolylineVertex
 10
108.053
 20
166.631
 30
0.0
 70
    32
  0
VERTEX
  5
5C9
330
2E8
100
AcDbEntity
  8
1
100
AcDbVertex
100
AcDb3dPolylineVertex
 10
108.062
 20
166.533
 30
0.0
 70
    32
  0
VERTEX
  5
5CA
330
2E8
100
AcDbEntity
  8
1
100
AcDbVertex
100
AcDb3dPolylineVertex
 10
108.067
 20
166.436
 30
0.0
 70
    32
  0
VERTEX
  5
5CB
330
2E8
100
AcDbEntity
  8
1
100
AcDbVertex
100
AcDb3dPolylineVertex
 10
108.069
 20
166.338
 30
0.0
 70
    32
  0
VERTEX
  5
5CC
330
2E8
100
AcDbEntity
  8
1
100
AcDbVertex
100
AcDb3dPolylineVertex
 10
108.067
 20
166.24
 30
0.0
 70
    32
  0
VERTEX
  5
5CD
330
2E8
100
AcDbEntity
  8
1
100
AcDbVertex
100
AcDb3dPolylineVertex
 10
108.062
 20
166.142
 30
0.0
 70
    32
  0
VERTEX
  5
5CE
330
2E8
100
AcDbEntity
  8
1
100
AcDbVertex
100
AcDb3dPolylineVertex
 10
108.052
 20
166.044
 30
0.0
 70
    32
  0
SEQEND
  5
5CF
330
2E8
100
AcDbEntity
  8
1
  0
LINE
  5
2E9
330
8C8
100
AcDbEntity
  8
1外形線
100
AcDbLine
 10
118.5688570574353
 20
172.743301231443
 30
0.0
 11
76.56885705743468
 21
172.7433012314433
 31
0.0
  0
LINE
  5
2EA
330
8C8
100
AcDbEntity
  8
1外形線
100
AcDbLine
 10
98.06885705743423
 20
152.7433012314432
 30
0.0
 11
107.0688570574344
 21
152.7433012314434
 31
0.0
  0
LINE
  5
2EB
330
8C8
100
AcDbEntity
  8
1外形線
100
AcDbLine
 10
97.09735212506176
 20
165.951401446033
 30
0.0
 11
98.06885705743423
 21
152.7433012314432
 31
0.0
  0
LINE
  5
2EC
330
8C8
100
AcDbEntity
  8
1外形線
100
AcDbLine
 10
76.56885705743468
 20
172.7433012314433
 30
0.0
 11
76.56885705743468
 21
145.5433012314446
 31
0.0
  0
LINE
  5
2ED
330
8C8
100
AcDbEntity
  8
1外形線
100
AcDbLine
 10
97.82035913164794
 20
156.1217560364938
 30
0.0
 11
76.56885705743455
 21
156.121756036494
 31
0.0
  0
LINE
  5
2EE
330
8C8
100
AcDbEntity
  8
1外形線
100
AcDbLine
 10
97.16622026765584
 20
165.0151042655816
 30
0.0
 11
76.56885705743461
 21
165.0151042655818
 31
0.0
  0
ARC
  5
2EF
330
8C8
100
AcDbEntity
  8
1外形線
100
AcDbCircle
 10
76.06885705743469
 20
172.9433012314435
 30
0.0
 40
0.5
100
AcDbArc
 50
90.0
 51
90.0
  0
ARC
  5
2F0
330
8C8
100
AcDbEntity
  8
1外形線
100
AcDbCircle
 10
76.06885705743469
 20
172.9433012314435
 30
0.0
 40
0.5
100
AcDbArc
 50
0.0000000000065138
 51
90.0
  0
LINE
  5
2F1
330
8C8
100
AcDbEntity
  8
1外形線
100
AcDbLine
 10
76.56885705743468
 20
172.9433012314435
 30
0.0
 11
76.56885705743468
 21
172.7433012314433
 31
0.0
  0
LINE
  5
2F2
330
8C8
100
AcDbEntity
  8
1外形線
100
AcDbLine
 10
107.0688570574344
 20
152.7433012314434
 30
0.0
 11
108.0347066380765
 21
165.9148058949489
 31
0.0
  0
LINE
  5
2F3
330
8C8
100
AcDbEntity
  8
1外形線
100
AcDbLine
 10
118.5688570574353
 20
156.1217560364937
 30
0.0
 11
107.3165948246855
 21
156.1217560364938
 31
0.0
  0
LINE
  5
2F4
330
8C8
100
AcDbEntity
  8
1外形線
100
AcDbLine
 10
118.5688570574353
 20
165.0151042655815
 30
0.0
 11
107.9687326689949
 21
165.0151042655816
 31
0.0
  0
ARC
  5
2F5
330
8C8
100
AcDbEntity
  8
1外形線
100
AcDbCircle
 10
173.3411128079511
 20
53.45266288119944
 30
0.0
 40
5.0
100
AcDbArc
 50
185.2159085704558
 51
270.0
  0
LINE
  5
2F6
330
8C8
100
AcDbEntity
  8
1外形線
100
AcDbLine
 10
250.5688570574347
 20
48.45266288119955
 30
0.0
 11
250.5688570574344
 21
122.9433012314439
 31
0.0
  0
LINE
  5
2F7
330
8C8
100
AcDbEntity
  8
1外形線
100
AcDbLine
 10
244.5688570574349
 20
88.5433012314446
 30
0.0
 11
244.5688570574346
 21
48.45266288119955
 31
0.0
  0
LINE
  5
2F8
330
8C8
100
AcDbEntity
  8
1外形線
100
AcDbLine
 10
173.3411128079513
 20
48.45266288119944
 30
0.0
 11
250.5688570574347
 21
48.45266288119955
 31
0.0
  0
ARC
  5
2F9
330
8C8
100
AcDbEntity
  8
1外形線
100
AcDbCircle
 10
215.2125324842314
 20
127.7433012314437
 30
0.0
 40
21.6215451949493
100
AcDbArc
 50
215.2891246743133
 51
266.2994663146153
  0
ARC
  5
2FA
330
8C8
100
AcDbEntity
  8
1外形線
100
AcDbCircle
 10
215.2125324842314
 20
127.7433012314437
 30
0.0
 40
12.72819696586151
100
AcDbArc
 50
215.2891246743133
 51
260.6921845319169
  0
ARC
  5
2FB
330
8C8
100
AcDbEntity
  8
1外形線
100
AcDbCircle
 10
215.3872437409569
 20
123.7433012314445
 30
0.0
 40
35.20000000000001
100
AcDbArc
 50
214.4431145826226
 51
270.0
  0
ARC
  5
2FC
330
8C8
100
AcDbEntity
  8
1外形線
100
AcDbCircle
 10
215.3872437409569
 20
123.7433012314445
 30
0.0
 40
32.20000000000001
100
AcDbArc
 50
214.4431145826226
 51
270.0
  0
ARC
  5
2FD
330
8C8
100
AcDbEntity
  8
1外形線
100
AcDbCircle
 10
215.3872437409569
 20
123.7433012314445
 30
0.0
 40
29.2
100
AcDbArc
 50
214.4431145826226
 51
270.0
  0
ARC
  5
2FE
330
8C8
100
AcDbEntity
  8
1外形線
100
AcDbCircle
 10
214.1722042791712
 20
114.8526628811993
 30
0.0
 40
53.24345645760589
100
AcDbArc
 50
214.7813838482794
 51
270.0
  0
ARC
  5
2FF
330
8C8
100
AcDbEntity
  8
1外形線
100
AcDbCircle
 10
215.2125324842314
 20
127.7433012314437
 30
0.0
 40
5.0
100
AcDbArc
 50
215.2891246743133
 51
270.0
  0
LINE
  5
300
330
8C8
100
AcDbEntity
  8
1外形線
100
AcDbLine
 10
244.5688570574349
 20
106.1217560364944
 30
0.0
 11
223.3165948246863
 21
106.1217560364943
 31
0.0
  0
LINE
  5
301
330
8C8
100
AcDbEntity
  8
1外形線
100
AcDbLine
 10
244.5688570574349
 20
115.0151042655823
 30
0.0
 11
223.9687326689955
 21
115.0151042655823
 31
0.0
  0
LINE
  5
302
330
8C8
100
AcDbEntity
  8
1外形線
100
AcDbLine
 10
244.5688570574349
 20
120.839187331615
 30
0.0
 11
215.2125324842316
 21
120.839187331615
 31
0.0
  0
LINE
  5
303
330
8C8
100
AcDbEntity
  8
1外形線
100
AcDbLine
 10
244.5688570574346
 20
61.60920642359407
 30
0.0
 11
214.1722042791712
 21
61.60920642359407
 31
0.0
  0
LINE
  5
304
330
8C8
100
AcDbEntity
  8
1外形線
100
AcDbLine
 10
244.5688570574349
 20
122.7433012314441
 30
0.0
 11
215.2125324842316
 21
122.7433012314437
 31
0.0
  0
LINE
  5
305
330
8C8
100
AcDbEntity
  8
1外形線
100
AcDbLine
 10
215.3872437409569
 20
94.54330123144458
 30
0.0
 11
250.5688570574347
 21
94.54330123144458
 31
0.0
  0
LINE
  5
306
330
8C8
100
AcDbEntity
  8
1外形線
100
AcDbLine
 10
215.3872437409569
 20
91.54330123144459
 30
0.0
 11
250.5688570574347
 21
91.54330123144459
 31
0.0
  0
LINE
  5
307
330
8C8
100
AcDbEntity
  8
1外形線
100
AcDbLine
 10
215.3872437409569
 20
88.5433012314446
 30
0.0
 11
250.5688570574347
 21
88.5433012314446
 31
0.0
  0
LINE
  5
308
330
8C8
100
AcDbEntity
  8
1外形線
100
AcDbLine
 10
223.0688570574351
 20
102.743301231444
 30
0.0
 11
224.0347066380771
 21
115.9148058949497
 31
0.0
  0
LINE
  5
309
330
8C8
100
AcDbEntity
  8
1外形線
100
AcDbLine
 10
213.0973521250624
 20
115.9514014460337
 30
0.0
 11
214.0688570574349
 21
102.7433012314438
 31
0.0
  0
LINE
  5
30A
330
8C8
100
AcDbEntity
  8
1外形線
100
AcDbLine
 10
214.0688570574349
 20
102.7433012314438
 30
0.0
 11
223.0688570574351
 21
102.743301231444
 31
0.0
  0
POLYLINE
  5
30B
330
8C8
100
AcDbEntity
  8
1外形線
100
AcDb3dPolyline
 66
     1
 10
0.0
 20
0.0
 30
0.0
 70
     8
  0
VERTEX
  5
5D0
330
30B
100
AcDbEntity
  8
1
100
AcDbVertex
100
AcDb3dPolylineVertex
 10
213.083
 20
116.07
 30
0.0
 70
    32
  0
VERTEX
  5
5D1
330
30B
100
AcDbEntity
  8
1
100
AcDbVertex
100
AcDb3dPolylineVertex
 10
213.074
 20
116.167
 30
0.0
 70
    32
  0
VERTEX
  5
5D2
330
30B
100
AcDbEntity
  8
1
100
AcDbVertex
100
AcDb3dPolylineVertex
 10
213.07
 20
116.265
 30
0.0
 70
    32
  0
VERTEX
  5
5D3
330
30B
100
AcDbEntity
  8
1
100
AcDbVertex
100
AcDb3dPolylineVertex
 10
213.069
 20
116.363
 30
0.0
 70
    32
  0
VERTEX
  5
5D4
330
30B
100
AcDbEntity
  8
1
100
AcDbVertex
100
AcDb3dPolylineVertex
 10
213.072
 20
116.461
 30
0.0
 70
    32
  0
VERTEX
  5
5D5
330
30B
100
AcDbEntity
  8
1
100
AcDbVertex
100
AcDb3dPolylineVertex
 10
213.078
 20
116.559
 30
0.0
 70
    32
  0
VERTEX
  5
5D6
330
30B
100
AcDbEntity
  8
1
100
AcDbVertex
100
AcDb3dPolylineVertex
 10
213.088
 20
116.657
 30
0.0
 70
    32
  0
VERTEX
  5
5D7
330
30B
100
AcDbEntity
  8
1
100
AcDbVertex
100
AcDb3dPolylineVertex
 10
213.102
 20
116.754
 30
0.0
 70
    32
  0
VERTEX
  5
5D8
330
30B
100
AcDbEntity
  8
1
100
AcDbVertex
100
AcDb3dPolylineVertex
 10
213.119
 20
116.851
 30
0.0
 70
    32
  0
VERTEX
  5
5D9
330
30B
100
AcDbEntity
  8
1
100
AcDbVertex
100
AcDb3dPolylineVertex
 10
213.14
 20
116.948
 30
0.0
 70
    32
  0
VERTEX
  5
5DA
330
30B
100
AcDbEntity
  8
1
100
AcDbVertex
100
AcDb3dPolylineVertex
 10
213.164
 20
117.045
 30
0.0
 70
    32
  0
VERTEX
  5
5DB
330
30B
100
AcDbEntity
  8
1
100
AcDbVertex
100
AcDb3dPolylineVertex
 10
213.192
 20
117.141
 30
0.0
 70
    32
  0
VERTEX
  5
5DC
330
30B
100
AcDbEntity
  8
1
100
AcDbVertex
100
AcDb3dPolylineVertex
 10
213.224
 20
117.236
 30
0.0
 70
    32
  0
VERTEX
  5
5DD
330
30B
100
AcDbEntity
  8
1
100
AcDbVertex
100
AcDb3dPolylineVertex
 10
213.259
 20
117.331
 30
0.0
 70
    32
  0
VERTEX
  5
5DE
330
30B
100
AcDbEntity
  8
1
100
AcDbVertex
100
AcDb3dPolylineVertex
 10
213.297
 20
117.425
 30
0.0
 70
    32
  0
VERTEX
  5
5DF
330
30B
100
AcDbEntity
  8
1
100
AcDbVertex
100
AcDb3dPolylineVertex
 10
213.339
 20
117.519
 30
0.0
 70
    32
  0
VERTEX
  5
5E0
330
30B
100
AcDbEntity
  8
1
100
AcDbVertex
100
AcDb3dPolylineVertex
 10
213.385
 20
117.612
 30
0.0
 70
    32
  0
VERTEX
  5
5E1
330
30B
100
AcDbEntity
  8
1
100
AcDbVertex
100
AcDb3dPolylineVertex
 10
213.434
 20
117.703
 30
0.0
 70
    32
  0
VERTEX
  5
5E2
330
30B
100
AcDbEntity
  8
1
100
AcDbVertex
100
AcDb3dPolylineVertex
 10
213.486
 20
117.794
 30
0.0
 70
    32
  0
VERTEX
  5
5E3
330
30B
100
AcDbEntity
  8
1
100
AcDbVertex
100
AcDb3dPolylineVertex
 10
213.542
 20
117.884
 30
0.0
 70
    32
  0
VERTEX
  5
5E4
330
30B
100
AcDbEntity
  8
1
100
AcDbVertex
100
AcDb3dPolylineVertex
 10
213.601
 20
117.973
 30
0.0
 70
    32
  0
VERTEX
  5
5E5
330
30B
100
AcDbEntity
  8
1
100
AcDbVertex
100
AcDb3dPolylineVertex
 10
213.663
 20
118.061
 30
0.0
 70
    32
  0
VERTEX
  5
5E6
330
30B
100
AcDbEntity
  8
1
100
AcDbVertex
100
AcDb3dPolylineVertex
 10
213.728
 20
118.148
 30
0.0
 70
    32
  0
VERTEX
  5
5E7
330
30B
100
AcDbEntity
  8
1
100
AcDbVertex
100
AcDb3dPolylineVertex
 10
213.797
 20
118.234
 30
0.0
 70
    32
  0
VERTEX
  5
5E8
330
30B
100
AcDbEntity
  8
1
100
AcDbVertex
100
AcDb3dPolylineVertex
 10
213.869
 20
118.318
 30
0.0
 70
    32
  0
VERTEX
  5
5E9
330
30B
100
AcDbEntity
  8
1
100
AcDbVertex
100
AcDb3dPolylineVertex
 10
213.944
 20
118.401
 30
0.0
 70
    32
  0
VERTEX
  5
5EA
330
30B
100
AcDbEntity
  8
1
100
AcDbVertex
100
AcDb3dPolylineVertex
 10
214.022
 20
118.483
 30
0.0
 70
    32
  0
VERTEX
  5
5EB
330
30B
100
AcDbEntity
  8
1
100
AcDbVertex
100
AcDb3dPolylineVertex
 10
214.103
 20
118.563
 30
0.0
 70
    32
  0
VERTEX
  5
5EC
330
30B
100
AcDbEntity
  8
1
100
AcDbVertex
100
AcDb3dPolylineVertex
 10
214.187
 20
118.642
 30
0.0
 70
    32
  0
VERTEX
  5
5ED
330
30B
100
AcDbEntity
  8
1
100
AcDbVertex
100
AcDb3dPolylineVertex
 10
214.274
 20
118.719
 30
0.0
 70
    32
  0
VERTEX
  5
5EE
330
30B
100
AcDbEntity
  8
1
100
AcDbVertex
100
AcDb3dPolylineVertex
 10
214.363
 20
118.795
 30
0.0
 70
    32
  0
VERTEX
  5
5EF
330
30B
100
AcDbEntity
  8
1
100
AcDbVertex
100
AcDb3dPolylineVertex
 10
214.456
 20
118.869
 30
0.0
 70
    32
  0
VERTEX
  5
5F0
330
30B
100
AcDbEntity
  8
1
100
AcDbVertex
100
AcDb3dPolylineVertex
 10
214.551
 20
118.941
 30
0.0
 70
    32
  0
VERTEX
  5
5F1
330
30B
100
AcDbEntity
  8
1
100
AcDbVertex
100
AcDb3dPolylineVertex
 10
214.649
 20
119.012
 30
0.0
 70
    32
  0
VERTEX
  5
5F2
330
30B
100
AcDbEntity
  8
1
100
AcDbVertex
100
AcDb3dPolylineVertex
 10
214.749
 20
119.081
 30
0.0
 70
    32
  0
VERTEX
  5
5F3
330
30B
100
AcDbEntity
  8
1
100
AcDbVertex
100
AcDb3dPolylineVertex
 10
214.852
 20
119.148
 30
0.0
 70
    32
  0
VERTEX
  5
5F4
330
30B
100
AcDbEntity
  8
1
100
AcDbVertex
100
AcDb3dPolylineVertex
 10
214.958
 20
119.213
 30
0.0
 70
    32
  0
VERTEX
  5
5F5
330
30B
100
AcDbEntity
  8
1
100
AcDbVertex
100
AcDb3dPolylineVertex
 10
215.066
 20
119.276
 30
0.0
 70
    32
  0
VERTEX
  5
5F6
330
30B
100
AcDbEntity
  8
1
100
AcDbVertex
100
AcDb3dPolylineVertex
 10
215.176
 20
119.338
 30
0.0
 70
    32
  0
VERTEX
  5
5F7
330
30B
100
AcDbEntity
  8
1
100
AcDbVertex
100
AcDb3dPolylineVertex
 10
215.288
 20
119.397
 30
0.0
 70
    32
  0
VERTEX
  5
5F8
330
30B
100
AcDbEntity
  8
1
100
AcDbVertex
100
AcDb3dPolylineVertex
 10
215.403
 20
119.455
 30
0.0
 70
    32
  0
VERTEX
  5
5F9
330
30B
100
AcDbEntity
  8
1
100
AcDbVertex
100
AcDb3dPolylineVertex
 10
215.519
 20
119.51
 30
0.0
 70
    32
  0
VERTEX
  5
5FA
330
30B
100
AcDbEntity
  8
1
100
AcDbVertex
100
AcDb3dPolylineVertex
 10
215.638
 20
119.563
 30
0.0
 70
    32
  0
VERTEX
  5
5FB
330
30B
100
AcDbEntity
  8
1
100
AcDbVertex
100
AcDb3dPolylineVertex
 10
215.758
 20
119.614
 30
0.0
 70
    32
  0
VERTEX
  5
5FC
330
30B
100
AcDbEntity
  8
1
100
AcDbVertex
100
AcDb3dPolylineVertex
 10
215.881
 20
119.663
 30
0.0
 70
    32
  0
VERTEX
  5
5FD
330
30B
100
AcDbEntity
  8
1
100
AcDbVertex
100
AcDb3dPolylineVertex
 10
216.005
 20
119.71
 30
0.0
 70
    32
  0
VERTEX
  5
5FE
330
30B
100
AcDbEntity
  8
1
100
AcDbVertex
100
AcDb3dPolylineVertex
 10
216.131
 20
119.755
 30
0.0
 70
    32
  0
VERTEX
  5
5FF
330
30B
100
AcDbEntity
  8
1
100
AcDbVertex
100
AcDb3dPolylineVertex
 10
216.258
 20
119.797
 30
0.0
 70
    32
  0
VERTEX
  5
600
330
30B
100
AcDbEntity
  8
1
100
AcDbVertex
100
AcDb3dPolylineVertex
 10
216.387
 20
119.837
 30
0.0
 70
    32
  0
VERTEX
  5
601
330
30B
100
AcDbEntity
  8
1
100
AcDbVertex
100
AcDb3dPolylineVertex
 10
216.518
 20
119.875
 30
0.0
 70
    32
  0
VERTEX
  5
602
330
30B
100
AcDbEntity
  8
1
100
AcDbVertex
100
AcDb3dPolylineVertex
 10
216.65
 20
119.91
 30
0.0
 70
    32
  0
VERTEX
  5
603
330
30B
100
AcDbEntity
  8
1
100
AcDbVertex
100
AcDb3dPolylineVertex
 10
216.783
 20
119.943
 30
0.0
 70
    32
  0
VERTEX
  5
604
330
30B
100
AcDbEntity
  8
1
100
AcDbVertex
100
AcDb3dPolylineVertex
 10
216.917
 20
119.974
 30
0.0
 70
    32
  0
VERTEX
  5
605
330
30B
100
AcDbEntity
  8
1
100
AcDbVertex
100
AcDb3dPolylineVertex
 10
217.052
 20
120.002
 30
0.0
 70
    32
  0
VERTEX
  5
606
330
30B
100
AcDbEntity
  8
1
100
AcDbVertex
100
AcDb3dPolylineVertex
 10
217.189
 20
120.028
 30
0.0
 70
    32
  0
VERTEX
  5
607
330
30B
100
AcDbEntity
  8
1
100
AcDbVertex
100
AcDb3dPolylineVertex
 10
217.326
 20
120.051
 30
0.0
 70
    32
  0
VERTEX
  5
608
330
30B
100
AcDbEntity
  8
1
100
AcDbVertex
100
AcDb3dPolylineVertex
 10
217.464
 20
120.072
 30
0.0
 70
    32
  0
VERTEX
  5
609
330
30B
100
AcDbEntity
  8
1
100
AcDbVertex
100
AcDb3dPolylineVertex
 10
217.603
 20
120.09
 30
0.0
 70
    32
  0
VERTEX
  5
60A
330
30B
100
AcDbEntity
  8
1
100
AcDbVertex
100
AcDb3dPolylineVertex
 10
217.742
 20
120.106
 30
0.0
 70
    32
  0
VERTEX
  5
60B
330
30B
100
AcDbEntity
  8
1
100
AcDbVertex
100
AcDb3dPolylineVertex
 10
217.882
 20
120.12
 30
0.0
 70
    32
  0
VERTEX
  5
60C
330
30B
100
AcDbEntity
  8
1
100
AcDbVertex
100
AcDb3dPolylineVertex
 10
218.023
 20
120.131
 30
0.0
 70
    32
  0
VERTEX
  5
60D
330
30B
100
AcDbEntity
  8
1
100
AcDbVertex
100
AcDb3dPolylineVertex
 10
218.164
 20
120.139
 30
0.0
 70
    32
  0
VERTEX
  5
60E
330
30B
100
AcDbEntity
  8
1
100
AcDbVertex
100
AcDb3dPolylineVertex
 10
218.305
 20
120.145
 30
0.0
 70
    32
  0
VERTEX
  5
60F
330
30B
100
AcDbEntity
  8
1
100
AcDbVertex
100
AcDb3dPolylineVertex
 10
218.446
 20
120.149
 30
0.0
 70
    32
  0
VERTEX
  5
610
330
30B
100
AcDbEntity
  8
1
100
AcDbVertex
100
AcDb3dPolylineVertex
 10
218.587
 20
120.15
 30
0.0
 70
    32
  0
VERTEX
  5
611
330
30B
100
AcDbEntity
  8
1
100
AcDbVertex
100
AcDb3dPolylineVertex
 10
218.729
 20
120.148
 30
0.0
 70
    32
  0
VERTEX
  5
612
330
30B
100
AcDbEntity
  8
1
100
AcDbVertex
100
AcDb3dPolylineVertex
 10
218.87
 20
120.144
 30
0.0
 70
    32
  0
VERTEX
  5
613
330
30B
100
AcDbEntity
  8
1
100
AcDbVertex
100
AcDb3dPolylineVertex
 10
219.011
 20
120.137
 30
0.0
 70
    32
  0
VERTEX
  5
614
330
30B
100
AcDbEntity
  8
1
100
AcDbVertex
100
AcDb3dPolylineVertex
 10
219.152
 20
120.128
 30
0.0
 70
    32
  0
VERTEX
  5
615
330
30B
100
AcDbEntity
  8
1
100
AcDbVertex
100
AcDb3dPolylineVertex
 10
219.292
 20
120.116
 30
0.0
 70
    32
  0
VERTEX
  5
616
330
30B
100
AcDbEntity
  8
1
100
AcDbVertex
100
AcDb3dPolylineVertex
 10
219.432
 20
120.102
 30
0.0
 70
    32
  0
VERTEX
  5
617
330
30B
100
AcDbEntity
  8
1
100
AcDbVertex
100
AcDb3dPolylineVertex
 10
219.571
 20
120.086
 30
0.0
 70
    32
  0
VERTEX
  5
618
330
30B
100
AcDbEntity
  8
1
100
AcDbVertex
100
AcDb3dPolylineVertex
 10
219.71
 20
120.067
 30
0.0
 70
    32
  0
VERTEX
  5
619
330
30B
100
AcDbEntity
  8
1
100
AcDbVertex
100
AcDb3dPolylineVertex
 10
219.848
 20
120.045
 30
0.0
 70
    32
  0
VERTEX
  5
61A
330
30B
100
AcDbEntity
  8
1
100
AcDbVertex
100
AcDb3dPolylineVertex
 10
219.985
 20
120.021
 30
0.0
 70
    32
  0
VERTEX
  5
61B
330
30B
100
AcDbEntity
  8
1
100
AcDbVertex
100
AcDb3dPolylineVertex
 10
220.121
 20
119.995
 30
0.0
 70
    32
  0
VERTEX
  5
61C
330
30B
100
AcDbEntity
  8
1
100
AcDbVertex
100
AcDb3dPolylineVertex
 10
220.256
 20
119.966
 30
0.0
 70
    32
  0
VERTEX
  5
61D
330
30B
100
AcDbEntity
  8
1
100
AcDbVertex
100
AcDb3dPolylineVertex
 10
220.39
 20
119.935
 30
0.0
 70
    32
  0
VERTEX
  5
61E
330
30B
100
AcDbEntity
  8
1
100
AcDbVertex
100
AcDb3dPolylineVertex
 10
220.523
 20
119.901
 30
0.0
 70
    32
  0
VERTEX
  5
61F
330
30B
100
AcDbEntity
  8
1
100
AcDbVertex
100
AcDb3dPolylineVertex
 10
220.654
 20
119.865
 30
0.0
 70
    32
  0
VERTEX
  5
620
330
30B
100
AcDbEntity
  8
1
100
AcDbVertex
100
AcDb3dPolylineVertex
 10
220.784
 20
119.827
 30
0.0
 70
    32
  0
VERTEX
  5
621
330
30B
100
AcDbEntity
  8
1
100
AcDbVertex
100
AcDb3dPolylineVertex
 10
220.913
 20
119.786
 30
0.0
 70
    32
  0
VERTEX
  5
622
330
30B
100
AcDbEntity
  8
1
100
AcDbVertex
100
AcDb3dPolylineVertex
 10
221.04
 20
119.743
 30
0.0
 70
    32
  0
VERTEX
  5
623
330
30B
100
AcDbEntity
  8
1
100
AcDbVertex
100
AcDb3dPolylineVertex
 10
221.165
 20
119.698
 30
0.0
 70
    32
  0
VERTEX
  5
624
330
30B
100
AcDbEntity
  8
1
100
AcDbVertex
100
AcDb3dPolylineVertex
 10
221.289
 20
119.651
 30
0.0
 70
    32
  0
VERTEX
  5
625
330
30B
100
AcDbEntity
  8
1
100
AcDbVertex
100
AcDb3dPolylineVertex
 10
221.411
 20
119.601
 30
0.0
 70
    32
  0
VERTEX
  5
626
330
30B
100
AcDbEntity
  8
1
100
AcDbVertex
100
AcDb3dPolylineVertex
 10
221.531
 20
119.55
 30
0.0
 70
    32
  0
VERTEX
  5
627
330
30B
100
AcDbEntity
  8
1
100
AcDbVertex
100
AcDb3dPolylineVertex
 10
221.649
 20
119.496
 30
0.0
 70
    32
  0
VERTEX
  5
628
330
30B
100
AcDbEntity
  8
1
100
AcDbVertex
100
AcDb3dPolylineVertex
 10
221.765
 20
119.44
 30
0.0
 70
    32
  0
VERTEX
  5
629
330
30B
100
AcDbEntity
  8
1
100
AcDbVertex
100
AcDb3dPolylineVertex
 10
221.879
 20
119.382
 30
0.0
 70
    32
  0
VERTEX
  5
62A
330
30B
100
AcDbEntity
  8
1
100
AcDbVertex
100
AcDb3dPolylineVertex
 10
221.991
 20
119.322
 30
0.0
 70
    32
  0
VERTEX
  5
62B
330
30B
100
AcDbEntity
  8
1
100
AcDbVertex
100
AcDb3dPolylineVertex
 10
222.101
 20
119.26
 30
0.0
 70
    32
  0
VERTEX
  5
62C
330
30B
100
AcDbEntity
  8
1
100
AcDbVertex
100
AcDb3dPolylineVertex
 10
222.208
 20
119.196
 30
0.0
 70
    32
  0
VERTEX
  5
62D
330
30B
100
AcDbEntity
  8
1
100
AcDbVertex
100
AcDb3dPolylineVertex
 10
222.313
 20
119.13
 30
0.0
 70
    32
  0
VERTEX
  5
62E
330
30B
100
AcDbEntity
  8
1
100
AcDbVertex
100
AcDb3dPolylineVertex
 10
222.415
 20
119.063
 30
0.0
 70
    32
  0
VERTEX
  5
62F
330
30B
100
AcDbEntity
  8
1
100
AcDbVertex
100
AcDb3dPolylineVertex
 10
222.515
 20
118.994
 30
0.0
 70
    32
  0
VERTEX
  5
630
330
30B
100
AcDbEntity
  8
1
100
AcDbVertex
100
AcDb3dPolylineVertex
 10
222.612
 20
118.922
 30
0.0
 70
    32
  0
VERTEX
  5
631
330
30B
100
AcDbEntity
  8
1
100
AcDbVertex
100
AcDb3dPolylineVertex
 10
222.706
 20
118.85
 30
0.0
 70
    32
  0
VERTEX
  5
632
330
30B
100
AcDbEntity
  8
1
100
AcDbVertex
100
AcDb3dPolylineVertex
 10
222.798
 20
118.775
 30
0.0
 70
    32
  0
VERTEX
  5
633
330
30B
100
AcDbEntity
  8
1
100
AcDbVertex
100
AcDb3dPolylineVertex
 10
222.887
 20
118.699
 30
0.0
 70
    32
  0
VERTEX
  5
634
330
30B
100
AcDbEntity
  8
1
100
AcDbVertex
100
AcDb3dPolylineVertex
 10
222.973
 20
118.621
 30
0.0
 70
    32
  0
VERTEX
  5
635
330
30B
100
AcDbEntity
  8
1
100
AcDbVertex
100
AcDb3dPolylineVertex
 10
223.056
 20
118.542
 30
0.0
 70
    32
  0
VERTEX
  5
636
330
30B
100
AcDbEntity
  8
1
100
AcDbVertex
100
AcDb3dPolylineVertex
 10
223.137
 20
118.461
 30
0.0
 70
    32
  0
VERTEX
  5
637
330
30B
100
AcDbEntity
  8
1
100
AcDbVertex
100
AcDb3dPolylineVertex
 10
223.214
 20
118.379
 30
0.0
 70
    32
  0
VERTEX
  5
638
330
30B
100
AcDbEntity
  8
1
100
AcDbVertex
100
AcDb3dPolylineVertex
 10
223.288
 20
118.296
 30
0.0
 70
    32
  0
VERTEX
  5
639
330
30B
100
AcDbEntity
  8
1
100
AcDbVertex
100
AcDb3dPolylineVertex
 10
223.359
 20
118.211
 30
0.0
 70
    32
  0
VERTEX
  5
63A
330
30B
100
AcDbEntity
  8
1
100
AcDbVertex
100
AcDb3dPolylineVertex
 10
223.427
 20
118.126
 30
0.0
 70
    32
  0
VERTEX
  5
63B
330
30B
100
AcDbEntity
  8
1
100
AcDbVertex
100
AcDb3dPolylineVertex
 10
223.492
 20
118.038
 30
0.0
 70
    32
  0
VERTEX
  5
63C
330
30B
100
AcDbEntity
  8
1
100
AcDbVertex
100
AcDb3dPolylineVertex
 10
223.553
 20
117.95
 30
0.0
 70
    32
  0
VERTEX
  5
63D
330
30B
100
AcDbEntity
  8
1
100
AcDbVertex
100
AcDb3dPolylineVertex
 10
223.611
 20
117.861
 30
0.0
 70
    32
  0
VERTEX
  5
63E
330
30B
100
AcDbEntity
  8
1
100
AcDbVertex
100
AcDb3dPolylineVertex
 10
223.666
 20
117.771
 30
0.0
 70
    32
  0
VERTEX
  5
63F
330
30B
100
AcDbEntity
  8
1
100
AcDbVertex
100
AcDb3dPolylineVertex
 10
223.717
 20
117.679
 30
0.0
 70
    32
  0
VERTEX
  5
640
330
30B
100
AcDbEntity
  8
1
100
AcDbVertex
100
AcDb3dPolylineVertex
 10
223.765
 20
117.587
 30
0.0
 70
    32
  0
VERTEX
  5
641
330
30B
100
AcDbEntity
  8
1
100
AcDbVertex
100
AcDb3dPolylineVertex
 10
223.81
 20
117.494
 30
0.0
 70
    32
  0
VERTEX
  5
642
330
30B
100
AcDbEntity
  8
1
100
AcDbVertex
100
AcDb3dPolylineVertex
 10
223.851
 20
117.401
 30
0.0
 70
    32
  0
VERTEX
  5
643
330
30B
100
AcDbEntity
  8
1
100
AcDbVertex
100
AcDb3dPolylineVertex
 10
223.889
 20
117.306
 30
0.0
 70
    32
  0
VERTEX
  5
644
330
30B
100
AcDbEntity
  8
1
100
AcDbVertex
100
AcDb3dPolylineVertex
 10
223.923
 20
117.211
 30
0.0
 70
    32
  0
VERTEX
  5
645
330
30B
100
AcDbEntity
  8
1
100
AcDbVertex
100
AcDb3dPolylineVertex
 10
223.953
 20
117.116
 30
0.0
 70
    32
  0
VERTEX
  5
646
330
30B
100
AcDbEntity
  8
1
100
AcDbVertex
100
AcDb3dPolylineVertex
 10
223.98
 20
117.02
 30
0.0
 70
    32
  0
VERTEX
  5
647
330
30B
100
AcDbEntity
  8
1
100
AcDbVertex
100
AcDb3dPolylineVertex
 10
224.004
 20
116.923
 30
0.0
 70
    32
  0
VERTEX
  5
648
330
30B
100
AcDbEntity
  8
1
100
AcDbVertex
100
AcDb3dPolylineVertex
 10
224.024
 20
116.826
 30
0.0
 70
    32
  0
VERTEX
  5
649
330
30B
100
AcDbEntity
  8
1
100
AcDbVertex
100
AcDb3dPolylineVertex
 10
224.04
 20
116.729
 30
0.0
 70
    32
  0
VERTEX
  5
64A
330
30B
100
AcDbEntity
  8
1
100
AcDbVertex
100
AcDb3dPolylineVertex
 10
224.053
 20
116.631
 30
0.0
 70
    32
  0
VERTEX
  5
64B
330
30B
100
AcDbEntity
  8
1
100
AcDbVertex
100
AcDb3dPolylineVertex
 10
224.062
 20
116.533
 30
0.0
 70
    32
  0
VERTEX
  5
64C
330
30B
100
AcDbEntity
  8
1
100
AcDbVertex
100
AcDb3dPolylineVertex
 10
224.067
 20
116.436
 30
0.0
 70
    32
  0
VERTEX
  5
64D
330
30B
100
AcDbEntity
  8
1
100
AcDbVertex
100
AcDb3dPolylineVertex
 10
224.069
 20
116.338
 30
0.0
 70
    32
  0
VERTEX
  5
64E
330
30B
100
AcDbEntity
  8
1
100
AcDbVertex
100
AcDb3dPolylineVertex
 10
224.067
 20
116.24
 30
0.0
 70
    32
  0
VERTEX
  5
64F
330
30B
100
AcDbEntity
  8
1
100
AcDbVertex
100
AcDb3dPolylineVertex
 10
224.062
 20
116.142
 30
0.0
 70
    32
  0
VERTEX
  5
650
330
30B
100
AcDbEntity
  8
1
100
AcDbVertex
100
AcDb3dPolylineVertex
 10
224.052
 20
116.044
 30
0.0
 70
    32
  0
SEQEND
  5
651
330
30B
100
AcDbEntity
  8
1
  0
ARC
  5
30C
330
8C8
100
AcDbEntity
  8
1外形線
100
AcDbCircle
 10
215.2125324842314
 20
127.7433012314437
 30
0.0
 40
6.904113899828757
100
AcDbArc
 50
215.2891246743133
 51
270.0
  0
LINE
  5
30D
330
8C8
100
AcDbEntity
  8
1外形線
100
AcDbLine
 10
244.5688570574349
 20
122.9433012314439
 30
0.0
 11
244.5688570574349
 21
94.54330123144458
 31
0.0
  0
LINE
  5
30E
330
8C8
100
AcDbEntity
  8
1外形線
100
AcDbLine
 10
250.0688570574344
 20
123.4433012314439
 30
0.0
 11
245.0688570574349
 21
123.4433012314439
 31
0.0
  0
ARC
  5
30F
330
8C8
100
AcDbEntity
  8
1外形線
100
AcDbCircle
 10
245.0688570574349
 20
122.9433012314439
 30
0.0
 40
0.5
100
AcDbArc
 50
90.0
 51
180.0
  0
ARC
  5
310
330
8C8
100
AcDbEntity
  8
1外形線
100
AcDbCircle
 10
250.0688570574344
 20
122.9433012314439
 30
0.0
 40
0.5
100
AcDbArc
 50
0.0
 51
90.0
  0
LINE
  5
311
330
8C8
100
AcDbEntity
  8
1外形線
100
AcDbLine
 10
76.56885705743468
 20
219.6978880217747
 30
0.0
 11
244.5688570574349
 21
219.6978880217747
 31
0.0
  0
LINE
  5
312
330
8C8
100
AcDbEntity
  8
1外形線
100
AcDbLine
 10
107.0587422851554
 20
211.6448483121681
 30
0.0
 11
214.0789718297142
 21
211.6448483121684
 31
0.0
  0
LINE
  5
313
330
8C8
100
AcDbEntity
  8
1外形線
100
AcDbLine
 10
107.0688570574344
 20
206.1580205731565
 30
0.0
 11
214.0688570574349
 21
206.1580205731567
 31
0.0
  0
LINE
  5
314
330
8C8
100
AcDbEntity
  8
1外形線
  6
Continuous
100
AcDbLine
 10
244.5688570574349
 20
204.1433012314433
 30
0.0
 11
76.56885705743468
 21
204.1433012314433
 31
0.0
  0
LINE
  5
315
330
8C8
100
AcDbEntity
  8
1外形線
  6
Continuous
100
AcDbLine
 10
244.5688570574349
 20
309.5433012314438
 30
0.0
 11
76.56885705743468
 21
309.5433012314438
 31
0.0
  0
LINE
  5
316
330
8C8
100
AcDbEntity
  8
1外形線
100
AcDbLine
 10
107.0688570574344
 20
307.5285818897307
 30
0.0
 11
214.0688570574349
 21
307.5285818897305
 31
0.0
  0
LINE
  5
317
330
8C8
100
AcDbEntity
  8
1外形線
100
AcDbLine
 10
107.0587422851554
 20
302.0417541507189
 30
0.0
 11
214.0789718297142
 21
302.0417541507188
 31
0.0
  0
LINE
  5
318
330
8C8
100
AcDbEntity
  8
1外形線
100
AcDbLine
 10
76.56885705743468
 20
293.9887144411125
 30
0.0
 11
244.5688570574349
 21
293.9887144411125
 31
0.0
  0
ARC
  5
319
330
8C8
100
AcDbEntity
  8
1外形線
100
AcDbCircle
 10
118.5688570574346
 20
407.1339395816885
 30
0.0
 40
82.2
100
AcDbArc
 50
34.4431145826228
 51
90.0
  0
ARC
  5
31A
330
8C8
100
AcDbEntity
  8
1外形線
100
AcDbCircle
 10
118.5688570574346
 20
407.1339395816885
 30
0.0
 40
85.20000000000001
100
AcDbArc
 50
34.4431145826228
 51
90.0
  0
ARC
  5
31B
330
8C8
100
AcDbEntity
  8
1外形線
100
AcDbCircle
 10
118.5688570574346
 20
400.2433012314427
 30
0.0
 40
50.0
100
AcDbArc
 50
5.215908570455905
 51
90.0
  0
ARC
  5
31C
330
8C8
100
AcDbEntity
  8
1外形線
100
AcDbCircle
 10
118.5688570574346
 20
400.2433012314427
 30
0.0
 40
63.15654354239411
100
AcDbArc
 50
34.78138384827944
 51
90.0
  0
TEXT
  5
31D
330
8C8
100
AcDbEntity
  8
1外形線
100
AcDbText
 10
70.56885718976935
 20
340.2433026691039
 30
0.0
 40
10.0
  1
SIF-100
  7
KANJI
100
AcDbText
  0
LINE
  5
31E
330
8C8
100
AcDbEntity
  8
1外形線
  6
Continuous
100
AcDbLine
 10
71.56885705743468
 20
203.4433012314436
 30
0.0
 11
76.06885705743469
 21
203.4433012314436
 31
0.0
  0
LINE
  5
31F
330
8C8
100
AcDbEntity
  8
1外形線
  6
Continuous
100
AcDbLine
 10
71.56885705743468
 20
310.2433012314437
 30
0.0
 11
76.06885705743469
 21
310.2433012314437
 31
0.0
  0
LINE
  5
320
330
8C8
100
AcDbEntity
  8
1外形線
100
AcDbLine
 10
70.56885705743468
 20
256.8433012314436
 30
0.0
 11
70.56885705743468
 21
309.2433012314436
 31
0.0
  0
LINE
  5
321
330
8C8
100
AcDbEntity
  8
1外形線
100
AcDbLine
 10
70.56885705743468
 20
256.8433012314436
 30
0.0
 11
70.56885705743468
 21
204.4433012314435
 31
0.0
  0
ARC
  5
322
330
8C8
100
AcDbEntity
  8
1外形線
100
AcDbCircle
 10
71.56885705743445
 20
204.4433012314435
 30
0.0
 40
1.0
100
AcDbArc
 50
180.0
 51
270.0
  0
ARC
  5
323
330
8C8
100
AcDbEntity
  8
1外形線
100
AcDbCircle
 10
71.56885705743445
 20
309.2433012314436
 30
0.0
 40
1.0
100
AcDbArc
 50
90.0
 51
180.0
  0
LINE
  5
324
330
8C8
100
AcDbEntity
  8
1外形線
100
AcDbLine
 10
76.56885705743468
 20
309.7433012314436
 30
0.0
 11
76.56885705743468
 21
256.8433012314436
 31
0.0
  0
LINE
  5
325
330
8C8
100
AcDbEntity
  8
1外形線
100
AcDbLine
 10
107.0688570574344
 20
204.5105506558176
 30
0.0
 11
98.06885705743448
 21
204.5105506558176
 31
0.0
  0
ARC
  5
326
330
8C8
100
AcDbEntity
  8
1外形線
100
AcDbCircle
 10
102.5688570574344
 20
211.3433012314437
 30
0.0
 40
4.5
100
AcDbArc
 50
0.0
 51
180.0
  0
LINE
  5
327
330
8C8
100
AcDbEntity
  8
1外形線
100
AcDbLine
 10
76.56885705743468
 20
203.9433012314435
 30
0.0
 11
76.56885705743468
 21
256.8433012314436
 31
0.0
  0
LINE
  5
328
330
8C8
100
AcDbEntity
  8
1外形線
100
AcDbLine
 10
98.06885705743448
 20
206.1580205731565
 30
0.0
 11
76.56885705743468
 21
206.1580205731565
 31
0.0
  0
LINE
  5
329
330
8C8
100
AcDbEntity
  8
1外形線
100
AcDbLine
 10
76.56885705743468
 20
211.6448483121681
 30
0.0
 11
98.07897182971352
 21
211.6448483121681
 31
0.0
  0
ARC
  5
32A
330
8C8
100
AcDbEntity
  8
1外形線
100
AcDbCircle
 10
76.06885705743446
 20
203.9433012314435
 30
0.0
 40
0.5
100
AcDbArc
 50
270.0
 51
0.0
  0
LINE
  5
32B
330
8C8
100
AcDbEntity
  8
1外形線
100
AcDbLine
 10
76.56885705743468
 20
204.1433012314433
 30
0.0
 11
76.56885705743468
 21
203.9433012314435
 31
0.0
  0
LINE
  5
32C
330
8C8
100
AcDbEntity
  8
1外形線
100
AcDbLine
 10
98.06885705743448
 20
211.3433012314437
 30
0.0
 11
98.06885705743448
 21
204.5105506558176
 31
0.0
  0
CIRCLE
  5
32D
330
8C8
100
AcDbEntity
  8
1外形線
100
AcDbCircle
 10
102.5688570574344
 20
211.3433012314437
 30
0.0
 40
2.0
  0
LINE
  5
32E
330
8C8
100
AcDbEntity
  8
1外形線
100
AcDbLine
 10
107.0688570574344
 20
211.3433012314437
 30
0.0
 11
107.0688570574344
 21
204.5105506558176
 31
0.0
  0
LINE
  5
32F
330
8C8
100
AcDbEntity
  8
1外形線
100
AcDbLine
 10
107.0688570574344
 20
309.1760518070695
 30
0.0
 11
98.06885705743448
 21
309.1760518070695
 31
0.0
  0
ARC
  5
330
330
8C8
100
AcDbEntity
  8
1外形線
100
AcDbCircle
 10
102.5688570574344
 20
302.3433012314435
 30
0.0
 40
4.5
100
AcDbArc
 50
180.0
 51
0.0
  0
LINE
  5
331
330
8C8
100
AcDbEntity
  8
1外形線
100
AcDbLine
 10
76.56885705743468
 20
302.0417541507189
 30
0.0
 11
98.07897182971352
 21
302.0417541507189
 31
0.0
  0
LINE
  5
332
330
8C8
100
AcDbEntity
  8
1外形線
100
AcDbLine
 10
98.06885705743448
 20
307.5285818897307
 30
0.0
 11
76.56885705743468
 21
307.5285818897307
 31
0.0
  0
LINE
  5
333
330
8C8
100
AcDbEntity
  8
1外形線
100
AcDbLine
 10
76.56885705743468
 20
309.5433012314438
 30
0.0
 11
76.56885705743468
 21
309.7433012314436
 31
0.0
  0
ARC
  5
334
330
8C8
100
AcDbEntity
  8
1外形線
100
AcDbCircle
 10
76.06885705743446
 20
309.7433012314436
 30
0.0
 40
0.5
100
AcDbArc
 50
0.0
 51
90.0
  0
CIRCLE
  5
335
330
8C8
100
AcDbEntity
  8
1外形線
100
AcDbCircle
 10
102.5688570574344
 20
302.3433012314435
 30
0.0
 40
2.0
  0
LINE
  5
336
330
8C8
100
AcDbEntity
  8
1外形線
100
AcDbLine
 10
98.06885705743448
 20
302.3433012314435
 30
0.0
 11
98.06885705743448
 21
309.1760518070695
 31
0.0
  0
LINE
  5
337
330
8C8
100
AcDbEntity
  8
1外形線
100
AcDbLine
 10
107.0688570574344
 20
302.3433012314435
 30
0.0
 11
107.0688570574344
 21
309.1760518070695
 31
0.0
  0
LINE
  5
338
330
8C8
100
AcDbEntity
  8
1外形線
100
AcDbLine
 10
118.5688570574353
 20
489.3339395816885
 30
0.0
 11
70.56885705743468
 21
489.3339395816885
 31
0.0
  0
LINE
  5
339
330
8C8
100
AcDbEntity
  8
1外形線
100
AcDbLine
 10
118.5688570574353
 20
492.3339395816887
 30
0.0
 11
70.56885705743455
 21
492.3339395816887
 31
0.0
  0
LINE
  5
33A
330
8C8
100
AcDbEntity
  8
1外形線
100
AcDbLine
 10
118.5688570574353
 20
495.3339395816887
 30
0.0
 11
70.56885705743468
 21
495.3339395816887
 31
0.0
  0
LINE
  5
33B
330
8C8
100
AcDbEntity
  8
1外形線
100
AcDbLine
 10
70.56885705743468
 20
450.2433012314432
 30
0.0
 11
118.5688570574351
 21
450.2433012314427
 31
0.0
  0
LINE
  5
33C
330
8C8
100
AcDbEntity
  8
1外形線
100
AcDbLine
 10
98.06885705743423
 20
497.5339395816871
 30
0.0
 11
107.0688570574344
 21
497.5339395816873
 31
0.0
  0
LINE
  5
33D
330
8C8
100
AcDbEntity
  8
1外形線
100
AcDbLine
 10
118.5688570574353
 20
463.3998447738369
 30
0.0
 11
76.56885705743468
 21
463.3998447738369
 31
0.0
  0
LINE
  5
33E
330
8C8
100
AcDbEntity
  8
1外形線
100
AcDbLine
 10
76.56885705743468
 20
489.3339395816885
 30
0.0
 11
76.56885705743468
 21
450.2433012314432
 31
0.0
  0
LINE
  5
33F
330
8C8
100
AcDbEntity
  8
1外形線
100
AcDbLine
 10
97.83132761638945
 20
500.7632722970383
 30
0.0
 11
76.56885705743455
 21
500.7632722970385
 31
0.0
  0
LINE
  5
340
330
8C8
100
AcDbEntity
  8
1外形線
100
AcDbLine
 10
118.5688570574353
 20
500.7632722970383
 30
0.0
 11
107.3056598926881
 21
500.7632722970383
 31
0.0
  0
LINE
  5
341
330
8C8
100
AcDbEntity
  8
1外形線
100
AcDbLine
 10
244.5688570574349
 20
309.7433012314436
 30
0.0
 11
244.5688570574349
 21
256.8433012314436
 31
0.0
  0
LINE
  5
342
330
8C8
100
AcDbEntity
  8
1外形線
100
AcDbLine
 10
250.5688570574349
 20
256.8433012314436
 30
0.0
 11
250.5688570574349
 21
309.2433012314436
 31
0.0
  0
LINE
  5
343
330
8C8
100
AcDbEntity
  8
1外形線
100
AcDbLine
 10
223.0688570574349
 20
206.1580205731567
 30
0.0
 11
244.5688570574349
 21
206.1580205731567
 31
0.0
  0
LINE
  5
344
330
8C8
100
AcDbEntity
  8
1外形線
100
AcDbLine
 10
223.058742285156
 20
211.6448483121684
 30
0.0
 11
244.5688570574349
 21
211.6448483121681
 31
0.0
  0
LINE
  5
345
330
8C8
100
AcDbEntity
  8
1外形線
100
AcDbLine
 10
214.0688570574349
 20
204.5105506558176
 30
0.0
 11
223.0688570574349
 21
204.5105506558176
 31
0.0
  0
ARC
  5
346
330
8C8
100
AcDbEntity
  8
1外形線
100
AcDbCircle
 10
218.5688570574351
 20
211.3433012314437
 30
0.0
 40
4.5
100
AcDbArc
 50
0.0
 51
180.0
  0
LINE
  5
347
330
8C8
100
AcDbEntity
  8
1外形線
100
AcDbLine
 10
214.0688570574349
 20
211.3433012314437
 30
0.0
 11
214.0688570574349
 21
204.5105506558176
 31
0.0
  0
LINE
  5
348
330
8C8
100
AcDbEntity
  8
1外形線
100
AcDbLine
 10
223.0688570574349
 20
211.3433012314437
 30
0.0
 11
223.0688570574349
 21
204.5105506558176
 31
0.0
  0
CIRCLE
  5
349
330
8C8
100
AcDbEntity
  8
1外形線
100
AcDbCircle
 10
218.5688570574351
 20
211.3433012314437
 30
0.0
 40
2.0
  0
LINE
  5
34A
330
8C8
100
AcDbEntity
  8
1外形線
100
AcDbLine
 10
244.5688570574349
 20
203.9433012314435
 30
0.0
 11
244.5688570574349
 21
256.8433012314436
 31
0.0
  0
LINE
  5
34B
330
8C8
100
AcDbEntity
  8
1外形線
100
AcDbLine
 10
250.5688570574349
 20
256.8433012314436
 30
0.0
 11
250.5688570574349
 21
204.4433012314435
 31
0.0
  0
ARC
  5
34C
330
8C8
100
AcDbEntity
  8
1外形線
100
AcDbCircle
 10
249.5688570574349
 20
204.4433012314435
 30
0.0
 40
1.0
100
AcDbArc
 50
270.0
 51
0.0
  0
ARC
  5
34D
330
8C8
100
AcDbEntity
  8
1外形線
100
AcDbCircle
 10
245.0688570574349
 20
203.9433012314435
 30
0.0
 40
0.5
100
AcDbArc
 50
180.0
 51
270.0
  0
LINE
  5
34E
330
8C8
100
AcDbEntity
  8
1外形線
100
AcDbLine
 10
244.5688570574349
 20
204.1433012314433
 30
0.0
 11
244.5688570574349
 21
203.9433012314435
 31
0.0
  0
LINE
  5
34F
330
8C8
100
AcDbEntity
  8
1外形線
  6
Continuous
100
AcDbLine
 10
249.5688570574349
 20
203.4433012314436
 30
0.0
 11
245.0688570574349
 21
203.4433012314436
 31
0.0
  0
LINE
  5
350
330
8C8
100
AcDbEntity
  8
1外形線
100
AcDbLine
 10
223.058742285156
 20
302.0417541507188
 30
0.0
 11
244.5688570574349
 21
302.0417541507189
 31
0.0
  0
LINE
  5
351
330
8C8
100
AcDbEntity
  8
1外形線
100
AcDbLine
 10
223.0688570574349
 20
307.5285818897305
 30
0.0
 11
244.5688570574349
 21
307.5285818897305
 31
0.0
  0
LINE
  5
352
330
8C8
100
AcDbEntity
  8
1外形線
100
AcDbLine
 10
214.0688570574349
 20
309.1760518070695
 30
0.0
 11
223.0688570574349
 21
309.1760518070695
 31
0.0
  0
ARC
  5
353
330
8C8
100
AcDbEntity
  8
1外形線
100
AcDbCircle
 10
218.5688570574351
 20
302.3433012314435
 30
0.0
 40
4.5
100
AcDbArc
 50
180.0
 51
0.0
  0
LINE
  5
354
330
8C8
100
AcDbEntity
  8
1外形線
100
AcDbLine
 10
214.0688570574349
 20
302.3433012314435
 30
0.0
 11
214.0688570574349
 21
309.1760518070695
 31
0.0
  0
CIRCLE
  5
355
330
8C8
100
AcDbEntity
  8
1外形線
100
AcDbCircle
 10
218.5688570574351
 20
302.3433012314435
 30
0.0
 40
2.0
  0
LINE
  5
356
330
8C8
100
AcDbEntity
  8
1外形線
100
AcDbLine
 10
223.0688570574349
 20
302.3433012314435
 30
0.0
 11
223.0688570574349
 21
309.1760518070695
 31
0.0
  0
ARC
  5
357
330
8C8
100
AcDbEntity
  8
1外形線
100
AcDbCircle
 10
249.5688570574349
 20
309.2433012314436
 30
0.0
 40
1.0
100
AcDbArc
 50
0.0
 51
90.0
  0
LINE
  5
358
330
8C8
100
AcDbEntity
  8
1外形線
100
AcDbLine
 10
244.5688570574349
 20
309.5433012314438
 30
0.0
 11
244.5688570574349
 21
309.7433012314436
 31
0.0
  0
ARC
  5
359
330
8C8
100
AcDbEntity
  8
1外形線
100
AcDbCircle
 10
245.0688570574349
 20
309.7433012314436
 30
0.0
 40
0.5
100
AcDbArc
 50
90.0
 51
180.0
  0
LINE
  5
35A
330
8C8
100
AcDbEntity
  8
1外形線
  6
Continuous
100
AcDbLine
 10
249.5688570574349
 20
310.2433012314437
 30
0.0
 11
245.0688570574349
 21
310.2433012314437
 31
0.0
  0
ARC
  5
35B
330
8C8
100
AcDbEntity
  8
1外形線
100
AcDbCircle
 10
215.2125324842314
 20
472.5339395816877
 30
0.0
 40
21.77066728464867
100
AcDbArc
 50
215.2891246743133
 51
266.3539715297751
  0
ARC
  5
35C
330
8C8
100
AcDbEntity
  8
1外形線
100
AcDbCircle
 10
215.2125324842314
 20
472.5339395816877
 30
0.0
 40
12.93794240264452
100
AcDbArc
 50
215.2891246743133
 51
260.915329673799
  0
ARC
  5
35D
330
8C8
100
AcDbEntity
  8
1外形線
100
AcDbCircle
 10
215.3872437409569
 20
473.5339395816885
 30
0.0
 40
35.20000000000001
100
AcDbArc
 50
214.4431145826226
 51
270.0
  0
ARC
  5
35E
330
8C8
100
AcDbEntity
  8
1外形線
100
AcDbCircle
 10
215.3872437409569
 20
473.5339395816885
 30
0.0
 40
32.20000000000001
100
AcDbArc
 50
214.4431145826226
 51
270.0
  0
ARC
  5
35F
330
8C8
100
AcDbEntity
  8
1外形線
100
AcDbCircle
 10
215.3872437409569
 20
473.5339395816885
 30
0.0
 40
29.2
100
AcDbArc
 50
214.4431145826226
 51
270.0
  0
LINE
  5
360
330
8C8
100
AcDbEntity
  8
1外形線
100
AcDbLine
 10
173.3411128079513
 20
400.2433012314434
 30
0.0
 11
250.5688570574347
 21
400.2433012314436
 31
0.0
  0
ARC
  5
361
330
8C8
100
AcDbEntity
  8
1外形線
100
AcDbCircle
 10
214.1722042791712
 20
466.6433012314434
 30
0.0
 40
53.24345645760589
100
AcDbArc
 50
214.7813838482794
 51
270.0
  0
ARC
  5
362
330
8C8
100
AcDbEntity
  8
1外形線
100
AcDbCircle
 10
173.3411128079511
 20
405.2433012314434
 30
0.0
 40
5.0
100
AcDbArc
 50
185.2159085704558
 51
270.0
  0
LINE
  5
363
330
8C8
100
AcDbEntity
  8
1外形線
100
AcDbLine
 10
244.5688570574349
 20
438.3339395816885
 30
0.0
 11
244.5688570574346
 21
400.2433012314436
 31
0.0
  0
LINE
  5
364
330
8C8
100
AcDbEntity
  8
1外形線
100
AcDbLine
 10
250.5688570574347
 20
400.2433012314436
 30
0.0
 11
250.5688570574344
 21
467.7339395816879
 31
0.0
  0
LINE
  5
365
330
8C8
100
AcDbEntity
  8
1外形線
100
AcDbLine
 10
244.5688570574346
 20
413.399844773838
 30
0.0
 11
214.1722042791712
 21
413.399844773838
 31
0.0
  0
LINE
  5
366
330
8C8
100
AcDbEntity
  8
1外形線
100
AcDbLine
 10
244.5688570574349
 20
450.7632722970391
 30
0.0
 11
223.3056598926888
 21
450.7632722970391
 31
0.0
  0
LINE
  5
367
330
8C8
100
AcDbEntity
  8
1外形線
100
AcDbLine
 10
244.5688570574349
 20
459.5959971790431
 30
0.0
 11
223.9533523045396
 21
459.5959971790431
 31
0.0
  0
LINE
  5
368
330
8C8
100
AcDbEntity
  8
1外形線
100
AcDbLine
 10
244.5688570574349
 20
465.4837616233242
 30
0.0
 11
215.2125324842316
 21
465.4837616233242
 31
0.0
  0
LINE
  5
369
330
8C8
100
AcDbEntity
  8
1外形線
100
AcDbLine
 10
244.5688570574349
 20
467.533939581688
 30
0.0
 11
215.2125324842316
 21
467.5339395816878
 31
0.0
  0
LINE
  5
36A
330
8C8
100
AcDbEntity
  8
1外形線
100
AcDbLine
 10
215.3872437409569
 20
444.3339395816884
 30
0.0
 11
250.5688570574347
 21
444.3339395816884
 31
0.0
  0
LINE
  5
36B
330
8C8
100
AcDbEntity
  8
1外形線
100
AcDbLine
 10
215.3872437409569
 20
441.3339395816885
 30
0.0
 11
250.5688570574347
 21
441.3339395816885
 31
0.0
  0
LINE
  5
36C
330
8C8
100
AcDbEntity
  8
1外形線
100
AcDbLine
 10
215.3872437409569
 20
438.3339395816885
 30
0.0
 11
250.5688570574347
 21
438.3339395816885
 31
0.0
  0
ARC
  5
36D
330
8C8
100
AcDbEntity
  8
1外形線
100
AcDbCircle
 10
215.2125324842314
 20
472.5339395816877
 30
0.0
 40
7.050177958363486
100
AcDbArc
 50
215.2891246743133
 51
270.0
  0
POLYLINE
  5
36E
330
8C8
100
AcDbEntity
  8
1外形線
100
AcDb3dPolyline
 66
     1
 10
0.0
 20
0.0
 30
0.0
 70
     8
  0
VERTEX
  5
652
330
36E
100
AcDbEntity
  8
1
100
AcDbVertex
100
AcDb3dPolylineVertex
 10
213.083
 20
460.86
 30
0.0
 70
    32
  0
VERTEX
  5
653
330
36E
100
AcDbEntity
  8
1
100
AcDbVertex
100
AcDb3dPolylineVertex
 10
213.074
 20
460.958
 30
0.0
 70
    32
  0
VERTEX
  5
654
330
36E
100
AcDbEntity
  8
1
100
AcDbVertex
100
AcDb3dPolylineVertex
 10
213.07
 20
461.0559999999999
 30
0.0
 70
    32
  0
VERTEX
  5
655
330
36E
100
AcDbEntity
  8
1
100
AcDbVertex
100
AcDb3dPolylineVertex
 10
213.069
 20
461.1539999999999
 30
0.0
 70
    32
  0
VERTEX
  5
656
330
36E
100
AcDbEntity
  8
1
100
AcDbVertex
100
AcDb3dPolylineVertex
 10
213.072
 20
461.2519999999999
 30
0.0
 70
    32
  0
VERTEX
  5
657
330
36E
100
AcDbEntity
  8
1
100
AcDbVertex
100
AcDb3dPolylineVertex
 10
213.078
 20
461.35
 30
0.0
 70
    32
  0
VERTEX
  5
658
330
36E
100
AcDbEntity
  8
1
100
AcDbVertex
100
AcDb3dPolylineVertex
 10
213.088
 20
461.4469999999999
 30
0.0
 70
    32
  0
VERTEX
  5
659
330
36E
100
AcDbEntity
  8
1
100
AcDbVertex
100
AcDb3dPolylineVertex
 10
213.102
 20
461.545
 30
0.0
 70
    32
  0
VERTEX
  5
65A
330
36E
100
AcDbEntity
  8
1
100
AcDbVertex
100
AcDb3dPolylineVertex
 10
213.119
 20
461.6419999999999
 30
0.0
 70
    32
  0
VERTEX
  5
65B
330
36E
100
AcDbEntity
  8
1
100
AcDbVertex
100
AcDb3dPolylineVertex
 10
213.14
 20
461.739
 30
0.0
 70
    32
  0
VERTEX
  5
65C
330
36E
100
AcDbEntity
  8
1
100
AcDbVertex
100
AcDb3dPolylineVertex
 10
213.164
 20
461.8349999999999
 30
0.0
 70
    32
  0
VERTEX
  5
65D
330
36E
100
AcDbEntity
  8
1
100
AcDbVertex
100
AcDb3dPolylineVertex
 10
213.192
 20
461.9309999999999
 30
0.0
 70
    32
  0
VERTEX
  5
65E
330
36E
100
AcDbEntity
  8
1
100
AcDbVertex
100
AcDb3dPolylineVertex
 10
213.224
 20
462.0269999999999
 30
0.0
 70
    32
  0
VERTEX
  5
65F
330
36E
100
AcDbEntity
  8
1
100
AcDbVertex
100
AcDb3dPolylineVertex
 10
213.259
 20
462.122
 30
0.0
 70
    32
  0
VERTEX
  5
660
330
36E
100
AcDbEntity
  8
1
100
AcDbVertex
100
AcDb3dPolylineVertex
 10
213.297
 20
462.216
 30
0.0
 70
    32
  0
VERTEX
  5
661
330
36E
100
AcDbEntity
  8
1
100
AcDbVertex
100
AcDb3dPolylineVertex
 10
213.339
 20
462.309
 30
0.0
 70
    32
  0
VERTEX
  5
662
330
36E
100
AcDbEntity
  8
1
100
AcDbVertex
100
AcDb3dPolylineVertex
 10
213.385
 20
462.4019999999999
 30
0.0
 70
    32
  0
VERTEX
  5
663
330
36E
100
AcDbEntity
  8
1
100
AcDbVertex
100
AcDb3dPolylineVertex
 10
213.434
 20
462.494
 30
0.0
 70
    32
  0
VERTEX
  5
664
330
36E
100
AcDbEntity
  8
1
100
AcDbVertex
100
AcDb3dPolylineVertex
 10
213.486
 20
462.5849999999999
 30
0.0
 70
    32
  0
VERTEX
  5
665
330
36E
100
AcDbEntity
  8
1
100
AcDbVertex
100
AcDb3dPolylineVertex
 10
213.542
 20
462.675
 30
0.0
 70
    32
  0
VERTEX
  5
666
330
36E
100
AcDbEntity
  8
1
100
AcDbVertex
100
AcDb3dPolylineVertex
 10
213.601
 20
462.764
 30
0.0
 70
    32
  0
VERTEX
  5
667
330
36E
100
AcDbEntity
  8
1
100
AcDbVertex
100
AcDb3dPolylineVertex
 10
213.663
 20
462.8519999999999
 30
0.0
 70
    32
  0
VERTEX
  5
668
330
36E
100
AcDbEntity
  8
1
100
AcDbVertex
100
AcDb3dPolylineVertex
 10
213.728
 20
462.9389999999999
 30
0.0
 70
    32
  0
VERTEX
  5
669
330
36E
100
AcDbEntity
  8
1
100
AcDbVertex
100
AcDb3dPolylineVertex
 10
213.797
 20
463.0239999999999
 30
0.0
 70
    32
  0
VERTEX
  5
66A
330
36E
100
AcDbEntity
  8
1
100
AcDbVertex
100
AcDb3dPolylineVertex
 10
213.869
 20
463.109
 30
0.0
 70
    32
  0
VERTEX
  5
66B
330
36E
100
AcDbEntity
  8
1
100
AcDbVertex
100
AcDb3dPolylineVertex
 10
213.944
 20
463.192
 30
0.0
 70
    32
  0
VERTEX
  5
66C
330
36E
100
AcDbEntity
  8
1
100
AcDbVertex
100
AcDb3dPolylineVertex
 10
214.022
 20
463.273
 30
0.0
 70
    32
  0
VERTEX
  5
66D
330
36E
100
AcDbEntity
  8
1
100
AcDbVertex
100
AcDb3dPolylineVertex
 10
214.103
 20
463.354
 30
0.0
 70
    32
  0
VERTEX
  5
66E
330
36E
100
AcDbEntity
  8
1
100
AcDbVertex
100
AcDb3dPolylineVertex
 10
214.187
 20
463.4319999999999
 30
0.0
 70
    32
  0
VERTEX
  5
66F
330
36E
100
AcDbEntity
  8
1
100
AcDbVertex
100
AcDb3dPolylineVertex
 10
214.274
 20
463.51
 30
0.0
 70
    32
  0
VERTEX
  5
670
330
36E
100
AcDbEntity
  8
1
100
AcDbVertex
100
AcDb3dPolylineVertex
 10
214.363
 20
463.5849999999999
 30
0.0
 70
    32
  0
VERTEX
  5
671
330
36E
100
AcDbEntity
  8
1
100
AcDbVertex
100
AcDb3dPolylineVertex
 10
214.456
 20
463.6589999999999
 30
0.0
 70
    32
  0
VERTEX
  5
672
330
36E
100
AcDbEntity
  8
1
100
AcDbVertex
100
AcDb3dPolylineVertex
 10
214.551
 20
463.7319999999999
 30
0.0
 70
    32
  0
VERTEX
  5
673
330
36E
100
AcDbEntity
  8
1
100
AcDbVertex
100
AcDb3dPolylineVertex
 10
214.649
 20
463.803
 30
0.0
 70
    32
  0
VERTEX
  5
674
330
36E
100
AcDbEntity
  8
1
100
AcDbVertex
100
AcDb3dPolylineVertex
 10
214.749
 20
463.8709999999999
 30
0.0
 70
    32
  0
VERTEX
  5
675
330
36E
100
AcDbEntity
  8
1
100
AcDbVertex
100
AcDb3dPolylineVertex
 10
214.852
 20
463.939
 30
0.0
 70
    32
  0
VERTEX
  5
676
330
36E
100
AcDbEntity
  8
1
100
AcDbVertex
100
AcDb3dPolylineVertex
 10
214.958
 20
464.0039999999999
 30
0.0
 70
    32
  0
VERTEX
  5
677
330
36E
100
AcDbEntity
  8
1
100
AcDbVertex
100
AcDb3dPolylineVertex
 10
215.066
 20
464.0669999999999
 30
0.0
 70
    32
  0
VERTEX
  5
678
330
36E
100
AcDbEntity
  8
1
100
AcDbVertex
100
AcDb3dPolylineVertex
 10
215.176
 20
464.129
 30
0.0
 70
    32
  0
VERTEX
  5
679
330
36E
100
AcDbEntity
  8
1
100
AcDbVertex
100
AcDb3dPolylineVertex
 10
215.288
 20
464.188
 30
0.0
 70
    32
  0
VERTEX
  5
67A
330
36E
100
AcDbEntity
  8
1
100
AcDbVertex
100
AcDb3dPolylineVertex
 10
215.403
 20
464.245
 30
0.0
 70
    32
  0
VERTEX
  5
67B
330
36E
100
AcDbEntity
  8
1
100
AcDbVertex
100
AcDb3dPolylineVertex
 10
215.519
 20
464.301
 30
0.0
 70
    32
  0
VERTEX
  5
67C
330
36E
100
AcDbEntity
  8
1
100
AcDbVertex
100
AcDb3dPolylineVertex
 10
215.638
 20
464.354
 30
0.0
 70
    32
  0
VERTEX
  5
67D
330
36E
100
AcDbEntity
  8
1
100
AcDbVertex
100
AcDb3dPolylineVertex
 10
215.758
 20
464.405
 30
0.0
 70
    32
  0
VERTEX
  5
67E
330
36E
100
AcDbEntity
  8
1
100
AcDbVertex
100
AcDb3dPolylineVertex
 10
215.881
 20
464.454
 30
0.0
 70
    32
  0
VERTEX
  5
67F
330
36E
100
AcDbEntity
  8
1
100
AcDbVertex
100
AcDb3dPolylineVertex
 10
216.005
 20
464.501
 30
0.0
 70
    32
  0
VERTEX
  5
680
330
36E
100
AcDbEntity
  8
1
100
AcDbVertex
100
AcDb3dPolylineVertex
 10
216.131
 20
464.545
 30
0.0
 70
    32
  0
VERTEX
  5
681
330
36E
100
AcDbEntity
  8
1
100
AcDbVertex
100
AcDb3dPolylineVertex
 10
216.258
 20
464.588
 30
0.0
 70
    32
  0
VERTEX
  5
682
330
36E
100
AcDbEntity
  8
1
100
AcDbVertex
100
AcDb3dPolylineVertex
 10
216.387
 20
464.628
 30
0.0
 70
    32
  0
VERTEX
  5
683
330
36E
100
AcDbEntity
  8
1
100
AcDbVertex
100
AcDb3dPolylineVertex
 10
216.518
 20
464.665
 30
0.0
 70
    32
  0
VERTEX
  5
684
330
36E
100
AcDbEntity
  8
1
100
AcDbVertex
100
AcDb3dPolylineVertex
 10
216.65
 20
464.7009999999999
 30
0.0
 70
    32
  0
VERTEX
  5
685
330
36E
100
AcDbEntity
  8
1
100
AcDbVertex
100
AcDb3dPolylineVertex
 10
216.783
 20
464.734
 30
0.0
 70
    32
  0
VERTEX
  5
686
330
36E
100
AcDbEntity
  8
1
100
AcDbVertex
100
AcDb3dPolylineVertex
 10
216.917
 20
464.7639999999999
 30
0.0
 70
    32
  0
VERTEX
  5
687
330
36E
100
AcDbEntity
  8
1
100
AcDbVertex
100
AcDb3dPolylineVertex
 10
217.052
 20
464.792
 30
0.0
 70
    32
  0
VERTEX
  5
688
330
36E
100
AcDbEntity
  8
1
100
AcDbVertex
100
AcDb3dPolylineVertex
 10
217.189
 20
464.818
 30
0.0
 70
    32
  0
VERTEX
  5
689
330
36E
100
AcDbEntity
  8
1
100
AcDbVertex
100
AcDb3dPolylineVertex
 10
217.326
 20
464.8419999999999
 30
0.0
 70
    32
  0
VERTEX
  5
68A
330
36E
100
AcDbEntity
  8
1
100
AcDbVertex
100
AcDb3dPolylineVertex
 10
217.464
 20
464.863
 30
0.0
 70
    32
  0
VERTEX
  5
68B
330
36E
100
AcDbEntity
  8
1
100
AcDbVertex
100
AcDb3dPolylineVertex
 10
217.603
 20
464.881
 30
0.0
 70
    32
  0
VERTEX
  5
68C
330
36E
100
AcDbEntity
  8
1
100
AcDbVertex
100
AcDb3dPolylineVertex
 10
217.742
 20
464.897
 30
0.0
 70
    32
  0
VERTEX
  5
68D
330
36E
100
AcDbEntity
  8
1
100
AcDbVertex
100
AcDb3dPolylineVertex
 10
217.882
 20
464.91
 30
0.0
 70
    32
  0
VERTEX
  5
68E
330
36E
100
AcDbEntity
  8
1
100
AcDbVertex
100
AcDb3dPolylineVertex
 10
218.023
 20
464.921
 30
0.0
 70
    32
  0
VERTEX
  5
68F
330
36E
100
AcDbEntity
  8
1
100
AcDbVertex
100
AcDb3dPolylineVertex
 10
218.164
 20
464.93
 30
0.0
 70
    32
  0
VERTEX
  5
690
330
36E
100
AcDbEntity
  8
1
100
AcDbVertex
100
AcDb3dPolylineVertex
 10
218.305
 20
464.9359999999999
 30
0.0
 70
    32
  0
VERTEX
  5
691
330
36E
100
AcDbEntity
  8
1
100
AcDbVertex
100
AcDb3dPolylineVertex
 10
218.446
 20
464.939
 30
0.0
 70
    32
  0
VERTEX
  5
692
330
36E
100
AcDbEntity
  8
1
100
AcDbVertex
100
AcDb3dPolylineVertex
 10
218.587
 20
464.9399999999999
 30
0.0
 70
    32
  0
VERTEX
  5
693
330
36E
100
AcDbEntity
  8
1
100
AcDbVertex
100
AcDb3dPolylineVertex
 10
218.729
 20
464.939
 30
0.0
 70
    32
  0
VERTEX
  5
694
330
36E
100
AcDbEntity
  8
1
100
AcDbVertex
100
AcDb3dPolylineVertex
 10
218.87
 20
464.934
 30
0.0
 70
    32
  0
VERTEX
  5
695
330
36E
100
AcDbEntity
  8
1
100
AcDbVertex
100
AcDb3dPolylineVertex
 10
219.011
 20
464.928
 30
0.0
 70
    32
  0
VERTEX
  5
696
330
36E
100
AcDbEntity
  8
1
100
AcDbVertex
100
AcDb3dPolylineVertex
 10
219.152
 20
464.919
 30
0.0
 70
    32
  0
VERTEX
  5
697
330
36E
100
AcDbEntity
  8
1
100
AcDbVertex
100
AcDb3dPolylineVertex
 10
219.292
 20
464.907
 30
0.0
 70
    32
  0
VERTEX
  5
698
330
36E
100
AcDbEntity
  8
1
100
AcDbVertex
100
AcDb3dPolylineVertex
 10
219.432
 20
464.893
 30
0.0
 70
    32
  0
VERTEX
  5
699
330
36E
100
AcDbEntity
  8
1
100
AcDbVertex
100
AcDb3dPolylineVertex
 10
219.571
 20
464.876
 30
0.0
 70
    32
  0
VERTEX
  5
69A
330
36E
100
AcDbEntity
  8
1
100
AcDbVertex
100
AcDb3dPolylineVertex
 10
219.71
 20
464.8569999999999
 30
0.0
 70
    32
  0
VERTEX
  5
69B
330
36E
100
AcDbEntity
  8
1
100
AcDbVertex
100
AcDb3dPolylineVertex
 10
219.848
 20
464.836
 30
0.0
 70
    32
  0
VERTEX
  5
69C
330
36E
100
AcDbEntity
  8
1
100
AcDbVertex
100
AcDb3dPolylineVertex
 10
219.985
 20
464.8119999999999
 30
0.0
 70
    32
  0
VERTEX
  5
69D
330
36E
100
AcDbEntity
  8
1
100
AcDbVertex
100
AcDb3dPolylineVertex
 10
220.121
 20
464.785
 30
0.0
 70
    32
  0
VERTEX
  5
69E
330
36E
100
AcDbEntity
  8
1
100
AcDbVertex
100
AcDb3dPolylineVertex
 10
220.256
 20
464.7559999999999
 30
0.0
 70
    32
  0
VERTEX
  5
69F
330
36E
100
AcDbEntity
  8
1
100
AcDbVertex
100
AcDb3dPolylineVertex
 10
220.39
 20
464.725
 30
0.0
 70
    32
  0
VERTEX
  5
6A0
330
36E
100
AcDbEntity
  8
1
100
AcDbVertex
100
AcDb3dPolylineVertex
 10
220.523
 20
464.6919999999999
 30
0.0
 70
    32
  0
VERTEX
  5
6A1
330
36E
100
AcDbEntity
  8
1
100
AcDbVertex
100
AcDb3dPolylineVertex
 10
220.654
 20
464.656
 30
0.0
 70
    32
  0
VERTEX
  5
6A2
330
36E
100
AcDbEntity
  8
1
100
AcDbVertex
100
AcDb3dPolylineVertex
 10
220.784
 20
464.6169999999999
 30
0.0
 70
    32
  0
VERTEX
  5
6A3
330
36E
100
AcDbEntity
  8
1
100
AcDbVertex
100
AcDb3dPolylineVertex
 10
220.913
 20
464.5769999999999
 30
0.0
 70
    32
  0
VERTEX
  5
6A4
330
36E
100
AcDbEntity
  8
1
100
AcDbVertex
100
AcDb3dPolylineVertex
 10
221.04
 20
464.534
 30
0.0
 70
    32
  0
VERTEX
  5
6A5
330
36E
100
AcDbEntity
  8
1
100
AcDbVertex
100
AcDb3dPolylineVertex
 10
221.165
 20
464.489
 30
0.0
 70
    32
  0
VERTEX
  5
6A6
330
36E
100
AcDbEntity
  8
1
100
AcDbVertex
100
AcDb3dPolylineVertex
 10
221.289
 20
464.4409999999999
 30
0.0
 70
    32
  0
VERTEX
  5
6A7
330
36E
100
AcDbEntity
  8
1
100
AcDbVertex
100
AcDb3dPolylineVertex
 10
221.411
 20
464.392
 30
0.0
 70
    32
  0
VERTEX
  5
6A8
330
36E
100
AcDbEntity
  8
1
100
AcDbVertex
100
AcDb3dPolylineVertex
 10
221.531
 20
464.3399999999999
 30
0.0
 70
    32
  0
VERTEX
  5
6A9
330
36E
100
AcDbEntity
  8
1
100
AcDbVertex
100
AcDb3dPolylineVertex
 10
221.649
 20
464.2859999999999
 30
0.0
 70
    32
  0
VERTEX
  5
6AA
330
36E
100
AcDbEntity
  8
1
100
AcDbVertex
100
AcDb3dPolylineVertex
 10
221.765
 20
464.231
 30
0.0
 70
    32
  0
VERTEX
  5
6AB
330
36E
100
AcDbEntity
  8
1
100
AcDbVertex
100
AcDb3dPolylineVertex
 10
221.879
 20
464.1729999999999
 30
0.0
 70
    32
  0
VERTEX
  5
6AC
330
36E
100
AcDbEntity
  8
1
100
AcDbVertex
100
AcDb3dPolylineVertex
 10
221.991
 20
464.113
 30
0.0
 70
    32
  0
VERTEX
  5
6AD
330
36E
100
AcDbEntity
  8
1
100
AcDbVertex
100
AcDb3dPolylineVertex
 10
222.101
 20
464.0509999999999
 30
0.0
 70
    32
  0
VERTEX
  5
6AE
330
36E
100
AcDbEntity
  8
1
100
AcDbVertex
100
AcDb3dPolylineVertex
 10
222.208
 20
463.987
 30
0.0
 70
    32
  0
VERTEX
  5
6AF
330
36E
100
AcDbEntity
  8
1
100
AcDbVertex
100
AcDb3dPolylineVertex
 10
222.313
 20
463.921
 30
0.0
 70
    32
  0
VERTEX
  5
6B0
330
36E
100
AcDbEntity
  8
1
100
AcDbVertex
100
AcDb3dPolylineVertex
 10
222.415
 20
463.854
 30
0.0
 70
    32
  0
VERTEX
  5
6B1
330
36E
100
AcDbEntity
  8
1
100
AcDbVertex
100
AcDb3dPolylineVertex
 10
222.515
 20
463.7839999999999
 30
0.0
 70
    32
  0
VERTEX
  5
6B2
330
36E
100
AcDbEntity
  8
1
100
AcDbVertex
100
AcDb3dPolylineVertex
 10
222.612
 20
463.7129999999999
 30
0.0
 70
    32
  0
VERTEX
  5
6B3
330
36E
100
AcDbEntity
  8
1
100
AcDbVertex
100
AcDb3dPolylineVertex
 10
222.706
 20
463.64
 30
0.0
 70
    32
  0
VERTEX
  5
6B4
330
36E
100
AcDbEntity
  8
1
100
AcDbVertex
100
AcDb3dPolylineVertex
 10
222.798
 20
463.5659999999999
 30
0.0
 70
    32
  0
VERTEX
  5
6B5
330
36E
100
AcDbEntity
  8
1
100
AcDbVertex
100
AcDb3dPolylineVertex
 10
222.887
 20
463.49
 30
0.0
 70
    32
  0
VERTEX
  5
6B6
330
36E
100
AcDbEntity
  8
1
100
AcDbVertex
100
AcDb3dPolylineVertex
 10
222.973
 20
463.412
 30
0.0
 70
    32
  0
VERTEX
  5
6B7
330
36E
100
AcDbEntity
  8
1
100
AcDbVertex
100
AcDb3dPolylineVertex
 10
223.056
 20
463.3329999999999
 30
0.0
 70
    32
  0
VERTEX
  5
6B8
330
36E
100
AcDbEntity
  8
1
100
AcDbVertex
100
AcDb3dPolylineVertex
 10
223.137
 20
463.2519999999999
 30
0.0
 70
    32
  0
VERTEX
  5
6B9
330
36E
100
AcDbEntity
  8
1
100
AcDbVertex
100
AcDb3dPolylineVertex
 10
223.214
 20
463.17
 30
0.0
 70
    32
  0
VERTEX
  5
6BA
330
36E
100
AcDbEntity
  8
1
100
AcDbVertex
100
AcDb3dPolylineVertex
 10
223.288
 20
463.0869999999999
 30
0.0
 70
    32
  0
VERTEX
  5
6BB
330
36E
100
AcDbEntity
  8
1
100
AcDbVertex
100
AcDb3dPolylineVertex
 10
223.359
 20
463.002
 30
0.0
 70
    32
  0
VERTEX
  5
6BC
330
36E
100
AcDbEntity
  8
1
100
AcDbVertex
100
AcDb3dPolylineVertex
 10
223.427
 20
462.9159999999999
 30
0.0
 70
    32
  0
VERTEX
  5
6BD
330
36E
100
AcDbEntity
  8
1
100
AcDbVertex
100
AcDb3dPolylineVertex
 10
223.492
 20
462.8289999999999
 30
0.0
 70
    32
  0
VERTEX
  5
6BE
330
36E
100
AcDbEntity
  8
1
100
AcDbVertex
100
AcDb3dPolylineVertex
 10
223.553
 20
462.741
 30
0.0
 70
    32
  0
VERTEX
  5
6BF
330
36E
100
AcDbEntity
  8
1
100
AcDbVertex
100
AcDb3dPolylineVertex
 10
223.611
 20
462.652
 30
0.0
 70
    32
  0
VERTEX
  5
6C0
330
36E
100
AcDbEntity
  8
1
100
AcDbVertex
100
AcDb3dPolylineVertex
 10
223.666
 20
462.5609999999999
 30
0.0
 70
    32
  0
VERTEX
  5
6C1
330
36E
100
AcDbEntity
  8
1
100
AcDbVertex
100
AcDb3dPolylineVertex
 10
223.717
 20
462.47
 30
0.0
 70
    32
  0
VERTEX
  5
6C2
330
36E
100
AcDbEntity
  8
1
100
AcDbVertex
100
AcDb3dPolylineVertex
 10
223.765
 20
462.378
 30
0.0
 70
    32
  0
VERTEX
  5
6C3
330
36E
100
AcDbEntity
  8
1
100
AcDbVertex
100
AcDb3dPolylineVertex
 10
223.81
 20
462.285
 30
0.0
 70
    32
  0
VERTEX
  5
6C4
330
36E
100
AcDbEntity
  8
1
100
AcDbVertex
100
AcDb3dPolylineVertex
 10
223.851
 20
462.1909999999999
 30
0.0
 70
    32
  0
VERTEX
  5
6C5
330
36E
100
AcDbEntity
  8
1
100
AcDbVertex
100
AcDb3dPolylineVertex
 10
223.889
 20
462.0969999999999
 30
0.0
 70
    32
  0
VERTEX
  5
6C6
330
36E
100
AcDbEntity
  8
1
100
AcDbVertex
100
AcDb3dPolylineVertex
 10
223.923
 20
462.0019999999999
 30
0.0
 70
    32
  0
VERTEX
  5
6C7
330
36E
100
AcDbEntity
  8
1
100
AcDbVertex
100
AcDb3dPolylineVertex
 10
223.953
 20
461.906
 30
0.0
 70
    32
  0
VERTEX
  5
6C8
330
36E
100
AcDbEntity
  8
1
100
AcDbVertex
100
AcDb3dPolylineVertex
 10
223.98
 20
461.81
 30
0.0
 70
    32
  0
VERTEX
  5
6C9
330
36E
100
AcDbEntity
  8
1
100
AcDbVertex
100
AcDb3dPolylineVertex
 10
224.004
 20
461.714
 30
0.0
 70
    32
  0
VERTEX
  5
6CA
330
36E
100
AcDbEntity
  8
1
100
AcDbVertex
100
AcDb3dPolylineVertex
 10
224.024
 20
461.6169999999999
 30
0.0
 70
    32
  0
VERTEX
  5
6CB
330
36E
100
AcDbEntity
  8
1
100
AcDbVertex
100
AcDb3dPolylineVertex
 10
224.04
 20
461.519
 30
0.0
 70
    32
  0
VERTEX
  5
6CC
330
36E
100
AcDbEntity
  8
1
100
AcDbVertex
100
AcDb3dPolylineVertex
 10
224.053
 20
461.4219999999999
 30
0.0
 70
    32
  0
VERTEX
  5
6CD
330
36E
100
AcDbEntity
  8
1
100
AcDbVertex
100
AcDb3dPolylineVertex
 10
224.062
 20
461.324
 30
0.0
 70
    32
  0
VERTEX
  5
6CE
330
36E
100
AcDbEntity
  8
1
100
AcDbVertex
100
AcDb3dPolylineVertex
 10
224.067
 20
461.226
 30
0.0
 70
    32
  0
VERTEX
  5
6CF
330
36E
100
AcDbEntity
  8
1
100
AcDbVertex
100
AcDb3dPolylineVertex
 10
224.069
 20
461.128
 30
0.0
 70
    32
  0
VERTEX
  5
6D0
330
36E
100
AcDbEntity
  8
1
100
AcDbVertex
100
AcDb3dPolylineVertex
 10
224.067
 20
461.0299999999999
 30
0.0
 70
    32
  0
VERTEX
  5
6D1
330
36E
100
AcDbEntity
  8
1
100
AcDbVertex
100
AcDb3dPolylineVertex
 10
224.062
 20
460.9319999999999
 30
0.0
 70
    32
  0
VERTEX
  5
6D2
330
36E
100
AcDbEntity
  8
1
100
AcDbVertex
100
AcDb3dPolylineVertex
 10
224.052
 20
460.8349999999999
 30
0.0
 70
    32
  0
SEQEND
  5
6D3
330
36E
100
AcDbEntity
  8
1
  0
LINE
  5
36F
330
8C8
100
AcDbEntity
  8
1外形線
100
AcDbLine
 10
214.0688570574349
 20
447.5339395816877
 30
0.0
 11
223.0688570574351
 21
447.533939581688
 31
0.0
  0
LINE
  5
370
330
8C8
100
AcDbEntity
  8
1外形線
100
AcDbLine
 10
213.0973521250624
 20
460.7420397962776
 30
0.0
 11
214.0688570574349
 21
447.5339395816877
 31
0.0
  0
LINE
  5
371
330
8C8
100
AcDbEntity
  8
1外形線
100
AcDbLine
 10
223.0688570574351
 20
447.533939581688
 30
0.0
 11
224.0347066380771
 21
460.7054442451937
 31
0.0
  0
ARC
  5
372
330
8C8
100
AcDbEntity
  8
1外形線
100
AcDbCircle
 10
215.2125324842314
 20
472.5339395816877
 30
0.0
 40
5.0
100
AcDbArc
 50
215.2891246743133
 51
270.0
  0
LINE
  5
373
330
8C8
100
AcDbEntity
  8
1外形線
100
AcDbLine
 10
244.5688570574349
 20
467.533939581688
 30
0.0
 11
244.5688570574349
 21
444.3339395816884
 31
0.0
  0
LINE
  5
374
330
8C8
100
AcDbEntity
  8
1外形線
100
AcDbLine
 10
250.0688570574344
 20
468.2339395816879
 30
0.0
 11
245.0688570574349
 21
468.2339395816879
 31
0.0
  0
ARC
  5
375
330
8C8
100
AcDbEntity
  8
1外形線
100
AcDbCircle
 10
245.0688570574349
 20
467.7339395816879
 30
0.0
 40
0.5
100
AcDbArc
 50
90.0
 51
180.0
  0
ARC
  5
376
330
8C8
100
AcDbEntity
  8
1外形線
100
AcDbCircle
 10
250.0688570574344
 20
467.7339395816879
 30
0.0
 40
0.5
100
AcDbArc
 50
0.0
 51
90.0
  0
ARC
  5
377
330
8C8
100
AcDbEntity
  8
1外形線
100
AcDbCircle
 10
362.4688570574346
 20
73.35505228361874
 30
0.0
 40
24.9
100
AcDbArc
 50
270.008555423018
 51
0.0
  0
ARC
  5
378
330
8C8
100
AcDbEntity
  8
1外形線
100
AcDbCircle
 10
361.9688570574348
 20
72.65266288119938
 30
0.0
 40
22.0
100
AcDbArc
 50
270.0
 51
0.0
  0
LINE
  5
379
330
8C8
100
AcDbEntity
  8
1外形線
  6
Continuous
100
AcDbLine
 10
333.9688570574348
 20
29.65266288119937
 30
0.0
 11
333.9688570574348
 21
187.6526628811994
 31
0.0
  0
ARC
  5
37A
330
8C8
100
AcDbEntity
  8
1外形線
100
AcDbCircle
 10
305.9688570574348
 20
72.65266288119938
 30
0.0
 40
22.0
100
AcDbArc
 50
180.0
 51
270.0
  0
ARC
  5
37B
330
8C8
100
AcDbEntity
  8
1外形線
100
AcDbCircle
 10
305.4688570574349
 20
73.35505228361874
 30
0.0
 40
24.9
100
AcDbArc
 50
180.0
 51
269.9914445769819
  0
LINE
  5
37C
330
8C8
100
AcDbEntity
  8
1外形線
100
AcDbLine
 10
333.9688570574348
 20
48.45266288119955
 30
0.0
 11
362.7774492559777
 21
48.45696458887811
 31
0.0
  0
LINE
  5
37D
330
8C8
100
AcDbEntity
  8
1外形線
100
AcDbLine
 10
333.9688570574348
 20
48.45266288119955
 30
0.0
 11
305.1602648588917
 21
48.45696458887811
 31
0.0
  0
LINE
  5
37E
330
8C8
100
AcDbEntity
  8
1外形線
100
AcDbLine
 10
333.9688570574348
 20
122.5526628811985
 30
0.0
 11
359.4688570574348
 21
122.5526628811985
 31
0.0
  0
LINE
  5
37F
330
8C8
100
AcDbEntity
  8
1外形線
100
AcDbLine
 10
333.9688570574335
 20
119.652662881199
 30
0.0
 11
358.9888650638406
 21
119.6526628811995
 31
0.0
  0
LINE
  5
380
330
8C8
100
AcDbEntity
  8
1外形線
100
AcDbLine
 10
333.9688570574348
 20
172.7433012314436
 30
0.0
 11
359.7570842064547
 21
172.7433012314434
 31
0.0
  0
LINE
  5
381
330
8C8
100
AcDbEntity
  8
1外形線
100
AcDbLine
 10
333.9688570574348
 20
173.4433012314435
 30
0.0
 11
359.7570842059864
 21
173.4433012314434
 31
0.0
  0
LINE
  5
382
330
8C8
100
AcDbEntity
  8
1外形線
100
AcDbLine
 10
333.9688570574348
 20
173.4433012314435
 30
0.0
 11
347.2570842059864
 21
173.4433012314435
 31
0.0
  0
LINE
  5
383
330
8C8
100
AcDbEntity
  8
1外形線
100
AcDbLine
 10
333.9688570574348
 20
52.65266288119938
 30
0.0
 11
371.1340084473465
 21
52.65266288119938
 31
0.0
  0
LINE
  5
384
330
8C8
100
AcDbEntity
  8
1外形線
100
AcDbLine
 10
333.9688570574348
 20
50.65266288119904
 30
0.0
 11
361.9688570574352
 21
50.65266288119961
 31
0.0
  0
LINE
  5
385
330
8C8
100
AcDbEntity
  8
1外形線
100
AcDbLine
 10
368.7868240349752
 20
117.6526628811989
 30
0.0
 11
333.9688570574348
 21
117.6526628811998
 31
0.0
  0
LINE
  5
386
330
8C8
100
AcDbEntity
  8
1外形線
100
AcDbLine
 10
283.4101999917141
 20
106.9194353198835
 30
0.0
 11
283.4101999917143
 21
156.7892680237368
 31
0.0
  0
LINE
  5
387
330
8C8
100
AcDbEntity
  8
1外形線
100
AcDbLine
 10
289.4770460168911
 20
115.0908896487075
 30
0.0
 11
289.477046016891
 21
165.2924953439884
 31
0.0
  0
LINE
  5
388
330
8C8
100
AcDbEntity
  8
1外形線
100
AcDbLine
 10
298.4709499560927
 20
120.6997712349646
 30
0.0
 11
298.4709499560929
 21
170.9501150657335
 31
0.0
  0
ARC
  5
389
330
8C8
100
AcDbEntity
  8
1外形線
100
AcDbCircle
 10
308.9488490510284
 20
94.65266288119959
 30
0.0
 40
25.0
100
AcDbArc
 50
90.0
 51
177.7075572240429
  0
LINE
  5
38A
330
8C8
100
AcDbEntity
  8
1外形線
100
AcDbLine
 10
281.2688570574347
 20
149.5433012314442
 30
0.0
 11
281.2688570574347
 21
100.8631379032874
 31
0.0
  0
LINE
  5
38B
330
8C8
100
AcDbEntity
  8
1外形線
100
AcDbLine
 10
333.9688570574361
 20
119.652662881199
 30
0.0
 11
308.9488490510289
 21
119.6526628811995
 31
0.0
  0
LINE
  5
38C
330
8C8
100
AcDbEntity
  8
1外形線
100
AcDbLine
 10
299.1508900798943
 20
117.6526628811989
 30
0.0
 11
333.9688570574348
 21
117.6526628811998
 31
0.0
  0
LINE
  5
38D
330
8C8
100
AcDbEntity
  8
1外形線
100
AcDbLine
 10
333.9688570574348
 20
122.5526628811985
 30
0.0
 11
308.4688570574348
 21
122.5526628811985
 31
0.0
  0
LINE
  5
38E
330
8C8
100
AcDbEntity
  8
1外形線
100
AcDbLine
 10
333.9688570574348
 20
50.65266288119904
 30
0.0
 11
305.9688570574343
 21
50.65266288119961
 31
0.0
  0
LINE
  5
38F
330
8C8
100
AcDbEntity
  8
1外形線
100
AcDbLine
 10
333.9688570574348
 20
52.65266288119938
 30
0.0
 11
296.8037056675229
 21
52.65266288119938
 31
0.0
  0
LINE
  5
390
330
8C8
100
AcDbEntity
  8
1外形線
  6
Continuous
100
AcDbLine
 10
283.9688570574348
 20
72.65266288119949
 30
0.0
 11
283.9688570574348
 21
95.65266288119948
 31
0.0
  0
LINE
  5
391
330
8C8
100
AcDbEntity
  8
1外形線
  6
Continuous
100
AcDbLine
 10
285.9688570574348
 20
63.48751149128769
 30
0.0
 11
285.9688570574348
 21
87.65266288119994
 31
0.0
  0
LINE
  5
392
330
8C8
100
AcDbEntity
  8
1外形線
100
AcDbLine
 10
291.9688570574342
 20
93.65266288119949
 30
0.0
 11
291.9688570574344
 21
55.68210013272254
 31
0.0
  0
LINE
  5
393
330
8C8
100
AcDbEntity
  8
1外形線
  6
Continuous
100
AcDbLine
 10
280.5688570574348
 20
73.35505228361862
 30
0.0
 11
280.5688570574348
 21
87.6526628811997
 31
0.0
  0
LINE
  5
394
330
8C8
100
AcDbEntity
  8
1外形線
100
AcDbLine
 10
288.4688570574343
 20
93.65266288119949
 30
0.0
 11
293.8925739210933
 21
93.65266288119949
 31
0.0
  0
LINE
  5
395
330
8C8
100
AcDbEntity
  8
1外形線
100
AcDbLine
 10
283.6474810136337
 20
95.65266288119948
 30
0.0
 11
283.9688570574348
 21
95.65266288119959
 31
0.0
  0
LINE
  5
396
330
8C8
100
AcDbEntity
  8
1外形線
  6
Continuous
100
AcDbLine
 10
280.5688570574348
 20
93.65266288119949
 30
0.0
 11
280.5688570574348
 21
94.65266288119858
 31
0.0
  0
ARC
  5
397
330
8C8
100
AcDbEntity
  8
1外形線
100
AcDbCircle
 10
283.6474810136337
 20
95.15266288119949
 30
0.0
 40
0.5
100
AcDbArc
 50
90.0
 51
179.0000000000014
  0
LINE
  5
398
330
8C8
100
AcDbEntity
  8
1外形線
100
AcDbLine
 10
283.0688570574346
 20
90.65266288119948
 30
0.0
 11
283.1475571660554
 21
95.16138908441815
 31
0.0
  0
LINE
  5
399
330
8C8
100
AcDbEntity
  8
1外形線
100
AcDbLine
 10
280.5688570574346
 20
93.65266288119949
 30
0.0
 11
281.2688570574347
 21
93.65266288119949
 31
0.0
  0
LINE
  5
39A
330
8C8
100
AcDbEntity
  8
1外形線
100
AcDbLine
 10
281.2688570574347
 20
87.65266288119949
 30
0.0
 11
281.7688570574347
 21
90.65266288119948
 31
0.0
  0
LINE
  5
39B
330
8C8
100
AcDbEntity
  8
1外形線
100
AcDbLine
 10
280.5688570574348
 20
87.6526628811997
 30
0.0
 11
281.2688570574347
 21
87.65266288120042
 31
0.0
  0
LINE
  5
39C
330
8C8
100
AcDbEntity
  8
1外形線
100
AcDbLine
 10
281.7688570574347
 20
90.65266288119948
 30
0.0
 11
281.2688570574347
 21
93.65266288119949
 31
0.0
  0
LINE
  5
39D
330
8C8
100
AcDbEntity
  8
1外形線
100
AcDbLine
 10
283.0688570574346
 20
90.65266288119948
 30
0.0
 11
281.7688570574347
 21
90.65266288119936
 31
0.0
  0
LINE
  5
39E
330
8C8
100
AcDbEntity
  8
1外形線
100
AcDbLine
 10
288.4688570574343
 20
93.65266288119949
 30
0.0
 11
288.4688570574348
 21
95.65266288119948
 31
0.0
  0
LINE
  5
39F
330
8C8
100
AcDbEntity
  8
1外形線
100
AcDbLine
 10
285.9688570574348
 20
95.65266288119959
 30
0.0
 11
288.4688570574348
 21
95.65266288119948
 31
0.0
  0
LINE
  5
3A0
330
8C8
100
AcDbEntity
  8
1外形線
100
AcDbLine
 10
283.9688570574348
 20
87.65266288119994
 30
0.0
 11
285.9688570574348
 21
87.65266288119994
 31
0.0
  0
LINE
  5
3A1
330
8C8
100
AcDbEntity
  8
1外形線
100
AcDbLine
 10
284.9688570574348
 20
90.65266288119948
 30
0.0
 11
285.4688570574348
 21
90.65266288119948
 31
0.0
  0
ARC
  5
3A2
330
8C8
100
AcDbEntity
  8
1外形線
100
AcDbCircle
 10
285.4688570574348
 20
91.15266288119949
 30
0.0
 40
0.5
100
AcDbArc
 50
270.0
 51
0.0
  0
ARC
  5
3A3
330
8C8
100
AcDbEntity
  8
1外形線
100
AcDbCircle
 10
284.9688570574348
 20
91.6526628811995
 30
0.0
 40
1.0
100
AcDbArc
 50
180.0
 51
270.0
  0
LINE
  5
3A4
330
8C8
100
AcDbEntity
  8
1外形線
  6
Continuous
100
AcDbLine
 10
285.9688570574348
 20
91.15266288119949
 30
0.0
 11
285.9688570574348
 21
104.4974568340647
 31
0.0
  0
LINE
  5
3A5
330
8C8
100
AcDbEntity
  8
1外形線
100
AcDbLine
 10
296.2249702658226
 20
116.1724888251841
 30
0.0
 11
294.9907630861865
 21
94.68957122032325
 31
0.0
  0
ARC
  5
3A6
330
8C8
100
AcDbEntity
  8
1外形線
100
AcDbCircle
 10
293.8925739210933
 20
94.75266288119938
 30
0.0
 40
1.1
100
AcDbArc
 50
270.0
 51
356.7119356159093
  0
LINE
  5
3A7
330
8C8
100
AcDbEntity
  8
1外形線
100
AcDbLine
 10
333.9688570574348
 20
172.7433012314436
 30
0.0
 11
308.1806299084148
 21
172.7433012314434
 31
0.0
  0
LINE
  5
3A8
330
8C8
100
AcDbEntity
  8
1外形線
100
AcDbLine
 10
333.9688570574348
 20
173.4433012314435
 30
0.0
 11
308.1806299088831
 21
173.4433012314434
 31
0.0
  0
ARC
  5
3A9
330
8C8
100
AcDbEntity
  8
1外形線
100
AcDbCircle
 10
308.1863389175363
 20
145.5279823285098
 30
0.0
 40
27.21531950172839
100
AcDbArc
 50
90.01201904329731
 51
171.5156696832356
  0
ARC
  5
3AA
330
8C8
100
AcDbEntity
  8
1外形線
100
AcDbCircle
 10
308.1806299088832
 20
145.5433012314434
 30
0.0
 40
27.9
100
AcDbArc
 50
90.0
 51
171.7571468517123
  0
LINE
  5
3AB
330
8C8
100
AcDbEntity
  8
1外形線
100
AcDbLine
 10
280.5688570574348
 20
143.5433012314445
 30
0.0
 11
281.2688570574347
 21
143.5433012314451
 31
0.0
  0
ARC
  5
3AC
330
8C8
100
AcDbEntity
  8
1外形線
100
AcDbCircle
 10
305.4688570574349
 20
131.2456906338637
 30
0.0
 40
24.9
100
AcDbArc
 50
180.0
 51
193.6178857087483
  0
LINE
  5
3AD
330
8C8
100
AcDbEntity
  8
1外形線
  6
Continuous
100
AcDbLine
 10
280.5688570574348
 20
131.2456906338636
 30
0.0
 11
280.5688570574348
 21
143.5433012314445
 31
0.0
  0
LINE
  5
3AE
330
8C8
100
AcDbEntity
  8
1外形線
100
AcDbLine
 10
280.5688570574346
 20
149.5433012314442
 30
0.0
 11
281.2688570574347
 21
149.5433012314442
 31
0.0
  0
LINE
  5
3AF
330
8C8
100
AcDbEntity
  8
1外形線
100
AcDbLine
 10
333.9688570574348
 20
173.4433012314435
 30
0.0
 11
320.6806299088831
 21
173.4433012314435
 31
0.0
  0
LINE
  5
3B0
330
8C8
100
AcDbEntity
  8
1外形線
100
AcDbLine
 10
369.4667641587767
 20
120.6997712349646
 30
0.0
 11
369.4667641587765
 21
170.9501150657335
 31
0.0
  0
ARC
  5
3B1
330
8C8
100
AcDbEntity
  8
1外形線
100
AcDbCircle
 10
359.4688570574346
 20
94.65266288119858
 30
0.0
 40
27.9
100
AcDbArc
 50
0.0
 51
90.0
  0
ARC
  5
3B2
330
8C8
100
AcDbEntity
  8
1外形線
100
AcDbCircle
 10
358.988865063841
 20
94.65266288119959
 30
0.0
 40
25.0
100
AcDbArc
 50
2.292442775957059
 51
90.0
  0
LINE
  5
3B3
330
8C8
100
AcDbEntity
  8
1外形線
100
AcDbLine
 10
386.6688570574348
 20
149.5433012314442
 30
0.0
 11
386.6688570574348
 21
100.8631379032874
 31
0.0
  0
LINE
  5
3B4
330
8C8
100
AcDbEntity
  8
1外形線
100
AcDbLine
 10
378.4606680979784
 20
115.0908896487075
 30
0.0
 11
378.4606680979785
 21
165.2924953439884
 31
0.0
  0
LINE
  5
3B5
330
8C8
100
AcDbEntity
  8
1外形線
100
AcDbLine
 10
384.5275141231553
 20
106.9194353198835
 30
0.0
 11
384.5275141231553
 21
156.7892680237364
 31
0.0
  0
LINE
  5
3B6
330
8C8
100
AcDbEntity
  8
1外形線
100
AcDbLine
 10
379.4688570574352
 20
93.65266288119949
 30
0.0
 11
374.0451401937761
 21
93.65266288119949
 31
0.0
  0
LINE
  5
3B7
330
8C8
100
AcDbEntity
  8
1外形線
100
AcDbLine
 10
375.9688570574352
 20
93.65266288119949
 30
0.0
 11
375.9688570574352
 21
55.68210013272254
 31
0.0
  0
LINE
  5
3B8
330
8C8
100
AcDbEntity
  8
1外形線
100
AcDbLine
 10
371.7127438490468
 20
116.1724888251841
 30
0.0
 11
372.9469510286829
 21
94.68957122032325
 31
0.0
  0
ARC
  5
3B9
330
8C8
100
AcDbEntity
  8
1外形線
100
AcDbCircle
 10
374.0451401937761
 20
94.75266288119938
 30
0.0
 40
1.1
100
AcDbArc
 50
183.2880643840907
 51
270.0
  0
LINE
  5
3BA
330
8C8
100
AcDbEntity
  8
1外形線
  6
Continuous
100
AcDbLine
 10
387.3688570574345
 20
73.35505228361862
 30
0.0
 11
387.3688570574345
 21
87.6526628811997
 31
0.0
  0
LINE
  5
3BB
330
8C8
100
AcDbEntity
  8
1外形線
  6
Continuous
100
AcDbLine
 10
383.9688570574348
 20
72.65266288119949
 30
0.0
 11
383.9688570574346
 21
95.65266288119948
 31
0.0
  0
LINE
  5
3BC
330
8C8
100
AcDbEntity
  8
1外形線
  6
Continuous
100
AcDbLine
 10
381.9688570574348
 20
63.48751149128769
 30
0.0
 11
381.9688570574348
 21
87.65266288119994
 31
0.0
  0
LINE
  5
3BD
330
8C8
100
AcDbEntity
  8
1外形線
100
AcDbLine
 10
384.8688570574349
 20
90.65266288119948
 30
0.0
 11
386.1688570574348
 21
90.65266288119936
 31
0.0
  0
LINE
  5
3BE
330
8C8
100
AcDbEntity
  8
1外形線
100
AcDbLine
 10
384.290233101236
 20
95.65266288119948
 30
0.0
 11
383.9688570574348
 21
95.65266288119959
 31
0.0
  0
LINE
  5
3BF
330
8C8
100
AcDbEntity
  8
1外形線
100
AcDbLine
 10
381.9688570574348
 20
95.65266288119959
 30
0.0
 11
379.4688570574348
 21
95.65266288119948
 31
0.0
  0
LINE
  5
3C0
330
8C8
100
AcDbEntity
  8
1外形線
100
AcDbLine
 10
382.9688570574348
 20
90.65266288119948
 30
0.0
 11
382.4688570574348
 21
90.65266288119948
 31
0.0
  0
ARC
  5
3C1
330
8C8
100
AcDbEntity
  8
1外形線
100
AcDbCircle
 10
382.4688570574348
 20
91.15266288119949
 30
0.0
 40
0.5
100
AcDbArc
 50
180.0
 51
270.0
  0
LINE
  5
3C2
330
8C8
100
AcDbEntity
  8
1外形線
100
AcDbLine
 10
384.8688570574349
 20
90.65266288119948
 30
0.0
 11
384.7901569488141
 21
95.16138908441815
 31
0.0
  0
ARC
  5
3C3
330
8C8
100
AcDbEntity
  8
1外形線
100
AcDbCircle
 10
382.9688570574348
 20
91.6526628811995
 30
0.0
 40
1.0
100
AcDbArc
 50
270.0
 51
0.0
  0
LINE
  5
3C4
330
8C8
100
AcDbEntity
  8
1外形線
100
AcDbLine
 10
383.9688570574348
 20
87.65266288119994
 30
0.0
 11
381.9688570574348
 21
87.65266288119994
 31
0.0
  0
ARC
  5
3C5
330
8C8
100
AcDbEntity
  8
1外形線
100
AcDbCircle
 10
384.290233101236
 20
95.15266288119949
 30
0.0
 40
0.5
100
AcDbArc
 50
0.9999999999985195
 51
90.0
  0
LINE
  5
3C6
330
8C8
100
AcDbEntity
  8
1外形線
100
AcDbLine
 10
379.4688570574352
 20
93.65266288119949
 30
0.0
 11
379.4688570574348
 21
95.65266288119948
 31
0.0
  0
LINE
  5
3C7
330
8C8
100
AcDbEntity
  8
1外形線
  6
Continuous
100
AcDbLine
 10
381.9688570574348
 20
91.15266288119949
 30
0.0
 11
381.9688570574348
 21
104.4974568340647
 31
0.0
  0
LINE
  5
3C8
330
8C8
100
AcDbEntity
  8
1外形線
100
AcDbLine
 10
386.1688570574348
 20
90.65266288119948
 30
0.0
 11
386.6688570574348
 21
93.65266288119949
 31
0.0
  0
LINE
  5
3C9
330
8C8
100
AcDbEntity
  8
1外形線
100
AcDbLine
 10
387.3688570574349
 20
93.65266288119949
 30
0.0
 11
386.6688570574348
 21
93.65266288119949
 31
0.0
  0
LINE
  5
3CA
330
8C8
100
AcDbEntity
  8
1外形線
  6
Continuous
100
AcDbLine
 10
387.3688570574345
 20
93.65266288119949
 30
0.0
 11
387.3688570574345
 21
94.65266288119858
 31
0.0
  0
LINE
  5
3CB
330
8C8
100
AcDbEntity
  8
1外形線
100
AcDbLine
 10
387.3688570574345
 20
87.6526628811997
 30
0.0
 11
386.6688570574348
 21
87.65266288120042
 31
0.0
  0
LINE
  5
3CC
330
8C8
100
AcDbEntity
  8
1外形線
100
AcDbLine
 10
386.6688570574348
 20
87.65266288119949
 30
0.0
 11
386.1688570574348
 21
90.65266288119948
 31
0.0
  0
ARC
  5
3CD
330
8C8
100
AcDbEntity
  8
1外形線
100
AcDbCircle
 10
359.7513751973332
 20
145.5279823285098
 30
0.0
 40
27.21531950172839
100
AcDbArc
 50
8.484330316764353
 51
89.98798095670272
  0
ARC
  5
3CE
330
8C8
100
AcDbEntity
  8
1外形線
100
AcDbCircle
 10
359.7570842059862
 20
145.5433012314434
 30
0.0
 40
27.9
100
AcDbArc
 50
8.242853148287727
 51
90.0
  0
LINE
  5
3CF
330
8C8
100
AcDbEntity
  8
1外形線
100
AcDbLine
 10
387.3688570574345
 20
143.5433012314445
 30
0.0
 11
386.6688570574348
 21
143.5433012314451
 31
0.0
  0
ARC
  5
3D0
330
8C8
100
AcDbEntity
  8
1外形線
100
AcDbCircle
 10
362.4688570574346
 20
131.2456906338637
 30
0.0
 40
24.9
100
AcDbArc
 50
346.3821142912515
 51
0.0
  0
LINE
  5
3D1
330
8C8
100
AcDbEntity
  8
1外形線
  6
Continuous
100
AcDbLine
 10
387.3688570574345
 20
131.2456906338636
 30
0.0
 11
387.3688570574347
 21
143.5433012314445
 31
0.0
  0
LINE
  5
3D2
330
8C8
100
AcDbEntity
  8
1外形線
100
AcDbLine
 10
387.3688570574349
 20
149.5433012314442
 30
0.0
 11
386.6688570574348
 21
149.5433012314442
 31
0.0
  0
LINE
  5
3D3
330
8C8
100
AcDbEntity
  8
1外形線
100
AcDbLine
 10
344.4974938295442
 20
462.4433012314432
 30
0.0
 11
321.4688570574348
 21
462.4433012314439
 31
0.0
  0
LINE
  5
3D4
330
8C8
100
AcDbEntity
  8
1外形線
100
AcDbLine
 10
321.4688570574348
 20
404.4433012314433
 30
0.0
 11
346.1340084473465
 21
404.4433012314433
 31
0.0
  0
ARC
  5
3D5
330
8C8
100
AcDbEntity
  8
1外形線
100
AcDbCircle
 10
334.6995348584114
 20
439.4433012314432
 30
0.0
 40
25.0
100
AcDbArc
 50
13.88654036262932
 51
90.0
  0
ARC
  5
3D6
330
8C8
100
AcDbEntity
  8
1外形線
100
AcDbCircle
 10
334.7570842059862
 20
439.4433012314425
 30
0.0
 40
27.9
100
AcDbArc
 50
8.242853148287727
 51
90.0
  0
ARC
  5
3D7
330
8C8
100
AcDbEntity
  8
1外形線
100
AcDbCircle
 10
336.9688570574348
 20
424.4433012314432
 30
0.0
 40
22.0
100
AcDbArc
 50
270.0
 51
0.0
  0
ARC
  5
3D8
330
8C8
100
AcDbEntity
  8
1外形線
100
AcDbCircle
 10
337.4688570574346
 20
425.1456906338628
 30
0.0
 40
24.9
100
AcDbArc
 50
270.008555423018
 51
0.0
  0
LINE
  5
3D9
330
8C8
100
AcDbEntity
  8
1外形線
  6
Continuous
100
AcDbLine
 10
283.9688570574348
 20
424.4433012314434
 30
0.0
 11
283.9688570574348
 21
445.4433012314432
 31
0.0
  0
LINE
  5
3DA
330
8C8
100
AcDbEntity
  8
1外形線
  6
Continuous
100
AcDbLine
 10
285.9688570574348
 20
415.2781498415317
 30
0.0
 11
285.9688570574348
 21
437.4433012314439
 31
0.0
  0
LINE
  5
3DB
330
8C8
100
AcDbEntity
  8
1外形線
  6
Continuous
100
AcDbLine
 10
280.5688570574348
 20
425.1456906338625
 30
0.0
 11
280.5688570574348
 21
437.4433012314436
 31
0.0
  0
LINE
  5
3DC
330
8C8
100
AcDbEntity
  8
1外形線
100
AcDbLine
 10
291.9688570574343
 20
443.4433012314434
 30
0.0
 11
291.9688570574344
 21
407.4727384829665
 31
0.0
  0
LINE
  5
3DD
330
8C8
100
AcDbEntity
  8
1外形線
100
AcDbLine
 10
321.4688570574348
 20
402.4433012314431
 30
0.0
 11
305.9688570574343
 21
402.4433012314434
 31
0.0
  0
LINE
  5
3DE
330
8C8
100
AcDbEntity
  8
1外形線
100
AcDbLine
 10
321.4688570574348
 20
400.2433012314436
 30
0.0
 11
305.4651389819641
 21
400.2456909114548
 31
0.0
  0
LINE
  5
3DF
330
8C8
100
AcDbEntity
  8
1外形線
100
AcDbLine
 10
321.4688570574348
 20
404.4433012314433
 30
0.0
 11
296.8037056675229
 21
404.4433012314433
 31
0.0
  0
ARC
  5
3E0
330
8C8
100
AcDbEntity
  8
1外形線
100
AcDbCircle
 10
305.4688570574349
 20
425.1456906338628
 30
0.0
 40
24.9
100
AcDbArc
 50
180.0
 51
269.9914445769819
  0
ARC
  5
3E1
330
8C8
100
AcDbEntity
  8
1外形線
100
AcDbCircle
 10
305.9688570574348
 20
424.4433012314432
 30
0.0
 40
22.0
100
AcDbArc
 50
180.0
 51
270.0
  0
LINE
  5
3E2
330
8C8
100
AcDbEntity
  8
1外形線
100
AcDbLine
 10
321.4688570574348
 20
402.4433012314431
 30
0.0
 11
336.9688570574352
 21
402.4433012314434
 31
0.0
  0
LINE
  5
3E3
330
8C8
100
AcDbEntity
  8
1外形線
100
AcDbLine
 10
321.4688570574348
 20
400.2433012314436
 30
0.0
 11
337.4725751329052
 21
400.2456909114548
 31
0.0
  0
LINE
  5
3E4
330
8C8
100
AcDbEntity
  8
1外形線
100
AcDbLine
 10
321.468857057436
 20
464.4433012314431
 30
0.0
 11
308.2381792564585
 21
464.4433012314432
 31
0.0
  0
LINE
  5
3E5
330
8C8
100
AcDbEntity
  8
1外形線
100
AcDbLine
 10
321.4688570574348
 20
467.3433012314426
 30
0.0
 11
308.1806299088831
 21
467.3433012314426
 31
0.0
  0
LINE
  5
3E6
330
8C8
100
AcDbEntity
  8
1外形線
100
AcDbLine
 10
298.4402202853252
 20
462.4433012314432
 30
0.0
 11
321.4688570574348
 21
462.4433012314439
 31
0.0
  0
LINE
  5
3E7
330
8C8
100
AcDbEntity
  8
1外形線
100
AcDbLine
 10
283.0595427685464
 20
451.5817105542277
 30
0.0
 11
283.0595427685464
 21
500.7741326637436
 31
0.0
  0
ARC
  5
3E8
330
8C8
100
AcDbEntity
  8
1外形線
100
AcDbCircle
 10
308.1806299088832
 20
439.4433012314425
 30
0.0
 40
27.9
100
AcDbArc
 50
90.0
 51
171.7571468517123
  0
ARC
  5
3E9
330
8C8
100
AcDbEntity
  8
1外形線
100
AcDbCircle
 10
308.2381792564581
 20
439.4433012314432
 30
0.0
 40
25.0
100
AcDbArc
 50
90.0
 51
166.1134596373706
  0
LINE
  5
3EA
330
8C8
100
AcDbEntity
  8
1外形線
100
AcDbLine
 10
281.2688570574347
 20
494.3339395816883
 30
0.0
 11
281.2688570574347
 21
446.8030894072011
 31
0.0
  0
LINE
  5
3EB
330
8C8
100
AcDbEntity
  8
1外形線
100
AcDbLine
 10
288.4688570574343
 20
443.4433012314434
 30
0.0
 11
293.8925739210933
 21
443.4433012314434
 31
0.0
  0
LINE
  5
3EC
330
8C8
100
AcDbEntity
  8
1外形線
  6
Continuous
100
AcDbLine
 10
285.9688570574348
 20
440.9433012314432
 30
0.0
 11
285.9688570574348
 21
450.8045198630904
 31
0.0
  0
LINE
  5
3ED
330
8C8
100
AcDbEntity
  8
1外形線
100
AcDbLine
 10
283.6474810136337
 20
445.4433012314432
 30
0.0
 11
283.9688570574348
 21
445.4433012314432
 31
0.0
  0
LINE
  5
3EE
330
8C8
100
AcDbEntity
  8
1外形線
100
AcDbLine
 10
280.5688570574346
 20
443.4433012314434
 30
0.0
 11
281.2688570574347
 21
443.4433012314434
 31
0.0
  0
ARC
  5
3EF
330
8C8
100
AcDbEntity
  8
1外形線
100
AcDbCircle
 10
283.6474810136337
 20
444.9433012314432
 30
0.0
 40
0.5
100
AcDbArc
 50
90.0
 51
179.0000000000014
  0
LINE
  5
3F0
330
8C8
100
AcDbEntity
  8
1外形線
100
AcDbLine
 10
281.2688570574347
 20
437.4433012314432
 30
0.0
 11
281.7688570574347
 21
440.4433012314432
 31
0.0
  0
LINE
  5
3F1
330
8C8
100
AcDbEntity
  8
1外形線
100
AcDbLine
 10
280.5688570574348
 20
437.4433012314436
 30
0.0
 11
281.2688570574347
 21
437.4433012314443
 31
0.0
  0
LINE
  5
3F2
330
8C8
100
AcDbEntity
  8
1外形線
100
AcDbLine
 10
283.0688570574346
 20
440.4433012314432
 30
0.0
 11
281.7688570574347
 21
440.4433012314432
 31
0.0
  0
LINE
  5
3F3
330
8C8
100
AcDbEntity
  8
1外形線
100
AcDbLine
 10
283.0688570574346
 20
440.4433012314432
 30
0.0
 11
283.1475571660554
 21
444.9520274346619
 31
0.0
  0
LINE
  5
3F4
330
8C8
100
AcDbEntity
  8
1外形線
100
AcDbLine
 10
281.7688570574347
 20
440.4433012314432
 30
0.0
 11
281.2688570574347
 21
443.4433012314434
 31
0.0
  0
LINE
  5
3F5
330
8C8
100
AcDbEntity
  8
1外形線
100
AcDbLine
 10
288.4688570574343
 20
443.4433012314434
 30
0.0
 11
288.4688570574348
 21
445.4433012314432
 31
0.0
  0
LINE
  5
3F6
330
8C8
100
AcDbEntity
  8
1外形線
100
AcDbLine
 10
285.9688570574348
 20
445.4433012314434
 30
0.0
 11
288.4688570574348
 21
445.4433012314432
 31
0.0
  0
LINE
  5
3F7
330
8C8
100
AcDbEntity
  8
1外形線
100
AcDbLine
 10
283.9688570574348
 20
437.4433012314439
 30
0.0
 11
285.9688570574348
 21
437.4433012314439
 31
0.0
  0
LINE
  5
3F8
330
8C8
100
AcDbEntity
  8
1外形線
100
AcDbLine
 10
284.9688570574348
 20
440.4433012314432
 30
0.0
 11
285.4688570574348
 21
440.4433012314432
 31
0.0
  0
ARC
  5
3F9
330
8C8
100
AcDbEntity
  8
1外形線
100
AcDbCircle
 10
285.4688570574348
 20
440.9433012314432
 30
0.0
 40
0.5
100
AcDbArc
 50
270.0
 51
0.0
  0
ARC
  5
3FA
330
8C8
100
AcDbEntity
  8
1外形線
100
AcDbCircle
 10
284.9688570574348
 20
441.4433012314431
 30
0.0
 40
1.0
100
AcDbArc
 50
180.0
 51
270.0
  0
LINE
  5
3FB
330
8C8
100
AcDbEntity
  8
1外形線
100
AcDbLine
 10
295.9522521798652
 20
461.2161282382571
 30
0.0
 11
294.9907630861865
 21
444.4802095705671
 31
0.0
  0
ARC
  5
3FC
330
8C8
100
AcDbEntity
  8
1外形線
100
AcDbCircle
 10
293.8925739210933
 20
444.5433012314432
 30
0.0
 40
1.1
100
AcDbArc
 50
270.0
 51
356.7119356159093
  0
LINE
  5
3FD
330
8C8
100
AcDbEntity
  8
1外形線
  6
Continuous
100
AcDbLine
 10
280.5688570574348
 20
476.0363289841075
 30
0.0
 11
280.5688570574348
 21
488.3339395816885
 31
0.0
  0
ARC
  5
3FE
330
8C8
100
AcDbEntity
  8
1外形線
100
AcDbCircle
 10
305.4688570574349
 20
476.0363289841078
 30
0.0
 40
24.9
100
AcDbArc
 50
180.0
 51
193.6178857087483
  0
LINE
  5
3FF
330
8C8
100
AcDbEntity
  8
1外形線
100
AcDbLine
 10
280.5688570574346
 20
494.3339395816883
 30
0.0
 11
281.2688570574347
 21
494.3339395816883
 31
0.0
  0
LINE
  5
400
330
8C8
100
AcDbEntity
  8
1外形線
100
AcDbLine
 10
280.5688570574348
 20
488.3339395816885
 30
0.0
 11
281.2688570574347
 21
488.3339395816892
 31
0.0
  0
LINE
  5
401
330
8C8
100
AcDbEntity
  8
1外形線
100
AcDbLine
 10
321.4688570574336
 20
464.4433012314431
 30
0.0
 11
334.6995348584109
 21
464.4433012314432
 31
0.0
  0
LINE
  5
402
330
8C8
100
AcDbEntity
  8
1外形線
100
AcDbLine
 10
321.4688570574348
 20
467.3433012314426
 30
0.0
 11
334.7570842059864
 21
467.3433012314426
 31
0.0
  0
LINE
  5
403
330
8C8
100
AcDbEntity
  8
1外形線
  6
Continuous
100
AcDbLine
 10
358.9688570574348
 20
424.4433012314434
 30
0.0
 11
358.9688570574346
 21
445.4433012314432
 31
0.0
  0
LINE
  5
404
330
8C8
100
AcDbEntity
  8
1外形線
  6
Continuous
100
AcDbLine
 10
356.9688570574348
 20
415.2781498415317
 30
0.0
 11
356.9688570574348
 21
437.4433012314439
 31
0.0
  0
LINE
  5
405
330
8C8
100
AcDbEntity
  8
1外形線
100
AcDbLine
 10
350.9688570574352
 20
443.4433012314434
 30
0.0
 11
350.9688570574352
 21
407.4727384829665
 31
0.0
  0
LINE
  5
406
330
8C8
100
AcDbEntity
  8
1外形線
  6
Continuous
100
AcDbLine
 10
362.3688570574345
 20
425.1456906338625
 30
0.0
 11
362.3688570574347
 21
437.4433012314436
 31
0.0
  0
LINE
  5
407
330
8C8
100
AcDbEntity
  8
1外形線
100
AcDbLine
 10
359.8781713463231
 20
451.5817105542277
 30
0.0
 11
359.8781713463231
 21
500.7741326637436
 31
0.0
  0
LINE
  5
408
330
8C8
100
AcDbEntity
  8
1外形線
100
AcDbLine
 10
361.6688570574348
 20
494.3339395816883
 30
0.0
 11
361.6688570574348
 21
446.8030894072011
 31
0.0
  0
ARC
  5
409
330
8C8
100
AcDbEntity
  8
1外形線
100
AcDbCircle
 10
359.290233101236
 20
444.9433012314432
 30
0.0
 40
0.5
100
AcDbArc
 50
0.9999999999985195
 51
90.0
  0
LINE
  5
40A
330
8C8
100
AcDbEntity
  8
1外形線
  6
Continuous
100
AcDbLine
 10
356.9688570574348
 20
440.9433012314432
 30
0.0
 11
356.9688570574348
 21
450.8045198630904
 31
0.0
  0
LINE
  5
40B
330
8C8
100
AcDbEntity
  8
1外形線
100
AcDbLine
 10
346.9854619350044
 20
461.2161282382571
 30
0.0
 11
347.9469510286829
 21
444.4802095705671
 31
0.0
  0
LINE
  5
40C
330
8C8
100
AcDbEntity
  8
1外形線
100
AcDbLine
 10
354.4688570574352
 20
443.4433012314434
 30
0.0
 11
349.0451401937761
 21
443.4433012314434
 31
0.0
  0
ARC
  5
40D
330
8C8
100
AcDbEntity
  8
1外形線
100
AcDbCircle
 10
349.0451401937761
 20
444.5433012314432
 30
0.0
 40
1.1
100
AcDbArc
 50
183.2880643840907
 51
270.0
  0
LINE
  5
40E
330
8C8
100
AcDbEntity
  8
1外形線
100
AcDbLine
 10
354.4688570574352
 20
443.4433012314434
 30
0.0
 11
354.4688570574348
 21
445.4433012314432
 31
0.0
  0
LINE
  5
40F
330
8C8
100
AcDbEntity
  8
1外形線
100
AcDbLine
 10
359.290233101236
 20
445.4433012314432
 30
0.0
 11
358.9688570574346
 21
445.4433012314432
 31
0.0
  0
LINE
  5
410
330
8C8
100
AcDbEntity
  8
1外形線
100
AcDbLine
 10
356.9688570574348
 20
445.4433012314434
 30
0.0
 11
354.4688570574348
 21
445.4433012314432
 31
0.0
  0
LINE
  5
411
330
8C8
100
AcDbEntity
  8
1外形線
100
AcDbLine
 10
358.9688570574348
 20
437.4433012314439
 30
0.0
 11
356.9688570574348
 21
437.4433012314439
 31
0.0
  0
LINE
  5
412
330
8C8
100
AcDbEntity
  8
1外形線
100
AcDbLine
 10
357.9688570574348
 20
440.4433012314432
 30
0.0
 11
357.4688570574348
 21
440.4433012314432
 31
0.0
  0
ARC
  5
413
330
8C8
100
AcDbEntity
  8
1外形線
100
AcDbCircle
 10
357.4688570574348
 20
440.9433012314432
 30
0.0
 40
0.5
100
AcDbArc
 50
180.0
 51
270.0
  0
ARC
  5
414
330
8C8
100
AcDbEntity
  8
1外形線
100
AcDbCircle
 10
357.9688570574348
 20
441.4433012314431
 30
0.0
 40
1.0
100
AcDbArc
 50
270.0
 51
0.0
  0
LINE
  5
415
330
8C8
100
AcDbEntity
  8
1外形線
100
AcDbLine
 10
359.8688570574349
 20
440.4433012314432
 30
0.0
 11
359.7901569488141
 21
444.9520274346619
 31
0.0
  0
LINE
  5
416
330
8C8
100
AcDbEntity
  8
1外形線
100
AcDbLine
 10
362.3688570574349
 20
443.4433012314434
 30
0.0
 11
361.6688570574348
 21
443.4433012314434
 31
0.0
  0
LINE
  5
417
330
8C8
100
AcDbEntity
  8
1外形線
100
AcDbLine
 10
361.6688570574348
 20
437.4433012314432
 30
0.0
 11
361.1688570574348
 21
440.4433012314432
 31
0.0
  0
LINE
  5
418
330
8C8
100
AcDbEntity
  8
1外形線
100
AcDbLine
 10
362.3688570574345
 20
437.4433012314436
 30
0.0
 11
361.6688570574348
 21
437.4433012314443
 31
0.0
  0
LINE
  5
419
330
8C8
100
AcDbEntity
  8
1外形線
100
AcDbLine
 10
361.1688570574348
 20
440.4433012314432
 30
0.0
 11
361.6688570574348
 21
443.4433012314434
 31
0.0
  0
LINE
  5
41A
330
8C8
100
AcDbEntity
  8
1外形線
100
AcDbLine
 10
359.8688570574349
 20
440.4433012314432
 30
0.0
 11
361.1688570574348
 21
440.4433012314432
 31
0.0
  0
LINE
  5
41B
330
8C8
100
AcDbEntity
  8
1外形線
  6
Continuous
100
AcDbLine
 10
362.3688570574345
 20
476.0363289841075
 30
0.0
 11
362.3688570574347
 21
488.3339395816885
 31
0.0
  0
ARC
  5
41C
330
8C8
100
AcDbEntity
  8
1外形線
100
AcDbCircle
 10
337.4688570574346
 20
476.0363289841078
 30
0.0
 40
24.9
100
AcDbArc
 50
346.3821142912515
 51
0.0
  0
LINE
  5
41D
330
8C8
100
AcDbEntity
  8
1外形線
100
AcDbLine
 10
362.3688570574349
 20
494.3339395816883
 30
0.0
 11
361.6688570574348
 21
494.3339395816883
 31
0.0
  0
LINE
  5
41E
330
8C8
100
AcDbEntity
  8
1外形線
100
AcDbLine
 10
362.3688570574345
 20
488.3339395816885
 30
0.0
 11
361.6688570574348
 21
488.3339395816892
 31
0.0
  0
LINE
  5
41F
330
8C8
100
AcDbEntity
  8
1外形線
100
AcDbLine
 10
20.56885705743468
 20
690.0339395816875
 30
0.0
 11
437.3688570574345
 21
690.0339395816875
 31
0.0
  0
LINE
  5
420
330
8C8
100
AcDbEntity
  8
1外形線
100
AcDbLine
 10
20.56885705743468
 20
988.9339395816868
 30
0.0
 11
437.3688570574345
 21
988.9339395816868
 31
0.0
  0
LINE
  5
421
330
8C8
100
AcDbEntity
  8
1外形線
100
AcDbLine
 10
70.56885705743468
 20
831.1339395816871
 30
0.0
 11
70.56885705743468
 21
770.033939581687
 31
0.0
  0
ARC
  5
422
330
8C8
100
AcDbEntity
  8
1外形線
100
AcDbCircle
 10
118.5688570574346
 20
720.0339395816873
 30
0.0
 40
82.2
100
AcDbArc
 50
34.4431145826228
 51
90.0
  0
ARC
  5
423
330
8C8
100
AcDbEntity
  8
1外形線
100
AcDbCircle
 10
118.5688570574353
 20
718.0339395816867
 30
0.0
 40
98.39106807064085
100
AcDbArc
 50
35.28912467431339
 51
90.0
  0
ARC
  5
424
330
8C8
100
AcDbEntity
  8
1外形線
100
AcDbCircle
 10
118.5688570574353
 20
718.0339395816867
 30
0.0
 40
106.4935753641647
100
AcDbArc
 50
35.28912467431339
 51
90.0
  0
ARC
  5
425
330
8C8
100
AcDbEntity
  8
1外形線
100
AcDbCircle
 10
118.5688570574346
 20
720.0339395816873
 30
0.0
 40
88.2
100
AcDbArc
 50
34.4431145826228
 51
90.0
  0
ARC
  5
426
330
8C8
100
AcDbEntity
  8
1外形線
100
AcDbCircle
 10
118.5688570574346
 20
720.0339395816873
 30
0.0
 40
85.20000000000001
100
AcDbArc
 50
34.4431145826228
 51
90.0
  0
ARC
  5
427
330
8C8
100
AcDbEntity
  8
1外形線
100
AcDbCircle
 10
118.5688570574353
 20
718.0339395816867
 30
0.0
 40
111.7382569536347
100
AcDbArc
 50
35.28912467431339
 51
90.0
  0
ARC
  5
428
330
8C8
100
AcDbEntity
  8
1外形線
100
AcDbCircle
 10
118.5688570574353
 20
718.0339395816867
 30
0.0
 40
113.4
100
AcDbArc
 50
35.28912467431339
 51
90.0
  0
LINE
  5
429
330
8C8
100
AcDbEntity
  8
1外形線
  6
Continuous
100
AcDbLine
 10
244.5688570574349
 20
548.9339395816873
 30
0.0
 11
76.56885705743468
 21
548.9339395816873
 31
0.0
  0
LINE
  5
42A
330
8C8
100
AcDbEntity
  8
1外形線
100
AcDbLine
 10
107.0688570574344
 20
550.9486589234004
 30
0.0
 11
214.0688570574349
 21
550.9486589234007
 31
0.0
  0
LINE
  5
42B
330
8C8
100
AcDbEntity
  8
1外形線
100
AcDbLine
 10
107.0587422851554
 20
556.435486662412
 30
0.0
 11
214.0789718297142
 21
556.4354866624122
 31
0.0
  0
LINE
  5
42C
330
8C8
100
AcDbEntity
  8
1外形線
100
AcDbLine
 10
76.56885705743468
 20
564.4885263720185
 30
0.0
 11
244.5688570574349
 21
564.4885263720185
 31
0.0
  0
LINE
  5
42D
330
8C8
100
AcDbEntity
  8
1外形線
  6
Continuous
100
AcDbLine
 10
244.5688570574349
 20
629.3339395816878
 30
0.0
 11
76.56885705743468
 21
629.3339395816878
 31
0.0
  0
LINE
  5
42E
330
8C8
100
AcDbEntity
  8
1外形線
100
AcDbLine
 10
107.0688570574344
 20
627.3192202399747
 30
0.0
 11
214.0688570574349
 21
627.3192202399743
 31
0.0
  0
LINE
  5
42F
330
8C8
100
AcDbEntity
  8
1外形線
100
AcDbLine
 10
107.0587422851554
 20
621.832392500963
 30
0.0
 11
214.0789718297142
 21
621.8323925009626
 31
0.0
  0
LINE
  5
430
330
8C8
100
AcDbEntity
  8
1外形線
100
AcDbLine
 10
76.56885705743468
 20
613.7793527913563
 30
0.0
 11
244.5688570574349
 21
613.7793527913563
 31
0.0
  0
ARC
  5
431
330
8C8
100
AcDbEntity
  8
1外形線
100
AcDbCircle
 10
118.5688570574346
 20
720.0339395816866
 30
0.0
 40
63.15654354239411
100
AcDbArc
 50
34.78138384827944
 51
90.0
  0
ARC
  5
432
330
8C8
100
AcDbEntity
  8
1外形線
100
AcDbCircle
 10
118.5688570574346
 20
720.0339395816866
 30
0.0
 40
50.0
100
AcDbArc
 50
5.215908570455905
 51
90.0
  0
LINE
  5
433
330
8C8
100
AcDbEntity
  8
1外形線
  6
Continuous
100
AcDbLine
 10
71.56885705743468
 20
548.2339395816874
 30
0.0
 11
76.06885705743469
 21
548.2339395816874
 31
0.0
  0
LINE
  5
434
330
8C8
100
AcDbEntity
  8
1外形線
  6
Continuous
100
AcDbLine
 10
71.56885705743468
 20
630.0339395816876
 30
0.0
 11
76.06885705743469
 21
630.0339395816876
 31
0.0
  0
LINE
  5
435
330
8C8
100
AcDbEntity
  8
1外形線
100
AcDbLine
 10
76.06885705743469
 20
518.2339395816874
 30
0.0
 11
71.56885705743468
 21
518.2339395816874
 31
0.0
  0
LINE
  5
436
330
8C8
100
AcDbEntity
  8
1外形線
100
AcDbLine
 10
70.56885705743468
 20
589.1339395816876
 30
0.0
 11
70.56885705743468
 21
549.2339395816874
 31
0.0
  0
ARC
  5
437
330
8C8
100
AcDbEntity
  8
1外形線
100
AcDbCircle
 10
71.56885705743468
 20
517.2339395816874
 30
0.0
 40
1.0
100
AcDbArc
 50
90.0
 51
180.0
  0
ARC
  5
438
330
8C8
100
AcDbEntity
  8
1外形線
100
AcDbCircle
 10
71.56885705743445
 20
549.2339395816874
 30
0.0
 40
1.0
100
AcDbArc
 50
180.0
 51
270.0
  0
LINE
  5
439
330
8C8
100
AcDbEntity
  8
1外形線
100
AcDbLine
 10
70.56885705743468
 20
589.1339395816876
 30
0.0
 11
70.56885705743468
 21
629.0339395816876
 31
0.0
  0
ARC
  5
43A
330
8C8
100
AcDbEntity
  8
1外形線
100
AcDbCircle
 10
71.56885705743445
 20
629.0339395816876
 30
0.0
 40
1.0
100
AcDbArc
 50
90.0
 51
180.0
  0
LINE
  5
43B
330
8C8
100
AcDbEntity
  8
1外形線
100
AcDbLine
 10
76.56885705743468
 20
548.7339395816873
 30
0.0
 11
76.56885705743468
 21
589.1339395816876
 31
0.0
  0
LINE
  5
43C
330
8C8
100
AcDbEntity
  8
1外形線
100
AcDbLine
 10
107.0688570574344
 20
549.3011890060614
 30
0.0
 11
98.06885705743448
 21
549.3011890060614
 31
0.0
  0
ARC
  5
43D
330
8C8
100
AcDbEntity
  8
1外形線
100
AcDbCircle
 10
102.5688570574344
 20
556.1339395816876
 30
0.0
 40
4.5
100
AcDbArc
 50
0.0
 51
180.0
  0
LINE
  5
43E
330
8C8
100
AcDbEntity
  8
1外形線
100
AcDbLine
 10
118.5688570574353
 20
515.4837616233236
 30
0.0
 11
76.56885705743468
 21
515.4837616233236
 31
0.0
  0
POLYLINE
  5
43F
330
8C8
100
AcDbEntity
  8
1外形線
100
AcDb3dPolyline
 66
     1
 10
0.0
 20
0.0
 30
0.0
 70
     8
  0
VERTEX
  5
6D4
330
43F
100
AcDbEntity
  8
1
100
AcDbVertex
100
AcDb3dPolylineVertex
 10
97.0826
 20
510.86
 30
0.0
 70
    32
  0
VERTEX
  5
6D5
330
43F
100
AcDbEntity
  8
1
100
AcDbVertex
100
AcDb3dPolylineVertex
 10
97.0744
 20
510.958
 30
0.0
 70
    32
  0
VERTEX
  5
6D6
330
43F
100
AcDbEntity
  8
1
100
AcDbVertex
100
AcDb3dPolylineVertex
 10
97.06990000000001
 20
511.0559999999999
 30
0.0
 70
    32
  0
VERTEX
  5
6D7
330
43F
100
AcDbEntity
  8
1
100
AcDbVertex
100
AcDb3dPolylineVertex
 10
97.069
 20
511.1539999999999
 30
0.0
 70
    32
  0
VERTEX
  5
6D8
330
43F
100
AcDbEntity
  8
1
100
AcDbVertex
100
AcDb3dPolylineVertex
 10
97.07170000000001
 20
511.2519999999999
 30
0.0
 70
    32
  0
VERTEX
  5
6D9
330
43F
100
AcDbEntity
  8
1
100
AcDbVertex
100
AcDb3dPolylineVertex
 10
97.078
 20
511.35
 30
0.0
 70
    32
  0
VERTEX
  5
6DA
330
43F
100
AcDbEntity
  8
1
100
AcDbVertex
100
AcDb3dPolylineVertex
 10
97.088
 20
511.4469999999999
 30
0.0
 70
    32
  0
VERTEX
  5
6DB
330
43F
100
AcDbEntity
  8
1
100
AcDbVertex
100
AcDb3dPolylineVertex
 10
97.10160000000001
 20
511.545
 30
0.0
 70
    32
  0
VERTEX
  5
6DC
330
43F
100
AcDbEntity
  8
1
100
AcDbVertex
100
AcDb3dPolylineVertex
 10
97.1188
 20
511.6419999999999
 30
0.0
 70
    32
  0
VERTEX
  5
6DD
330
43F
100
AcDbEntity
  8
1
100
AcDbVertex
100
AcDb3dPolylineVertex
 10
97.13970000000001
 20
511.739
 30
0.0
 70
    32
  0
VERTEX
  5
6DE
330
43F
100
AcDbEntity
  8
1
100
AcDbVertex
100
AcDb3dPolylineVertex
 10
97.164
 20
511.8349999999999
 30
0.0
 70
    32
  0
VERTEX
  5
6DF
330
43F
100
AcDbEntity
  8
1
100
AcDbVertex
100
AcDb3dPolylineVertex
 10
97.192
 20
511.9309999999999
 30
0.0
 70
    32
  0
VERTEX
  5
6E0
330
43F
100
AcDbEntity
  8
1
100
AcDbVertex
100
AcDb3dPolylineVertex
 10
97.2235
 20
512.0269999999999
 30
0.0
 70
    32
  0
VERTEX
  5
6E1
330
43F
100
AcDbEntity
  8
1
100
AcDbVertex
100
AcDb3dPolylineVertex
 10
97.2586
 20
512.122
 30
0.0
 70
    32
  0
VERTEX
  5
6E2
330
43F
100
AcDbEntity
  8
1
100
AcDbVertex
100
AcDb3dPolylineVertex
 10
97.2971
 20
512.216
 30
0.0
 70
    32
  0
VERTEX
  5
6E3
330
43F
100
AcDbEntity
  8
1
100
AcDbVertex
100
AcDb3dPolylineVertex
 10
97.33920000000001
 20
512.3089999999999
 30
0.0
 70
    32
  0
VERTEX
  5
6E4
330
43F
100
AcDbEntity
  8
1
100
AcDbVertex
100
AcDb3dPolylineVertex
 10
97.38469999999999
 20
512.4019999999999
 30
0.0
 70
    32
  0
VERTEX
  5
6E5
330
43F
100
AcDbEntity
  8
1
100
AcDbVertex
100
AcDb3dPolylineVertex
 10
97.4336
 20
512.494
 30
0.0
 70
    32
  0
VERTEX
  5
6E6
330
43F
100
AcDbEntity
  8
1
100
AcDbVertex
100
AcDb3dPolylineVertex
 10
97.4859
 20
512.585
 30
0.0
 70
    32
  0
VERTEX
  5
6E7
330
43F
100
AcDbEntity
  8
1
100
AcDbVertex
100
AcDb3dPolylineVertex
 10
97.5416
 20
512.6749999999999
 30
0.0
 70
    32
  0
VERTEX
  5
6E8
330
43F
100
AcDbEntity
  8
1
100
AcDbVertex
100
AcDb3dPolylineVertex
 10
97.60049999999999
 20
512.764
 30
0.0
 70
    32
  0
VERTEX
  5
6E9
330
43F
100
AcDbEntity
  8
1
100
AcDbVertex
100
AcDb3dPolylineVertex
 10
97.66280000000001
 20
512.8519999999999
 30
0.0
 70
    32
  0
VERTEX
  5
6EA
330
43F
100
AcDbEntity
  8
1
100
AcDbVertex
100
AcDb3dPolylineVertex
 10
97.7283
 20
512.9389999999999
 30
0.0
 70
    32
  0
VERTEX
  5
6EB
330
43F
100
AcDbEntity
  8
1
100
AcDbVertex
100
AcDb3dPolylineVertex
 10
97.797
 20
513.0239999999999
 30
0.0
 70
    32
  0
VERTEX
  5
6EC
330
43F
100
AcDbEntity
  8
1
100
AcDbVertex
100
AcDb3dPolylineVertex
 10
97.86889999999999
 20
513.109
 30
0.0
 70
    32
  0
VERTEX
  5
6ED
330
43F
100
AcDbEntity
  8
1
100
AcDbVertex
100
AcDb3dPolylineVertex
 10
97.9438
 20
513.192
 30
0.0
 70
    32
  0
VERTEX
  5
6EE
330
43F
100
AcDbEntity
  8
1
100
AcDbVertex
100
AcDb3dPolylineVertex
 10
98.02190000000001
 20
513.273
 30
0.0
 70
    32
  0
VERTEX
  5
6EF
330
43F
100
AcDbEntity
  8
1
100
AcDbVertex
100
AcDb3dPolylineVertex
 10
98.10290000000001
 20
513.354
 30
0.0
 70
    32
  0
VERTEX
  5
6F0
330
43F
100
AcDbEntity
  8
1
100
AcDbVertex
100
AcDb3dPolylineVertex
 10
98.1869
 20
513.432
 30
0.0
 70
    32
  0
VERTEX
  5
6F1
330
43F
100
AcDbEntity
  8
1
100
AcDbVertex
100
AcDb3dPolylineVertex
 10
98.27370000000001
 20
513.51
 30
0.0
 70
    32
  0
VERTEX
  5
6F2
330
43F
100
AcDbEntity
  8
1
100
AcDbVertex
100
AcDb3dPolylineVertex
 10
98.36339999999999
 20
513.585
 30
0.0
 70
    32
  0
VERTEX
  5
6F3
330
43F
100
AcDbEntity
  8
1
100
AcDbVertex
100
AcDb3dPolylineVertex
 10
98.45590000000001
 20
513.6589999999999
 30
0.0
 70
    32
  0
VERTEX
  5
6F4
330
43F
100
AcDbEntity
  8
1
100
AcDbVertex
100
AcDb3dPolylineVertex
 10
98.55110000000001
 20
513.7319999999999
 30
0.0
 70
    32
  0
VERTEX
  5
6F5
330
43F
100
AcDbEntity
  8
1
100
AcDbVertex
100
AcDb3dPolylineVertex
 10
98.6489
 20
513.8029999999999
 30
0.0
 70
    32
  0
VERTEX
  5
6F6
330
43F
100
AcDbEntity
  8
1
100
AcDbVertex
100
AcDb3dPolylineVertex
 10
98.7494
 20
513.8709999999999
 30
0.0
 70
    32
  0
VERTEX
  5
6F7
330
43F
100
AcDbEntity
  8
1
100
AcDbVertex
100
AcDb3dPolylineVertex
 10
98.85229999999999
 20
513.9389999999999
 30
0.0
 70
    32
  0
VERTEX
  5
6F8
330
43F
100
AcDbEntity
  8
1
100
AcDbVertex
100
AcDb3dPolylineVertex
 10
98.95780000000002
 20
514.0039999999999
 30
0.0
 70
    32
  0
VERTEX
  5
6F9
330
43F
100
AcDbEntity
  8
1
100
AcDbVertex
100
AcDb3dPolylineVertex
 10
99.0656
 20
514.067
 30
0.0
 70
    32
  0
VERTEX
  5
6FA
330
43F
100
AcDbEntity
  8
1
100
AcDbVertex
100
AcDb3dPolylineVertex
 10
99.17570000000001
 20
514.129
 30
0.0
 70
    32
  0
VERTEX
  5
6FB
330
43F
100
AcDbEntity
  8
1
100
AcDbVertex
100
AcDb3dPolylineVertex
 10
99.288
 20
514.1879999999999
 30
0.0
 70
    32
  0
VERTEX
  5
6FC
330
43F
100
AcDbEntity
  8
1
100
AcDbVertex
100
AcDb3dPolylineVertex
 10
99.4025
 20
514.245
 30
0.0
 70
    32
  0
VERTEX
  5
6FD
330
43F
100
AcDbEntity
  8
1
100
AcDbVertex
100
AcDb3dPolylineVertex
 10
99.51920000000001
 20
514.3009999999999
 30
0.0
 70
    32
  0
VERTEX
  5
6FE
330
43F
100
AcDbEntity
  8
1
100
AcDbVertex
100
AcDb3dPolylineVertex
 10
99.63779999999999
 20
514.354
 30
0.0
 70
    32
  0
VERTEX
  5
6FF
330
43F
100
AcDbEntity
  8
1
100
AcDbVertex
100
AcDb3dPolylineVertex
 10
99.75830000000001
 20
514.405
 30
0.0
 70
    32
  0
VERTEX
  5
700
330
43F
100
AcDbEntity
  8
1
100
AcDbVertex
100
AcDb3dPolylineVertex
 10
99.8808
 20
514.4540000000001
 30
0.0
 70
    32
  0
VERTEX
  5
701
330
43F
100
AcDbEntity
  8
1
100
AcDbVertex
100
AcDb3dPolylineVertex
 10
100.005
 20
514.501
 30
0.0
 70
    32
  0
VERTEX
  5
702
330
43F
100
AcDbEntity
  8
1
100
AcDbVertex
100
AcDb3dPolylineVertex
 10
100.131
 20
514.5449999999999
 30
0.0
 70
    32
  0
VERTEX
  5
703
330
43F
100
AcDbEntity
  8
1
100
AcDbVertex
100
AcDb3dPolylineVertex
 10
100.258
 20
514.588
 30
0.0
 70
    32
  0
VERTEX
  5
704
330
43F
100
AcDbEntity
  8
1
100
AcDbVertex
100
AcDb3dPolylineVertex
 10
100.387
 20
514.628
 30
0.0
 70
    32
  0
VERTEX
  5
705
330
43F
100
AcDbEntity
  8
1
100
AcDbVertex
100
AcDb3dPolylineVertex
 10
100.518
 20
514.665
 30
0.0
 70
    32
  0
VERTEX
  5
706
330
43F
100
AcDbEntity
  8
1
100
AcDbVertex
100
AcDb3dPolylineVertex
 10
100.65
 20
514.701
 30
0.0
 70
    32
  0
VERTEX
  5
707
330
43F
100
AcDbEntity
  8
1
100
AcDbVertex
100
AcDb3dPolylineVertex
 10
100.783
 20
514.734
 30
0.0
 70
    32
  0
VERTEX
  5
708
330
43F
100
AcDbEntity
  8
1
100
AcDbVertex
100
AcDb3dPolylineVertex
 10
100.917
 20
514.7639999999999
 30
0.0
 70
    32
  0
VERTEX
  5
709
330
43F
100
AcDbEntity
  8
1
100
AcDbVertex
100
AcDb3dPolylineVertex
 10
101.052
 20
514.7919999999999
 30
0.0
 70
    32
  0
VERTEX
  5
70A
330
43F
100
AcDbEntity
  8
1
100
AcDbVertex
100
AcDb3dPolylineVertex
 10
101.189
 20
514.8179999999999
 30
0.0
 70
    32
  0
VERTEX
  5
70B
330
43F
100
AcDbEntity
  8
1
100
AcDbVertex
100
AcDb3dPolylineVertex
 10
101.326
 20
514.8419999999999
 30
0.0
 70
    32
  0
VERTEX
  5
70C
330
43F
100
AcDbEntity
  8
1
100
AcDbVertex
100
AcDb3dPolylineVertex
 10
101.464
 20
514.863
 30
0.0
 70
    32
  0
VERTEX
  5
70D
330
43F
100
AcDbEntity
  8
1
100
AcDbVertex
100
AcDb3dPolylineVertex
 10
101.603
 20
514.881
 30
0.0
 70
    32
  0
VERTEX
  5
70E
330
43F
100
AcDbEntity
  8
1
100
AcDbVertex
100
AcDb3dPolylineVertex
 10
101.742
 20
514.8969999999999
 30
0.0
 70
    32
  0
VERTEX
  5
70F
330
43F
100
AcDbEntity
  8
1
100
AcDbVertex
100
AcDb3dPolylineVertex
 10
101.882
 20
514.9099999999999
 30
0.0
 70
    32
  0
VERTEX
  5
710
330
43F
100
AcDbEntity
  8
1
100
AcDbVertex
100
AcDb3dPolylineVertex
 10
102.023
 20
514.9209999999999
 30
0.0
 70
    32
  0
VERTEX
  5
711
330
43F
100
AcDbEntity
  8
1
100
AcDbVertex
100
AcDb3dPolylineVertex
 10
102.164
 20
514.9299999999999
 30
0.0
 70
    32
  0
VERTEX
  5
712
330
43F
100
AcDbEntity
  8
1
100
AcDbVertex
100
AcDb3dPolylineVertex
 10
102.305
 20
514.936
 30
0.0
 70
    32
  0
VERTEX
  5
713
330
43F
100
AcDbEntity
  8
1
100
AcDbVertex
100
AcDb3dPolylineVertex
 10
102.446
 20
514.9389999999999
 30
0.0
 70
    32
  0
VERTEX
  5
714
330
43F
100
AcDbEntity
  8
1
100
AcDbVertex
100
AcDb3dPolylineVertex
 10
102.587
 20
514.94
 30
0.0
 70
    32
  0
VERTEX
  5
715
330
43F
100
AcDbEntity
  8
1
100
AcDbVertex
100
AcDb3dPolylineVertex
 10
102.729
 20
514.9389999999999
 30
0.0
 70
    32
  0
VERTEX
  5
716
330
43F
100
AcDbEntity
  8
1
100
AcDbVertex
100
AcDb3dPolylineVertex
 10
102.87
 20
514.9339999999999
 30
0.0
 70
    32
  0
VERTEX
  5
717
330
43F
100
AcDbEntity
  8
1
100
AcDbVertex
100
AcDb3dPolylineVertex
 10
103.011
 20
514.928
 30
0.0
 70
    32
  0
VERTEX
  5
718
330
43F
100
AcDbEntity
  8
1
100
AcDbVertex
100
AcDb3dPolylineVertex
 10
103.152
 20
514.9189999999999
 30
0.0
 70
    32
  0
VERTEX
  5
719
330
43F
100
AcDbEntity
  8
1
100
AcDbVertex
100
AcDb3dPolylineVertex
 10
103.292
 20
514.9069999999999
 30
0.0
 70
    32
  0
VERTEX
  5
71A
330
43F
100
AcDbEntity
  8
1
100
AcDbVertex
100
AcDb3dPolylineVertex
 10
103.432
 20
514.893
 30
0.0
 70
    32
  0
VERTEX
  5
71B
330
43F
100
AcDbEntity
  8
1
100
AcDbVertex
100
AcDb3dPolylineVertex
 10
103.571
 20
514.876
 30
0.0
 70
    32
  0
VERTEX
  5
71C
330
43F
100
AcDbEntity
  8
1
100
AcDbVertex
100
AcDb3dPolylineVertex
 10
103.71
 20
514.8569999999999
 30
0.0
 70
    32
  0
VERTEX
  5
71D
330
43F
100
AcDbEntity
  8
1
100
AcDbVertex
100
AcDb3dPolylineVertex
 10
103.848
 20
514.836
 30
0.0
 70
    32
  0
VERTEX
  5
71E
330
43F
100
AcDbEntity
  8
1
100
AcDbVertex
100
AcDb3dPolylineVertex
 10
103.985
 20
514.812
 30
0.0
 70
    32
  0
VERTEX
  5
71F
330
43F
100
AcDbEntity
  8
1
100
AcDbVertex
100
AcDb3dPolylineVertex
 10
104.121
 20
514.785
 30
0.0
 70
    32
  0
VERTEX
  5
720
330
43F
100
AcDbEntity
  8
1
100
AcDbVertex
100
AcDb3dPolylineVertex
 10
104.256
 20
514.7559999999999
 30
0.0
 70
    32
  0
VERTEX
  5
721
330
43F
100
AcDbEntity
  8
1
100
AcDbVertex
100
AcDb3dPolylineVertex
 10
104.39
 20
514.725
 30
0.0
 70
    32
  0
VERTEX
  5
722
330
43F
100
AcDbEntity
  8
1
100
AcDbVertex
100
AcDb3dPolylineVertex
 10
104.523
 20
514.692
 30
0.0
 70
    32
  0
VERTEX
  5
723
330
43F
100
AcDbEntity
  8
1
100
AcDbVertex
100
AcDb3dPolylineVertex
 10
104.654
 20
514.656
 30
0.0
 70
    32
  0
VERTEX
  5
724
330
43F
100
AcDbEntity
  8
1
100
AcDbVertex
100
AcDb3dPolylineVertex
 10
104.784
 20
514.6169999999999
 30
0.0
 70
    32
  0
VERTEX
  5
725
330
43F
100
AcDbEntity
  8
1
100
AcDbVertex
100
AcDb3dPolylineVertex
 10
104.913
 20
514.5769999999999
 30
0.0
 70
    32
  0
VERTEX
  5
726
330
43F
100
AcDbEntity
  8
1
100
AcDbVertex
100
AcDb3dPolylineVertex
 10
105.04
 20
514.534
 30
0.0
 70
    32
  0
VERTEX
  5
727
330
43F
100
AcDbEntity
  8
1
100
AcDbVertex
100
AcDb3dPolylineVertex
 10
105.165
 20
514.489
 30
0.0
 70
    32
  0
VERTEX
  5
728
330
43F
100
AcDbEntity
  8
1
100
AcDbVertex
100
AcDb3dPolylineVertex
 10
105.289
 20
514.441
 30
0.0
 70
    32
  0
VERTEX
  5
729
330
43F
100
AcDbEntity
  8
1
100
AcDbVertex
100
AcDb3dPolylineVertex
 10
105.411
 20
514.3919999999999
 30
0.0
 70
    32
  0
VERTEX
  5
72A
330
43F
100
AcDbEntity
  8
1
100
AcDbVertex
100
AcDb3dPolylineVertex
 10
105.531
 20
514.34
 30
0.0
 70
    32
  0
VERTEX
  5
72B
330
43F
100
AcDbEntity
  8
1
100
AcDbVertex
100
AcDb3dPolylineVertex
 10
105.649
 20
514.2859999999999
 30
0.0
 70
    32
  0
VERTEX
  5
72C
330
43F
100
AcDbEntity
  8
1
100
AcDbVertex
100
AcDb3dPolylineVertex
 10
105.765
 20
514.231
 30
0.0
 70
    32
  0
VERTEX
  5
72D
330
43F
100
AcDbEntity
  8
1
100
AcDbVertex
100
AcDb3dPolylineVertex
 10
105.879
 20
514.1729999999999
 30
0.0
 70
    32
  0
VERTEX
  5
72E
330
43F
100
AcDbEntity
  8
1
100
AcDbVertex
100
AcDb3dPolylineVertex
 10
105.991
 20
514.113
 30
0.0
 70
    32
  0
VERTEX
  5
72F
330
43F
100
AcDbEntity
  8
1
100
AcDbVertex
100
AcDb3dPolylineVertex
 10
106.101
 20
514.0509999999999
 30
0.0
 70
    32
  0
VERTEX
  5
730
330
43F
100
AcDbEntity
  8
1
100
AcDbVertex
100
AcDb3dPolylineVertex
 10
106.208
 20
513.987
 30
0.0
 70
    32
  0
VERTEX
  5
731
330
43F
100
AcDbEntity
  8
1
100
AcDbVertex
100
AcDb3dPolylineVertex
 10
106.313
 20
513.9209999999999
 30
0.0
 70
    32
  0
VERTEX
  5
732
330
43F
100
AcDbEntity
  8
1
100
AcDbVertex
100
AcDb3dPolylineVertex
 10
106.415
 20
513.854
 30
0.0
 70
    32
  0
VERTEX
  5
733
330
43F
100
AcDbEntity
  8
1
100
AcDbVertex
100
AcDb3dPolylineVertex
 10
106.515
 20
513.7839999999999
 30
0.0
 70
    32
  0
VERTEX
  5
734
330
43F
100
AcDbEntity
  8
1
100
AcDbVertex
100
AcDb3dPolylineVertex
 10
106.612
 20
513.713
 30
0.0
 70
    32
  0
VERTEX
  5
735
330
43F
100
AcDbEntity
  8
1
100
AcDbVertex
100
AcDb3dPolylineVertex
 10
106.706
 20
513.64
 30
0.0
 70
    32
  0
VERTEX
  5
736
330
43F
100
AcDbEntity
  8
1
100
AcDbVertex
100
AcDb3dPolylineVertex
 10
106.798
 20
513.566
 30
0.0
 70
    32
  0
VERTEX
  5
737
330
43F
100
AcDbEntity
  8
1
100
AcDbVertex
100
AcDb3dPolylineVertex
 10
106.887
 20
513.49
 30
0.0
 70
    32
  0
VERTEX
  5
738
330
43F
100
AcDbEntity
  8
1
100
AcDbVertex
100
AcDb3dPolylineVertex
 10
106.973
 20
513.4119999999999
 30
0.0
 70
    32
  0
VERTEX
  5
739
330
43F
100
AcDbEntity
  8
1
100
AcDbVertex
100
AcDb3dPolylineVertex
 10
107.056
 20
513.333
 30
0.0
 70
    32
  0
VERTEX
  5
73A
330
43F
100
AcDbEntity
  8
1
100
AcDbVertex
100
AcDb3dPolylineVertex
 10
107.137
 20
513.2519999999999
 30
0.0
 70
    32
  0
VERTEX
  5
73B
330
43F
100
AcDbEntity
  8
1
100
AcDbVertex
100
AcDb3dPolylineVertex
 10
107.214
 20
513.1699999999999
 30
0.0
 70
    32
  0
VERTEX
  5
73C
330
43F
100
AcDbEntity
  8
1
100
AcDbVertex
100
AcDb3dPolylineVertex
 10
107.288
 20
513.0869999999999
 30
0.0
 70
    32
  0
VERTEX
  5
73D
330
43F
100
AcDbEntity
  8
1
100
AcDbVertex
100
AcDb3dPolylineVertex
 10
107.359
 20
513.002
 30
0.0
 70
    32
  0
VERTEX
  5
73E
330
43F
100
AcDbEntity
  8
1
100
AcDbVertex
100
AcDb3dPolylineVertex
 10
107.427
 20
512.9159999999999
 30
0.0
 70
    32
  0
VERTEX
  5
73F
330
43F
100
AcDbEntity
  8
1
100
AcDbVertex
100
AcDb3dPolylineVertex
 10
107.492
 20
512.829
 30
0.0
 70
    32
  0
VERTEX
  5
740
330
43F
100
AcDbEntity
  8
1
100
AcDbVertex
100
AcDb3dPolylineVertex
 10
107.553
 20
512.741
 30
0.0
 70
    32
  0
VERTEX
  5
741
330
43F
100
AcDbEntity
  8
1
100
AcDbVertex
100
AcDb3dPolylineVertex
 10
107.611
 20
512.6519999999999
 30
0.0
 70
    32
  0
VERTEX
  5
742
330
43F
100
AcDbEntity
  8
1
100
AcDbVertex
100
AcDb3dPolylineVertex
 10
107.666
 20
512.561
 30
0.0
 70
    32
  0
VERTEX
  5
743
330
43F
100
AcDbEntity
  8
1
100
AcDbVertex
100
AcDb3dPolylineVertex
 10
107.717
 20
512.47
 30
0.0
 70
    32
  0
VERTEX
  5
744
330
43F
100
AcDbEntity
  8
1
100
AcDbVertex
100
AcDb3dPolylineVertex
 10
107.765
 20
512.378
 30
0.0
 70
    32
  0
VERTEX
  5
745
330
43F
100
AcDbEntity
  8
1
100
AcDbVertex
100
AcDb3dPolylineVertex
 10
107.81
 20
512.2849999999999
 30
0.0
 70
    32
  0
VERTEX
  5
746
330
43F
100
AcDbEntity
  8
1
100
AcDbVertex
100
AcDb3dPolylineVertex
 10
107.851
 20
512.191
 30
0.0
 70
    32
  0
VERTEX
  5
747
330
43F
100
AcDbEntity
  8
1
100
AcDbVertex
100
AcDb3dPolylineVertex
 10
107.889
 20
512.0969999999999
 30
0.0
 70
    32
  0
VERTEX
  5
748
330
43F
100
AcDbEntity
  8
1
100
AcDbVertex
100
AcDb3dPolylineVertex
 10
107.923
 20
512.0019999999999
 30
0.0
 70
    32
  0
VERTEX
  5
749
330
43F
100
AcDbEntity
  8
1
100
AcDbVertex
100
AcDb3dPolylineVertex
 10
107.953
 20
511.906
 30
0.0
 70
    32
  0
VERTEX
  5
74A
330
43F
100
AcDbEntity
  8
1
100
AcDbVertex
100
AcDb3dPolylineVertex
 10
107.98
 20
511.81
 30
0.0
 70
    32
  0
VERTEX
  5
74B
330
43F
100
AcDbEntity
  8
1
100
AcDbVertex
100
AcDb3dPolylineVertex
 10
108.004
 20
511.714
 30
0.0
 70
    32
  0
VERTEX
  5
74C
330
43F
100
AcDbEntity
  8
1
100
AcDbVertex
100
AcDb3dPolylineVertex
 10
108.024
 20
511.6169999999999
 30
0.0
 70
    32
  0
VERTEX
  5
74D
330
43F
100
AcDbEntity
  8
1
100
AcDbVertex
100
AcDb3dPolylineVertex
 10
108.04
 20
511.519
 30
0.0
 70
    32
  0
VERTEX
  5
74E
330
43F
100
AcDbEntity
  8
1
100
AcDbVertex
100
AcDb3dPolylineVertex
 10
108.053
 20
511.4219999999999
 30
0.0
 70
    32
  0
VERTEX
  5
74F
330
43F
100
AcDbEntity
  8
1
100
AcDbVertex
100
AcDb3dPolylineVertex
 10
108.062
 20
511.324
 30
0.0
 70
    32
  0
VERTEX
  5
750
330
43F
100
AcDbEntity
  8
1
100
AcDbVertex
100
AcDb3dPolylineVertex
 10
108.067
 20
511.226
 30
0.0
 70
    32
  0
VERTEX
  5
751
330
43F
100
AcDbEntity
  8
1
100
AcDbVertex
100
AcDb3dPolylineVertex
 10
108.069
 20
511.128
 30
0.0
 70
    32
  0
VERTEX
  5
752
330
43F
100
AcDbEntity
  8
1
100
AcDbVertex
100
AcDb3dPolylineVertex
 10
108.067
 20
511.0299999999999
 30
0.0
 70
    32
  0
VERTEX
  5
753
330
43F
100
AcDbEntity
  8
1
100
AcDbVertex
100
AcDb3dPolylineVertex
 10
108.062
 20
510.9319999999999
 30
0.0
 70
    32
  0
VERTEX
  5
754
330
43F
100
AcDbEntity
  8
1
100
AcDbVertex
100
AcDb3dPolylineVertex
 10
108.052
 20
510.8349999999999
 30
0.0
 70
    32
  0
SEQEND
  5
755
330
43F
100
AcDbEntity
  8
1
  0
LINE
  5
440
330
8C8
100
AcDbEntity
  8
1外形線
100
AcDbLine
 10
118.5688570574353
 20
517.533939581687
 30
0.0
 11
76.56885705743468
 21
517.5339395816871
 31
0.0
  0
LINE
  5
441
330
8C8
100
AcDbEntity
  8
1外形線
100
AcDbLine
 10
97.18164782522023
 20
509.5959971790425
 30
0.0
 11
76.56885705743461
 21
509.5959971790428
 31
0.0
  0
ARC
  5
442
330
8C8
100
AcDbEntity
  8
1外形線
100
AcDbCircle
 10
76.06885705743469
 20
517.7339395816874
 30
0.0
 40
0.5
100
AcDbArc
 50
90.0
 51
90.0
  0
LINE
  5
443
330
8C8
100
AcDbEntity
  8
1外形線
100
AcDbLine
 10
76.56885705743468
 20
517.7339395816874
 30
0.0
 11
76.56885705743468
 21
517.5339395816871
 31
0.0
  0
ARC
  5
444
330
8C8
100
AcDbEntity
  8
1外形線
100
AcDbCircle
 10
76.06885705743469
 20
517.7339395816874
 30
0.0
 40
0.5
100
AcDbArc
 50
0.0000000000065138
 51
90.0
  0
LINE
  5
445
330
8C8
100
AcDbEntity
  8
1外形線
100
AcDbLine
 10
76.56885705743468
 20
556.435486662412
 30
0.0
 11
98.07897182971352
 21
556.435486662412
 31
0.0
  0
LINE
  5
446
330
8C8
100
AcDbEntity
  8
1外形線
100
AcDbLine
 10
98.06885705743448
 20
550.9486589234004
 30
0.0
 11
76.56885705743468
 21
550.9486589234004
 31
0.0
  0
LINE
  5
447
330
8C8
100
AcDbEntity
  8
1外形線
100
AcDbLine
 10
76.56885705743468
 20
548.9339395816873
 30
0.0
 11
76.56885705743468
 21
548.7339395816873
 31
0.0
  0
ARC
  5
448
330
8C8
100
AcDbEntity
  8
1外形線
100
AcDbCircle
 10
76.06885705743446
 20
548.7339395816873
 30
0.0
 40
0.5
100
AcDbArc
 50
270.0
 51
0.0
  0
CIRCLE
  5
449
330
8C8
100
AcDbEntity
  8
1外形線
100
AcDbCircle
 10
102.5688570574344
 20
556.1339395816876
 30
0.0
 40
2.0
  0
LINE
  5
44A
330
8C8
100
AcDbEntity
  8
1外形線
100
AcDbLine
 10
98.06885705743448
 20
556.1339395816876
 30
0.0
 11
98.06885705743448
 21
549.3011890060614
 31
0.0
  0
LINE
  5
44B
330
8C8
100
AcDbEntity
  8
1外形線
100
AcDbLine
 10
118.5688570574353
 20
509.5959971790425
 30
0.0
 11
107.9533523045389
 21
509.5959971790425
 31
0.0
  0
LINE
  5
44C
330
8C8
100
AcDbEntity
  8
1外形線
100
AcDbLine
 10
107.0688570574344
 20
556.1339395816876
 30
0.0
 11
107.0688570574344
 21
549.3011890060614
 31
0.0
  0
ARC
  5
44D
330
8C8
100
AcDbEntity
  8
1外形線
100
AcDbCircle
 10
102.5688570574344
 20
622.1339395816875
 30
0.0
 40
4.5
100
AcDbArc
 50
180.0
 51
0.0
  0
LINE
  5
44E
330
8C8
100
AcDbEntity
  8
1外形線
100
AcDbLine
 10
107.0688570574344
 20
628.9666901573135
 30
0.0
 11
98.06885705743448
 21
628.9666901573135
 31
0.0
  0
LINE
  5
44F
330
8C8
100
AcDbEntity
  8
1外形線
100
AcDbLine
 10
76.56885705743468
 20
629.5339395816876
 30
0.0
 11
76.56885705743468
 21
589.1339395816876
 31
0.0
  0
LINE
  5
450
330
8C8
100
AcDbEntity
  8
1外形線
100
AcDbLine
 10
76.56885705743468
 20
621.832392500963
 30
0.0
 11
98.07897182971352
 21
621.832392500963
 31
0.0
  0
LINE
  5
451
330
8C8
100
AcDbEntity
  8
1外形線
100
AcDbLine
 10
98.06885705743448
 20
627.3192202399747
 30
0.0
 11
76.56885705743468
 21
627.3192202399747
 31
0.0
  0
LINE
  5
452
330
8C8
100
AcDbEntity
  8
1外形線
100
AcDbLine
 10
76.56885705743468
 20
629.3339395816878
 30
0.0
 11
76.56885705743468
 21
629.5339395816876
 31
0.0
  0
ARC
  5
453
330
8C8
100
AcDbEntity
  8
1外形線
100
AcDbCircle
 10
76.06885705743446
 20
629.5339395816876
 30
0.0
 40
0.5
100
AcDbArc
 50
0.0
 51
90.0
  0
LINE
  5
454
330
8C8
100
AcDbEntity
  8
1外形線
100
AcDbLine
 10
98.06885705743448
 20
622.1339395816875
 30
0.0
 11
98.06885705743448
 21
628.9666901573135
 31
0.0
  0
CIRCLE
  5
455
330
8C8
100
AcDbEntity
  8
1外形線
100
AcDbCircle
 10
102.5688570574344
 20
622.1339395816875
 30
0.0
 40
2.0
  0
LINE
  5
456
330
8C8
100
AcDbEntity
  8
1外形線
100
AcDbLine
 10
107.0688570574344
 20
622.1339395816875
 30
0.0
 11
107.0688570574344
 21
628.9666901573135
 31
0.0
  0
TEXT
  5
457
330
8C8
100
AcDbEntity
  8
1外形線
100
AcDbText
 10
70.56885718976935
 20
660.0339410193479
 30
0.0
 40
10.0
  1
SIF-77
  7
KANJI
100
AcDbText
  0
LINE
  5
458
330
8C8
100
AcDbEntity
  8
1外形線
100
AcDbLine
 10
118.5688570574353
 20
802.2339395816873
 30
0.0
 11
70.56885705743468
 21
802.2339395816873
 31
0.0
  0
LINE
  5
459
330
8C8
100
AcDbEntity
  8
1外形線
100
AcDbLine
 10
118.5688570574353
 20
805.2339395816876
 30
0.0
 11
70.56885705743455
 21
805.2339395816876
 31
0.0
  0
LINE
  5
45A
330
8C8
100
AcDbEntity
  8
1外形線
100
AcDbLine
 10
70.56885705743468
 20
770.033939581687
 30
0.0
 11
118.5688570574351
 21
770.0339395816866
 31
0.0
  0
LINE
  5
45B
330
8C8
100
AcDbEntity
  8
1外形線
100
AcDbLine
 10
118.5688570574353
 20
783.1904831240808
 30
0.0
 11
76.56885705743468
 21
783.1904831240808
 31
0.0
  0
LINE
  5
45C
330
8C8
100
AcDbEntity
  8
1外形線
100
AcDbLine
 10
76.56885705743468
 20
802.2339395816873
 30
0.0
 11
76.56885705743468
 21
770.033939581687
 31
0.0
  0
LINE
  5
45D
330
8C8
100
AcDbEntity
  8
1外形線
100
AcDbLine
 10
244.5688570574349
 20
548.7339395816873
 30
0.0
 11
244.5688570574349
 21
589.1339395816876
 31
0.0
  0
LINE
  5
45E
330
8C8
100
AcDbEntity
  8
1外形線
100
AcDbLine
 10
250.5688570574349
 20
589.1339395816876
 30
0.0
 11
250.5688570574349
 21
549.2339395816874
 31
0.0
  0
LINE
  5
45F
330
8C8
100
AcDbEntity
  8
1外形線
100
AcDbLine
 10
223.058742285156
 20
556.4354866624122
 30
0.0
 11
244.5688570574349
 21
556.435486662412
 31
0.0
  0
LINE
  5
460
330
8C8
100
AcDbEntity
  8
1外形線
100
AcDbLine
 10
223.0688570574349
 20
550.9486589234007
 30
0.0
 11
244.5688570574349
 21
550.9486589234007
 31
0.0
  0
ARC
  5
461
330
8C8
100
AcDbEntity
  8
1外形線
100
AcDbCircle
 10
218.5688570574351
 20
556.1339395816876
 30
0.0
 40
4.5
100
AcDbArc
 50
0.0
 51
180.0
  0
LINE
  5
462
330
8C8
100
AcDbEntity
  8
1外形線
100
AcDbLine
 10
214.0688570574349
 20
549.3011890060614
 30
0.0
 11
223.0688570574349
 21
549.3011890060614
 31
0.0
  0
LINE
  5
463
330
8C8
100
AcDbEntity
  8
1外形線
100
AcDbLine
 10
214.0688570574349
 20
556.1339395816876
 30
0.0
 11
214.0688570574349
 21
549.3011890060614
 31
0.0
  0
CIRCLE
  5
464
330
8C8
100
AcDbEntity
  8
1外形線
100
AcDbCircle
 10
218.5688570574351
 20
556.1339395816876
 30
0.0
 40
2.0
  0
LINE
  5
465
330
8C8
100
AcDbEntity
  8
1外形線
100
AcDbLine
 10
223.0688570574349
 20
556.1339395816876
 30
0.0
 11
223.0688570574349
 21
549.3011890060614
 31
0.0
  0
ARC
  5
466
330
8C8
100
AcDbEntity
  8
1外形線
100
AcDbCircle
 10
249.5688570574349
 20
549.2339395816874
 30
0.0
 40
1.0
100
AcDbArc
 50
270.0
 51
0.0
  0
LINE
  5
467
330
8C8
100
AcDbEntity
  8
1外形線
100
AcDbLine
 10
244.5688570574349
 20
548.9339395816873
 30
0.0
 11
244.5688570574349
 21
548.7339395816873
 31
0.0
  0
ARC
  5
468
330
8C8
100
AcDbEntity
  8
1外形線
100
AcDbCircle
 10
245.0688570574349
 20
548.7339395816873
 30
0.0
 40
0.5
100
AcDbArc
 50
180.0
 51
270.0
  0
LINE
  5
469
330
8C8
100
AcDbEntity
  8
1外形線
  6
Continuous
100
AcDbLine
 10
249.5688570574349
 20
548.2339395816874
 30
0.0
 11
245.0688570574349
 21
548.2339395816874
 31
0.0
  0
LINE
  5
46A
330
8C8
100
AcDbEntity
  8
1外形線
100
AcDbLine
 10
223.058742285156
 20
621.8323925009626
 30
0.0
 11
244.5688570574349
 21
621.832392500963
 31
0.0
  0
LINE
  5
46B
330
8C8
100
AcDbEntity
  8
1外形線
100
AcDbLine
 10
223.0688570574349
 20
627.3192202399743
 30
0.0
 11
244.5688570574349
 21
627.3192202399743
 31
0.0
  0
ARC
  5
46C
330
8C8
100
AcDbEntity
  8
1外形線
100
AcDbCircle
 10
218.5688570574351
 20
622.1339395816875
 30
0.0
 40
4.5
100
AcDbArc
 50
180.0
 51
0.0
  0
LINE
  5
46D
330
8C8
100
AcDbEntity
  8
1外形線
100
AcDbLine
 10
214.0688570574349
 20
628.9666901573135
 30
0.0
 11
223.0688570574349
 21
628.9666901573135
 31
0.0
  0
LINE
  5
46E
330
8C8
100
AcDbEntity
  8
1外形線
100
AcDbLine
 10
214.0688570574349
 20
622.1339395816875
 30
0.0
 11
214.0688570574349
 21
628.9666901573135
 31
0.0
  0
LINE
  5
46F
330
8C8
100
AcDbEntity
  8
1外形線
100
AcDbLine
 10
223.0688570574349
 20
622.1339395816875
 30
0.0
 11
223.0688570574349
 21
628.9666901573135
 31
0.0
  0
CIRCLE
  5
470
330
8C8
100
AcDbEntity
  8
1外形線
100
AcDbCircle
 10
218.5688570574351
 20
622.1339395816875
 30
0.0
 40
2.0
  0
LINE
  5
471
330
8C8
100
AcDbEntity
  8
1外形線
100
AcDbLine
 10
250.5688570574349
 20
589.1339395816876
 30
0.0
 11
250.5688570574349
 21
629.0339395816876
 31
0.0
  0
LINE
  5
472
330
8C8
100
AcDbEntity
  8
1外形線
100
AcDbLine
 10
244.5688570574349
 20
629.5339395816876
 30
0.0
 11
244.5688570574349
 21
589.1339395816876
 31
0.0
  0
ARC
  5
473
330
8C8
100
AcDbEntity
  8
1外形線
100
AcDbCircle
 10
249.5688570574349
 20
629.0339395816876
 30
0.0
 40
1.0
100
AcDbArc
 50
0.0
 51
90.0
  0
LINE
  5
474
330
8C8
100
AcDbEntity
  8
1外形線
100
AcDbLine
 10
244.5688570574349
 20
629.3339395816878
 30
0.0
 11
244.5688570574349
 21
629.5339395816876
 31
0.0
  0
ARC
  5
475
330
8C8
100
AcDbEntity
  8
1外形線
100
AcDbCircle
 10
245.0688570574349
 20
629.5339395816876
 30
0.0
 40
0.5
100
AcDbArc
 50
90.0
 51
180.0
  0
LINE
  5
476
330
8C8
100
AcDbEntity
  8
1外形線
  6
Continuous
100
AcDbLine
 10
249.5688570574349
 20
630.0339395816876
 30
0.0
 11
245.0688570574349
 21
630.0339395816876
 31
0.0
  0
ARC
  5
477
330
8C8
100
AcDbEntity
  8
1外形線
100
AcDbCircle
 10
215.2125324842314
 20
786.4339395816873
 30
0.0
 40
11.9064246358352
100
AcDbArc
 50
215.2891246743133
 51
259.7397813751623
  0
ARC
  5
478
330
8C8
100
AcDbEntity
  8
1外形線
100
AcDbCircle
 10
215.3872437409569
 20
786.4339395816873
 30
0.0
 40
29.2
100
AcDbArc
 50
214.4431145826226
 51
270.0
  0
ARC
  5
479
330
8C8
100
AcDbEntity
  8
1外形線
100
AcDbCircle
 10
215.2125324842314
 20
786.4339395816873
 30
0.0
 40
20.00893192935916
100
AcDbArc
 50
215.2891246743133
 51
265.6575922064965
  0
LINE
  5
47A
330
8C8
100
AcDbEntity
  8
1外形線
100
AcDbLine
 10
173.3411128079513
 20
720.0339395816873
 30
0.0
 11
250.5688570574347
 21
720.0339395816874
 31
0.0
  0
ARC
  5
47B
330
8C8
100
AcDbEntity
  8
1外形線
100
AcDbCircle
 10
215.3872437409569
 20
786.4339395816873
 30
0.0
 40
32.20000000000001
100
AcDbArc
 50
214.4431145826226
 51
270.0
  0
ARC
  5
47C
330
8C8
100
AcDbEntity
  8
1外形線
100
AcDbCircle
 10
214.1722042791712
 20
786.4339395816873
 30
0.0
 40
53.24345645760589
100
AcDbArc
 50
214.7813838482794
 51
270.0
  0
ARC
  5
47D
330
8C8
100
AcDbEntity
  8
1外形線
100
AcDbCircle
 10
215.3872437409569
 20
786.4339395816873
 30
0.0
 40
35.20000000000001
100
AcDbArc
 50
214.4431145826226
 51
270.0
  0
ARC
  5
47E
330
8C8
100
AcDbEntity
  8
1外形線
100
AcDbCircle
 10
173.3411128079511
 20
725.0339395816872
 30
0.0
 40
5.0
100
AcDbArc
 50
185.2159085704558
 51
270.0
  0
LINE
  5
47F
330
8C8
100
AcDbEntity
  8
1外形線
100
AcDbLine
 10
250.5688570574347
 20
720.0339395816874
 30
0.0
 11
250.5688570574347
 21
781.6339395816875
 31
0.0
  0
LINE
  5
480
330
8C8
100
AcDbEntity
  8
1外形線
100
AcDbLine
 10
244.5688570574349
 20
751.2339395816873
 30
0.0
 11
244.5688570574346
 21
720.0339395816874
 31
0.0
  0
LINE
  5
481
330
8C8
100
AcDbEntity
  8
1外形線
100
AcDbLine
 10
244.5688570574349
 20
774.5275149458525
 30
0.0
 11
224.0209394769347
 21
774.5275149458523
 31
0.0
  0
LINE
  5
482
330
8C8
100
AcDbEntity
  8
1外形線
100
AcDbLine
 10
244.5688570574349
 20
766.4250076523281
 30
0.0
 11
223.4348456916981
 21
766.4250076523281
 31
0.0
  0
LINE
  5
483
330
8C8
100
AcDbEntity
  8
1外形線
100
AcDbLine
 10
244.5688570574349
 20
781.4339395816878
 30
0.0
 11
215.2125324842316
 21
781.4339395816873
 31
0.0
  0
LINE
  5
484
330
8C8
100
AcDbEntity
  8
1外形線
100
AcDbLine
 10
244.5688570574349
 20
779.7721965353217
 30
0.0
 11
215.2125324842316
 21
779.7721965353221
 31
0.0
  0
LINE
  5
485
330
8C8
100
AcDbEntity
  8
1外形線
100
AcDbLine
 10
215.3872437409569
 20
751.2339395816873
 30
0.0
 11
250.5688570574347
 21
751.2339395816873
 31
0.0
  0
LINE
  5
486
330
8C8
100
AcDbEntity
  8
1外形線
100
AcDbLine
 10
215.3872437409569
 20
757.2339395816872
 30
0.0
 11
250.5688570574347
 21
757.2339395816872
 31
0.0
  0
LINE
  5
487
330
8C8
100
AcDbEntity
  8
1外形線
100
AcDbLine
 10
215.3872437409569
 20
754.2339395816873
 30
0.0
 11
250.5688570574347
 21
754.2339395816873
 31
0.0
  0
LINE
  5
488
330
8C8
100
AcDbEntity
  8
1外形線
100
AcDbLine
 10
244.5688570574346
 20
733.1904831240822
 30
0.0
 11
214.1722042791712
 21
733.1904831240822
 31
0.0
  0
LINE
  5
489
330
8C8
100
AcDbEntity
  8
1外形線
100
AcDbLine
 10
213.0973521250624
 20
774.6420397962773
 30
0.0
 11
214.0688570574349
 21
761.4339395816873
 31
0.0
  0
LINE
  5
48A
330
8C8
100
AcDbEntity
  8
1外形線
100
AcDbLine
 10
223.0688570574351
 20
761.4339395816878
 30
0.0
 11
224.0347066380771
 21
774.6054442451931
 31
0.0
  0
LINE
  5
48B
330
8C8
100
AcDbEntity
  8
1外形線
100
AcDbLine
 10
214.0688570574349
 20
761.4339395816873
 30
0.0
 11
223.0688570574351
 21
761.4339395816878
 31
0.0
  0
POLYLINE
  5
48C
330
8C8
100
AcDbEntity
  8
1外形線
100
AcDb3dPolyline
 66
     1
 10
0.0
 20
0.0
 30
0.0
 70
     8
  0
VERTEX
  5
756
330
48C
100
AcDbEntity
  8
1
100
AcDbVertex
100
AcDb3dPolylineVertex
 10
213.083
 20
774.76
 30
0.0
 70
    32
  0
VERTEX
  5
757
330
48C
100
AcDbEntity
  8
1
100
AcDbVertex
100
AcDb3dPolylineVertex
 10
213.074
 20
774.858
 30
0.0
 70
    32
  0
VERTEX
  5
758
330
48C
100
AcDbEntity
  8
1
100
AcDbVertex
100
AcDb3dPolylineVertex
 10
213.07
 20
774.956
 30
0.0
 70
    32
  0
VERTEX
  5
759
330
48C
100
AcDbEntity
  8
1
100
AcDbVertex
100
AcDb3dPolylineVertex
 10
213.069
 20
775.0539999999999
 30
0.0
 70
    32
  0
VERTEX
  5
75A
330
48C
100
AcDbEntity
  8
1
100
AcDbVertex
100
AcDb3dPolylineVertex
 10
213.072
 20
775.1519999999999
 30
0.0
 70
    32
  0
VERTEX
  5
75B
330
48C
100
AcDbEntity
  8
1
100
AcDbVertex
100
AcDb3dPolylineVertex
 10
213.078
 20
775.25
 30
0.0
 70
    32
  0
VERTEX
  5
75C
330
48C
100
AcDbEntity
  8
1
100
AcDbVertex
100
AcDb3dPolylineVertex
 10
213.088
 20
775.347
 30
0.0
 70
    32
  0
VERTEX
  5
75D
330
48C
100
AcDbEntity
  8
1
100
AcDbVertex
100
AcDb3dPolylineVertex
 10
213.102
 20
775.445
 30
0.0
 70
    32
  0
VERTEX
  5
75E
330
48C
100
AcDbEntity
  8
1
100
AcDbVertex
100
AcDb3dPolylineVertex
 10
213.119
 20
775.5419999999999
 30
0.0
 70
    32
  0
VERTEX
  5
75F
330
48C
100
AcDbEntity
  8
1
100
AcDbVertex
100
AcDb3dPolylineVertex
 10
213.14
 20
775.6389999999998
 30
0.0
 70
    32
  0
VERTEX
  5
760
330
48C
100
AcDbEntity
  8
1
100
AcDbVertex
100
AcDb3dPolylineVertex
 10
213.164
 20
775.735
 30
0.0
 70
    32
  0
VERTEX
  5
761
330
48C
100
AcDbEntity
  8
1
100
AcDbVertex
100
AcDb3dPolylineVertex
 10
213.192
 20
775.831
 30
0.0
 70
    32
  0
VERTEX
  5
762
330
48C
100
AcDbEntity
  8
1
100
AcDbVertex
100
AcDb3dPolylineVertex
 10
213.224
 20
775.927
 30
0.0
 70
    32
  0
VERTEX
  5
763
330
48C
100
AcDbEntity
  8
1
100
AcDbVertex
100
AcDb3dPolylineVertex
 10
213.259
 20
776.0219999999999
 30
0.0
 70
    32
  0
VERTEX
  5
764
330
48C
100
AcDbEntity
  8
1
100
AcDbVertex
100
AcDb3dPolylineVertex
 10
213.297
 20
776.1160000000001
 30
0.0
 70
    32
  0
VERTEX
  5
765
330
48C
100
AcDbEntity
  8
1
100
AcDbVertex
100
AcDb3dPolylineVertex
 10
213.339
 20
776.2089999999999
 30
0.0
 70
    32
  0
VERTEX
  5
766
330
48C
100
AcDbEntity
  8
1
100
AcDbVertex
100
AcDb3dPolylineVertex
 10
213.385
 20
776.302
 30
0.0
 70
    32
  0
VERTEX
  5
767
330
48C
100
AcDbEntity
  8
1
100
AcDbVertex
100
AcDb3dPolylineVertex
 10
213.434
 20
776.3939999999998
 30
0.0
 70
    32
  0
VERTEX
  5
768
330
48C
100
AcDbEntity
  8
1
100
AcDbVertex
100
AcDb3dPolylineVertex
 10
213.486
 20
776.485
 30
0.0
 70
    32
  0
VERTEX
  5
769
330
48C
100
AcDbEntity
  8
1
100
AcDbVertex
100
AcDb3dPolylineVertex
 10
213.542
 20
776.575
 30
0.0
 70
    32
  0
VERTEX
  5
76A
330
48C
100
AcDbEntity
  8
1
100
AcDbVertex
100
AcDb3dPolylineVertex
 10
213.601
 20
776.6639999999999
 30
0.0
 70
    32
  0
VERTEX
  5
76B
330
48C
100
AcDbEntity
  8
1
100
AcDbVertex
100
AcDb3dPolylineVertex
 10
213.663
 20
776.7519999999999
 30
0.0
 70
    32
  0
VERTEX
  5
76C
330
48C
100
AcDbEntity
  8
1
100
AcDbVertex
100
AcDb3dPolylineVertex
 10
213.728
 20
776.8389999999999
 30
0.0
 70
    32
  0
VERTEX
  5
76D
330
48C
100
AcDbEntity
  8
1
100
AcDbVertex
100
AcDb3dPolylineVertex
 10
213.797
 20
776.9239999999999
 30
0.0
 70
    32
  0
VERTEX
  5
76E
330
48C
100
AcDbEntity
  8
1
100
AcDbVertex
100
AcDb3dPolylineVertex
 10
213.869
 20
777.0089999999998
 30
0.0
 70
    32
  0
VERTEX
  5
76F
330
48C
100
AcDbEntity
  8
1
100
AcDbVertex
100
AcDb3dPolylineVertex
 10
213.944
 20
777.092
 30
0.0
 70
    32
  0
VERTEX
  5
770
330
48C
100
AcDbEntity
  8
1
100
AcDbVertex
100
AcDb3dPolylineVertex
 10
214.022
 20
777.1729999999999
 30
0.0
 70
    32
  0
VERTEX
  5
771
330
48C
100
AcDbEntity
  8
1
100
AcDbVertex
100
AcDb3dPolylineVertex
 10
214.103
 20
777.2539999999999
 30
0.0
 70
    32
  0
VERTEX
  5
772
330
48C
100
AcDbEntity
  8
1
100
AcDbVertex
100
AcDb3dPolylineVertex
 10
214.187
 20
777.332
 30
0.0
 70
    32
  0
VERTEX
  5
773
330
48C
100
AcDbEntity
  8
1
100
AcDbVertex
100
AcDb3dPolylineVertex
 10
214.274
 20
777.4099999999999
 30
0.0
 70
    32
  0
VERTEX
  5
774
330
48C
100
AcDbEntity
  8
1
100
AcDbVertex
100
AcDb3dPolylineVertex
 10
214.363
 20
777.485
 30
0.0
 70
    32
  0
VERTEX
  5
775
330
48C
100
AcDbEntity
  8
1
100
AcDbVertex
100
AcDb3dPolylineVertex
 10
214.456
 20
777.559
 30
0.0
 70
    32
  0
VERTEX
  5
776
330
48C
100
AcDbEntity
  8
1
100
AcDbVertex
100
AcDb3dPolylineVertex
 10
214.551
 20
777.6319999999999
 30
0.0
 70
    32
  0
VERTEX
  5
777
330
48C
100
AcDbEntity
  8
1
100
AcDbVertex
100
AcDb3dPolylineVertex
 10
214.649
 20
777.7029999999999
 30
0.0
 70
    32
  0
VERTEX
  5
778
330
48C
100
AcDbEntity
  8
1
100
AcDbVertex
100
AcDb3dPolylineVertex
 10
214.749
 20
777.771
 30
0.0
 70
    32
  0
VERTEX
  5
779
330
48C
100
AcDbEntity
  8
1
100
AcDbVertex
100
AcDb3dPolylineVertex
 10
214.852
 20
777.8389999999999
 30
0.0
 70
    32
  0
VERTEX
  5
77A
330
48C
100
AcDbEntity
  8
1
100
AcDbVertex
100
AcDb3dPolylineVertex
 10
214.958
 20
777.904
 30
0.0
 70
    32
  0
VERTEX
  5
77B
330
48C
100
AcDbEntity
  8
1
100
AcDbVertex
100
AcDb3dPolylineVertex
 10
215.066
 20
777.967
 30
0.0
 70
    32
  0
VERTEX
  5
77C
330
48C
100
AcDbEntity
  8
1
100
AcDbVertex
100
AcDb3dPolylineVertex
 10
215.176
 20
778.0289999999999
 30
0.0
 70
    32
  0
VERTEX
  5
77D
330
48C
100
AcDbEntity
  8
1
100
AcDbVertex
100
AcDb3dPolylineVertex
 10
215.288
 20
778.088
 30
0.0
 70
    32
  0
VERTEX
  5
77E
330
48C
100
AcDbEntity
  8
1
100
AcDbVertex
100
AcDb3dPolylineVertex
 10
215.403
 20
778.145
 30
0.0
 70
    32
  0
VERTEX
  5
77F
330
48C
100
AcDbEntity
  8
1
100
AcDbVertex
100
AcDb3dPolylineVertex
 10
215.519
 20
778.201
 30
0.0
 70
    32
  0
VERTEX
  5
780
330
48C
100
AcDbEntity
  8
1
100
AcDbVertex
100
AcDb3dPolylineVertex
 10
215.638
 20
778.2539999999999
 30
0.0
 70
    32
  0
VERTEX
  5
781
330
48C
100
AcDbEntity
  8
1
100
AcDbVertex
100
AcDb3dPolylineVertex
 10
215.758
 20
778.3049999999999
 30
0.0
 70
    32
  0
VERTEX
  5
782
330
48C
100
AcDbEntity
  8
1
100
AcDbVertex
100
AcDb3dPolylineVertex
 10
215.881
 20
778.3539999999999
 30
0.0
 70
    32
  0
VERTEX
  5
783
330
48C
100
AcDbEntity
  8
1
100
AcDbVertex
100
AcDb3dPolylineVertex
 10
216.005
 20
778.4010000000001
 30
0.0
 70
    32
  0
VERTEX
  5
784
330
48C
100
AcDbEntity
  8
1
100
AcDbVertex
100
AcDb3dPolylineVertex
 10
216.131
 20
778.445
 30
0.0
 70
    32
  0
VERTEX
  5
785
330
48C
100
AcDbEntity
  8
1
100
AcDbVertex
100
AcDb3dPolylineVertex
 10
216.258
 20
778.4880000000001
 30
0.0
 70
    32
  0
VERTEX
  5
786
330
48C
100
AcDbEntity
  8
1
100
AcDbVertex
100
AcDb3dPolylineVertex
 10
216.387
 20
778.528
 30
0.0
 70
    32
  0
VERTEX
  5
787
330
48C
100
AcDbEntity
  8
1
100
AcDbVertex
100
AcDb3dPolylineVertex
 10
216.518
 20
778.565
 30
0.0
 70
    32
  0
VERTEX
  5
788
330
48C
100
AcDbEntity
  8
1
100
AcDbVertex
100
AcDb3dPolylineVertex
 10
216.65
 20
778.601
 30
0.0
 70
    32
  0
VERTEX
  5
789
330
48C
100
AcDbEntity
  8
1
100
AcDbVertex
100
AcDb3dPolylineVertex
 10
216.783
 20
778.6339999999999
 30
0.0
 70
    32
  0
VERTEX
  5
78A
330
48C
100
AcDbEntity
  8
1
100
AcDbVertex
100
AcDb3dPolylineVertex
 10
216.917
 20
778.664
 30
0.0
 70
    32
  0
VERTEX
  5
78B
330
48C
100
AcDbEntity
  8
1
100
AcDbVertex
100
AcDb3dPolylineVertex
 10
217.052
 20
778.692
 30
0.0
 70
    32
  0
VERTEX
  5
78C
330
48C
100
AcDbEntity
  8
1
100
AcDbVertex
100
AcDb3dPolylineVertex
 10
217.189
 20
778.7180000000001
 30
0.0
 70
    32
  0
VERTEX
  5
78D
330
48C
100
AcDbEntity
  8
1
100
AcDbVertex
100
AcDb3dPolylineVertex
 10
217.326
 20
778.742
 30
0.0
 70
    32
  0
VERTEX
  5
78E
330
48C
100
AcDbEntity
  8
1
100
AcDbVertex
100
AcDb3dPolylineVertex
 10
217.464
 20
778.763
 30
0.0
 70
    32
  0
VERTEX
  5
78F
330
48C
100
AcDbEntity
  8
1
100
AcDbVertex
100
AcDb3dPolylineVertex
 10
217.603
 20
778.7810000000001
 30
0.0
 70
    32
  0
VERTEX
  5
790
330
48C
100
AcDbEntity
  8
1
100
AcDbVertex
100
AcDb3dPolylineVertex
 10
217.742
 20
778.797
 30
0.0
 70
    32
  0
VERTEX
  5
791
330
48C
100
AcDbEntity
  8
1
100
AcDbVertex
100
AcDb3dPolylineVertex
 10
217.882
 20
778.81
 30
0.0
 70
    32
  0
VERTEX
  5
792
330
48C
100
AcDbEntity
  8
1
100
AcDbVertex
100
AcDb3dPolylineVertex
 10
218.023
 20
778.821
 30
0.0
 70
    32
  0
VERTEX
  5
793
330
48C
100
AcDbEntity
  8
1
100
AcDbVertex
100
AcDb3dPolylineVertex
 10
218.164
 20
778.83
 30
0.0
 70
    32
  0
VERTEX
  5
794
330
48C
100
AcDbEntity
  8
1
100
AcDbVertex
100
AcDb3dPolylineVertex
 10
218.305
 20
778.8359999999999
 30
0.0
 70
    32
  0
VERTEX
  5
795
330
48C
100
AcDbEntity
  8
1
100
AcDbVertex
100
AcDb3dPolylineVertex
 10
218.446
 20
778.8389999999999
 30
0.0
 70
    32
  0
VERTEX
  5
796
330
48C
100
AcDbEntity
  8
1
100
AcDbVertex
100
AcDb3dPolylineVertex
 10
218.587
 20
778.84
 30
0.0
 70
    32
  0
VERTEX
  5
797
330
48C
100
AcDbEntity
  8
1
100
AcDbVertex
100
AcDb3dPolylineVertex
 10
218.729
 20
778.8389999999999
 30
0.0
 70
    32
  0
VERTEX
  5
798
330
48C
100
AcDbEntity
  8
1
100
AcDbVertex
100
AcDb3dPolylineVertex
 10
218.87
 20
778.8339999999999
 30
0.0
 70
    32
  0
VERTEX
  5
799
330
48C
100
AcDbEntity
  8
1
100
AcDbVertex
100
AcDb3dPolylineVertex
 10
219.011
 20
778.828
 30
0.0
 70
    32
  0
VERTEX
  5
79A
330
48C
100
AcDbEntity
  8
1
100
AcDbVertex
100
AcDb3dPolylineVertex
 10
219.152
 20
778.819
 30
0.0
 70
    32
  0
VERTEX
  5
79B
330
48C
100
AcDbEntity
  8
1
100
AcDbVertex
100
AcDb3dPolylineVertex
 10
219.292
 20
778.807
 30
0.0
 70
    32
  0
VERTEX
  5
79C
330
48C
100
AcDbEntity
  8
1
100
AcDbVertex
100
AcDb3dPolylineVertex
 10
219.432
 20
778.793
 30
0.0
 70
    32
  0
VERTEX
  5
79D
330
48C
100
AcDbEntity
  8
1
100
AcDbVertex
100
AcDb3dPolylineVertex
 10
219.571
 20
778.776
 30
0.0
 70
    32
  0
VERTEX
  5
79E
330
48C
100
AcDbEntity
  8
1
100
AcDbVertex
100
AcDb3dPolylineVertex
 10
219.71
 20
778.7569999999999
 30
0.0
 70
    32
  0
VERTEX
  5
79F
330
48C
100
AcDbEntity
  8
1
100
AcDbVertex
100
AcDb3dPolylineVertex
 10
219.848
 20
778.7360000000001
 30
0.0
 70
    32
  0
VERTEX
  5
7A0
330
48C
100
AcDbEntity
  8
1
100
AcDbVertex
100
AcDb3dPolylineVertex
 10
219.985
 20
778.7119999999999
 30
0.0
 70
    32
  0
VERTEX
  5
7A1
330
48C
100
AcDbEntity
  8
1
100
AcDbVertex
100
AcDb3dPolylineVertex
 10
220.121
 20
778.6849999999999
 30
0.0
 70
    32
  0
VERTEX
  5
7A2
330
48C
100
AcDbEntity
  8
1
100
AcDbVertex
100
AcDb3dPolylineVertex
 10
220.256
 20
778.656
 30
0.0
 70
    32
  0
VERTEX
  5
7A3
330
48C
100
AcDbEntity
  8
1
100
AcDbVertex
100
AcDb3dPolylineVertex
 10
220.39
 20
778.6249999999999
 30
0.0
 70
    32
  0
VERTEX
  5
7A4
330
48C
100
AcDbEntity
  8
1
100
AcDbVertex
100
AcDb3dPolylineVertex
 10
220.523
 20
778.5919999999999
 30
0.0
 70
    32
  0
VERTEX
  5
7A5
330
48C
100
AcDbEntity
  8
1
100
AcDbVertex
100
AcDb3dPolylineVertex
 10
220.654
 20
778.556
 30
0.0
 70
    32
  0
VERTEX
  5
7A6
330
48C
100
AcDbEntity
  8
1
100
AcDbVertex
100
AcDb3dPolylineVertex
 10
220.784
 20
778.5169999999999
 30
0.0
 70
    32
  0
VERTEX
  5
7A7
330
48C
100
AcDbEntity
  8
1
100
AcDbVertex
100
AcDb3dPolylineVertex
 10
220.913
 20
778.4769999999999
 30
0.0
 70
    32
  0
VERTEX
  5
7A8
330
48C
100
AcDbEntity
  8
1
100
AcDbVertex
100
AcDb3dPolylineVertex
 10
221.04
 20
778.434
 30
0.0
 70
    32
  0
VERTEX
  5
7A9
330
48C
100
AcDbEntity
  8
1
100
AcDbVertex
100
AcDb3dPolylineVertex
 10
221.165
 20
778.3889999999999
 30
0.0
 70
    32
  0
VERTEX
  5
7AA
330
48C
100
AcDbEntity
  8
1
100
AcDbVertex
100
AcDb3dPolylineVertex
 10
221.289
 20
778.3409999999999
 30
0.0
 70
    32
  0
VERTEX
  5
7AB
330
48C
100
AcDbEntity
  8
1
100
AcDbVertex
100
AcDb3dPolylineVertex
 10
221.411
 20
778.2919999999998
 30
0.0
 70
    32
  0
VERTEX
  5
7AC
330
48C
100
AcDbEntity
  8
1
100
AcDbVertex
100
AcDb3dPolylineVertex
 10
221.531
 20
778.2399999999999
 30
0.0
 70
    32
  0
VERTEX
  5
7AD
330
48C
100
AcDbEntity
  8
1
100
AcDbVertex
100
AcDb3dPolylineVertex
 10
221.649
 20
778.186
 30
0.0
 70
    32
  0
VERTEX
  5
7AE
330
48C
100
AcDbEntity
  8
1
100
AcDbVertex
100
AcDb3dPolylineVertex
 10
221.765
 20
778.1310000000001
 30
0.0
 70
    32
  0
VERTEX
  5
7AF
330
48C
100
AcDbEntity
  8
1
100
AcDbVertex
100
AcDb3dPolylineVertex
 10
221.879
 20
778.073
 30
0.0
 70
    32
  0
VERTEX
  5
7B0
330
48C
100
AcDbEntity
  8
1
100
AcDbVertex
100
AcDb3dPolylineVertex
 10
221.991
 20
778.013
 30
0.0
 70
    32
  0
VERTEX
  5
7B1
330
48C
100
AcDbEntity
  8
1
100
AcDbVertex
100
AcDb3dPolylineVertex
 10
222.101
 20
777.951
 30
0.0
 70
    32
  0
VERTEX
  5
7B2
330
48C
100
AcDbEntity
  8
1
100
AcDbVertex
100
AcDb3dPolylineVertex
 10
222.208
 20
777.8869999999999
 30
0.0
 70
    32
  0
VERTEX
  5
7B3
330
48C
100
AcDbEntity
  8
1
100
AcDbVertex
100
AcDb3dPolylineVertex
 10
222.313
 20
777.821
 30
0.0
 70
    32
  0
VERTEX
  5
7B4
330
48C
100
AcDbEntity
  8
1
100
AcDbVertex
100
AcDb3dPolylineVertex
 10
222.415
 20
777.7539999999999
 30
0.0
 70
    32
  0
VERTEX
  5
7B5
330
48C
100
AcDbEntity
  8
1
100
AcDbVertex
100
AcDb3dPolylineVertex
 10
222.515
 20
777.6839999999999
 30
0.0
 70
    32
  0
VERTEX
  5
7B6
330
48C
100
AcDbEntity
  8
1
100
AcDbVertex
100
AcDb3dPolylineVertex
 10
222.612
 20
777.6130000000001
 30
0.0
 70
    32
  0
VERTEX
  5
7B7
330
48C
100
AcDbEntity
  8
1
100
AcDbVertex
100
AcDb3dPolylineVertex
 10
222.706
 20
777.5399999999999
 30
0.0
 70
    32
  0
VERTEX
  5
7B8
330
48C
100
AcDbEntity
  8
1
100
AcDbVertex
100
AcDb3dPolylineVertex
 10
222.798
 20
777.4659999999999
 30
0.0
 70
    32
  0
VERTEX
  5
7B9
330
48C
100
AcDbEntity
  8
1
100
AcDbVertex
100
AcDb3dPolylineVertex
 10
222.887
 20
777.39
 30
0.0
 70
    32
  0
VERTEX
  5
7BA
330
48C
100
AcDbEntity
  8
1
100
AcDbVertex
100
AcDb3dPolylineVertex
 10
222.973
 20
777.312
 30
0.0
 70
    32
  0
VERTEX
  5
7BB
330
48C
100
AcDbEntity
  8
1
100
AcDbVertex
100
AcDb3dPolylineVertex
 10
223.056
 20
777.2330000000001
 30
0.0
 70
    32
  0
VERTEX
  5
7BC
330
48C
100
AcDbEntity
  8
1
100
AcDbVertex
100
AcDb3dPolylineVertex
 10
223.137
 20
777.1519999999999
 30
0.0
 70
    32
  0
VERTEX
  5
7BD
330
48C
100
AcDbEntity
  8
1
100
AcDbVertex
100
AcDb3dPolylineVertex
 10
223.214
 20
777.07
 30
0.0
 70
    32
  0
VERTEX
  5
7BE
330
48C
100
AcDbEntity
  8
1
100
AcDbVertex
100
AcDb3dPolylineVertex
 10
223.288
 20
776.987
 30
0.0
 70
    32
  0
VERTEX
  5
7BF
330
48C
100
AcDbEntity
  8
1
100
AcDbVertex
100
AcDb3dPolylineVertex
 10
223.359
 20
776.9019999999999
 30
0.0
 70
    32
  0
VERTEX
  5
7C0
330
48C
100
AcDbEntity
  8
1
100
AcDbVertex
100
AcDb3dPolylineVertex
 10
223.427
 20
776.816
 30
0.0
 70
    32
  0
VERTEX
  5
7C1
330
48C
100
AcDbEntity
  8
1
100
AcDbVertex
100
AcDb3dPolylineVertex
 10
223.492
 20
776.7289999999999
 30
0.0
 70
    32
  0
VERTEX
  5
7C2
330
48C
100
AcDbEntity
  8
1
100
AcDbVertex
100
AcDb3dPolylineVertex
 10
223.553
 20
776.6410000000001
 30
0.0
 70
    32
  0
VERTEX
  5
7C3
330
48C
100
AcDbEntity
  8
1
100
AcDbVertex
100
AcDb3dPolylineVertex
 10
223.611
 20
776.552
 30
0.0
 70
    32
  0
VERTEX
  5
7C4
330
48C
100
AcDbEntity
  8
1
100
AcDbVertex
100
AcDb3dPolylineVertex
 10
223.666
 20
776.461
 30
0.0
 70
    32
  0
VERTEX
  5
7C5
330
48C
100
AcDbEntity
  8
1
100
AcDbVertex
100
AcDb3dPolylineVertex
 10
223.717
 20
776.37
 30
0.0
 70
    32
  0
VERTEX
  5
7C6
330
48C
100
AcDbEntity
  8
1
100
AcDbVertex
100
AcDb3dPolylineVertex
 10
223.765
 20
776.278
 30
0.0
 70
    32
  0
VERTEX
  5
7C7
330
48C
100
AcDbEntity
  8
1
100
AcDbVertex
100
AcDb3dPolylineVertex
 10
223.81
 20
776.1849999999999
 30
0.0
 70
    32
  0
VERTEX
  5
7C8
330
48C
100
AcDbEntity
  8
1
100
AcDbVertex
100
AcDb3dPolylineVertex
 10
223.851
 20
776.0909999999999
 30
0.0
 70
    32
  0
VERTEX
  5
7C9
330
48C
100
AcDbEntity
  8
1
100
AcDbVertex
100
AcDb3dPolylineVertex
 10
223.889
 20
775.997
 30
0.0
 70
    32
  0
VERTEX
  5
7CA
330
48C
100
AcDbEntity
  8
1
100
AcDbVertex
100
AcDb3dPolylineVertex
 10
223.923
 20
775.9019999999999
 30
0.0
 70
    32
  0
VERTEX
  5
7CB
330
48C
100
AcDbEntity
  8
1
100
AcDbVertex
100
AcDb3dPolylineVertex
 10
223.953
 20
775.806
 30
0.0
 70
    32
  0
VERTEX
  5
7CC
330
48C
100
AcDbEntity
  8
1
100
AcDbVertex
100
AcDb3dPolylineVertex
 10
223.98
 20
775.71
 30
0.0
 70
    32
  0
VERTEX
  5
7CD
330
48C
100
AcDbEntity
  8
1
100
AcDbVertex
100
AcDb3dPolylineVertex
 10
224.004
 20
775.6139999999999
 30
0.0
 70
    32
  0
VERTEX
  5
7CE
330
48C
100
AcDbEntity
  8
1
100
AcDbVertex
100
AcDb3dPolylineVertex
 10
224.024
 20
775.5169999999999
 30
0.0
 70
    32
  0
VERTEX
  5
7CF
330
48C
100
AcDbEntity
  8
1
100
AcDbVertex
100
AcDb3dPolylineVertex
 10
224.04
 20
775.419
 30
0.0
 70
    32
  0
VERTEX
  5
7D0
330
48C
100
AcDbEntity
  8
1
100
AcDbVertex
100
AcDb3dPolylineVertex
 10
224.053
 20
775.3219999999999
 30
0.0
 70
    32
  0
VERTEX
  5
7D1
330
48C
100
AcDbEntity
  8
1
100
AcDbVertex
100
AcDb3dPolylineVertex
 10
224.062
 20
775.2239999999999
 30
0.0
 70
    32
  0
VERTEX
  5
7D2
330
48C
100
AcDbEntity
  8
1
100
AcDbVertex
100
AcDb3dPolylineVertex
 10
224.067
 20
775.1260000000001
 30
0.0
 70
    32
  0
VERTEX
  5
7D3
330
48C
100
AcDbEntity
  8
1
100
AcDbVertex
100
AcDb3dPolylineVertex
 10
224.069
 20
775.028
 30
0.0
 70
    32
  0
VERTEX
  5
7D4
330
48C
100
AcDbEntity
  8
1
100
AcDbVertex
100
AcDb3dPolylineVertex
 10
224.067
 20
774.9299999999999
 30
0.0
 70
    32
  0
VERTEX
  5
7D5
330
48C
100
AcDbEntity
  8
1
100
AcDbVertex
100
AcDb3dPolylineVertex
 10
224.062
 20
774.832
 30
0.0
 70
    32
  0
VERTEX
  5
7D6
330
48C
100
AcDbEntity
  8
1
100
AcDbVertex
100
AcDb3dPolylineVertex
 10
224.052
 20
774.7349999999999
 30
0.0
 70
    32
  0
SEQEND
  5
7D7
330
48C
100
AcDbEntity
  8
1
  0
ARC
  5
48D
330
8C8
100
AcDbEntity
  8
1外形線
100
AcDbCircle
 10
215.2125324842314
 20
786.4339395816873
 30
0.0
 40
6.661743046365302
100
AcDbArc
 50
215.2891246743133
 51
270.0
  0
ARC
  5
48E
330
8C8
100
AcDbEntity
  8
1外形線
100
AcDbCircle
 10
215.2125324842314
 20
786.4339395816873
 30
0.0
 40
5.0
100
AcDbArc
 50
215.2891246743133
 51
270.0
  0
LINE
  5
48F
330
8C8
100
AcDbEntity
  8
1外形線
100
AcDbLine
 10
244.5688570574349
 20
781.6339395816875
 30
0.0
 11
244.5688570574349
 21
757.2339395816879
 31
0.0
  0
LINE
  5
490
330
8C8
100
AcDbEntity
  8
1外形線
100
AcDbLine
 10
250.0688570574344
 20
782.1339395816875
 30
0.0
 11
245.0688570574349
 21
782.1339395816875
 31
0.0
  0
ARC
  5
491
330
8C8
100
AcDbEntity
  8
1外形線
100
AcDbCircle
 10
245.0688570574349
 20
781.6339395816875
 30
0.0
 40
0.5
100
AcDbArc
 50
90.0
 51
180.0
  0
ARC
  5
492
330
8C8
100
AcDbEntity
  8
1外形線
100
AcDbCircle
 10
250.0688570574344
 20
781.6339395816875
 30
0.0
 40
0.5
100
AcDbArc
 50
0.0
 51
90.0
  0
LINE
  5
493
330
8C8
100
AcDbEntity
  8
1外形線
100
AcDbLine
 10
107.0587422851554
 20
920.7323925009625
 30
0.0
 11
214.0789718297142
 21
920.7323925009619
 31
0.0
  0
LINE
  5
494
330
8C8
100
AcDbEntity
  8
1外形線
100
AcDbLine
 10
107.0688570574344
 20
926.2192202399742
 30
0.0
 11
214.0688570574349
 21
926.2192202399736
 31
0.0
  0
LINE
  5
495
330
8C8
100
AcDbEntity
  8
1外形線
100
AcDbLine
 10
76.56885705743468
 20
912.6793527913553
 30
0.0
 11
244.5688570574349
 21
912.6793527913553
 31
0.0
  0
LINE
  5
496
330
8C8
100
AcDbEntity
  8
1外形線
  6
Continuous
100
AcDbLine
 10
244.5688570574349
 20
928.2339395816869
 30
0.0
 11
76.56885705743468
 21
928.2339395816869
 31
0.0
  0
LINE
  5
497
330
8C8
100
AcDbEntity
  8
1外形線
100
AcDbLine
 10
76.56885705743468
 20
878.3885263720183
 30
0.0
 11
244.5688570574349
 21
878.3885263720183
 31
0.0
  0
LINE
  5
498
330
8C8
100
AcDbEntity
  8
1外形線
  6
Continuous
100
AcDbLine
 10
244.5688570574349
 20
862.8339395816865
 30
0.0
 11
76.56885705743468
 21
862.8339395816865
 31
0.0
  0
LINE
  5
499
330
8C8
100
AcDbEntity
  8
1外形線
100
AcDbLine
 10
107.0587422851554
 20
870.3354866624115
 30
0.0
 11
214.0789718297142
 21
870.335486662412
 31
0.0
  0
LINE
  5
49A
330
8C8
100
AcDbEntity
  8
1外形線
100
AcDbLine
 10
107.0688570574344
 20
864.8486589233998
 30
0.0
 11
214.0688570574349
 21
864.8486589234003
 31
0.0
  0
LINE
  5
49B
330
8C8
100
AcDbEntity
  8
1外形線
100
AcDbLine
 10
118.5688570574353
 20
808.2339395816873
 30
0.0
 11
70.56885705743468
 21
808.2339395816873
 31
0.0
  0
LINE
  5
49C
330
8C8
100
AcDbEntity
  8
1外形線
  6
Continuous
100
AcDbLine
 10
71.56885705743468
 20
928.9339395816867
 30
0.0
 11
76.06885705743469
 21
928.9339395816867
 31
0.0
  0
LINE
  5
49D
330
8C8
100
AcDbEntity
  8
1外形線
  6
Continuous
100
AcDbLine
 10
71.56885705743468
 20
862.1339395816871
 30
0.0
 11
76.06885705743469
 21
862.1339395816871
 31
0.0
  0
LINE
  5
49E
330
8C8
100
AcDbEntity
  8
1外形線
100
AcDbLine
 10
76.06885705743469
 20
832.133939581687
 30
0.0
 11
71.56885705743468
 21
832.133939581687
 31
0.0
  0
LINE
  5
49F
330
8C8
100
AcDbEntity
  8
1外形線
100
AcDbLine
 10
70.56885705743468
 20
895.5339395816871
 30
0.0
 11
70.56885705743468
 21
863.1339395816871
 31
0.0
  0
ARC
  5
4A0
330
8C8
100
AcDbEntity
  8
1外形線
100
AcDbCircle
 10
71.56885705743468
 20
831.1339395816871
 30
0.0
 40
1.0
100
AcDbArc
 50
90.0
 51
180.0
  0
ARC
  5
4A1
330
8C8
100
AcDbEntity
  8
1外形線
100
AcDbCircle
 10
71.56885705743445
 20
863.1339395816871
 30
0.0
 40
1.0
100
AcDbArc
 50
180.0
 51
270.0
  0
LINE
  5
4A2
330
8C8
100
AcDbEntity
  8
1外形線
100
AcDbLine
 10
70.56885705743468
 20
895.5339395816871
 30
0.0
 11
70.56885705743468
 21
927.9339395816867
 31
0.0
  0
ARC
  5
4A3
330
8C8
100
AcDbEntity
  8
1外形線
100
AcDbCircle
 10
71.56885705743445
 20
927.9339395816867
 30
0.0
 40
1.0
100
AcDbArc
 50
90.0
 51
180.0
  0
LINE
  5
4A4
330
8C8
100
AcDbEntity
  8
1外形線
100
AcDbLine
 10
76.56885705743468
 20
862.633939581687
 30
0.0
 11
76.56885705743468
 21
895.5339395816871
 31
0.0
  0
POLYLINE
  5
4A5
330
8C8
100
AcDbEntity
  8
1外形線
100
AcDb3dPolyline
 66
     1
 10
0.0
 20
0.0
 30
0.0
 70
     8
  0
VERTEX
  5
7D8
330
4A5
100
AcDbEntity
  8
1
100
AcDbVertex
100
AcDb3dPolylineVertex
 10
97.0826
 20
824.76
 30
0.0
 70
    32
  0
VERTEX
  5
7D9
330
4A5
100
AcDbEntity
  8
1
100
AcDbVertex
100
AcDb3dPolylineVertex
 10
97.0744
 20
824.858
 30
0.0
 70
    32
  0
VERTEX
  5
7DA
330
4A5
100
AcDbEntity
  8
1
100
AcDbVertex
100
AcDb3dPolylineVertex
 10
97.06990000000001
 20
824.956
 30
0.0
 70
    32
  0
VERTEX
  5
7DB
330
4A5
100
AcDbEntity
  8
1
100
AcDbVertex
100
AcDb3dPolylineVertex
 10
97.069
 20
825.0539999999999
 30
0.0
 70
    32
  0
VERTEX
  5
7DC
330
4A5
100
AcDbEntity
  8
1
100
AcDbVertex
100
AcDb3dPolylineVertex
 10
97.07170000000001
 20
825.1519999999999
 30
0.0
 70
    32
  0
VERTEX
  5
7DD
330
4A5
100
AcDbEntity
  8
1
100
AcDbVertex
100
AcDb3dPolylineVertex
 10
97.078
 20
825.2499999999999
 30
0.0
 70
    32
  0
VERTEX
  5
7DE
330
4A5
100
AcDbEntity
  8
1
100
AcDbVertex
100
AcDb3dPolylineVertex
 10
97.088
 20
825.347
 30
0.0
 70
    32
  0
VERTEX
  5
7DF
330
4A5
100
AcDbEntity
  8
1
100
AcDbVertex
100
AcDb3dPolylineVertex
 10
97.10160000000001
 20
825.445
 30
0.0
 70
    32
  0
VERTEX
  5
7E0
330
4A5
100
AcDbEntity
  8
1
100
AcDbVertex
100
AcDb3dPolylineVertex
 10
97.1188
 20
825.5419999999999
 30
0.0
 70
    32
  0
VERTEX
  5
7E1
330
4A5
100
AcDbEntity
  8
1
100
AcDbVertex
100
AcDb3dPolylineVertex
 10
97.13970000000001
 20
825.6389999999999
 30
0.0
 70
    32
  0
VERTEX
  5
7E2
330
4A5
100
AcDbEntity
  8
1
100
AcDbVertex
100
AcDb3dPolylineVertex
 10
97.164
 20
825.735
 30
0.0
 70
    32
  0
VERTEX
  5
7E3
330
4A5
100
AcDbEntity
  8
1
100
AcDbVertex
100
AcDb3dPolylineVertex
 10
97.192
 20
825.8309999999999
 30
0.0
 70
    32
  0
VERTEX
  5
7E4
330
4A5
100
AcDbEntity
  8
1
100
AcDbVertex
100
AcDb3dPolylineVertex
 10
97.2235
 20
825.927
 30
0.0
 70
    32
  0
VERTEX
  5
7E5
330
4A5
100
AcDbEntity
  8
1
100
AcDbVertex
100
AcDb3dPolylineVertex
 10
97.2586
 20
826.022
 30
0.0
 70
    32
  0
VERTEX
  5
7E6
330
4A5
100
AcDbEntity
  8
1
100
AcDbVertex
100
AcDb3dPolylineVertex
 10
97.2971
 20
826.116
 30
0.0
 70
    32
  0
VERTEX
  5
7E7
330
4A5
100
AcDbEntity
  8
1
100
AcDbVertex
100
AcDb3dPolylineVertex
 10
97.33920000000001
 20
826.2089999999998
 30
0.0
 70
    32
  0
VERTEX
  5
7E8
330
4A5
100
AcDbEntity
  8
1
100
AcDbVertex
100
AcDb3dPolylineVertex
 10
97.38469999999999
 20
826.302
 30
0.0
 70
    32
  0
VERTEX
  5
7E9
330
4A5
100
AcDbEntity
  8
1
100
AcDbVertex
100
AcDb3dPolylineVertex
 10
97.4336
 20
826.3939999999999
 30
0.0
 70
    32
  0
VERTEX
  5
7EA
330
4A5
100
AcDbEntity
  8
1
100
AcDbVertex
100
AcDb3dPolylineVertex
 10
97.4859
 20
826.485
 30
0.0
 70
    32
  0
VERTEX
  5
7EB
330
4A5
100
AcDbEntity
  8
1
100
AcDbVertex
100
AcDb3dPolylineVertex
 10
97.5416
 20
826.575
 30
0.0
 70
    32
  0
VERTEX
  5
7EC
330
4A5
100
AcDbEntity
  8
1
100
AcDbVertex
100
AcDb3dPolylineVertex
 10
97.60049999999999
 20
826.664
 30
0.0
 70
    32
  0
VERTEX
  5
7ED
330
4A5
100
AcDbEntity
  8
1
100
AcDbVertex
100
AcDb3dPolylineVertex
 10
97.66280000000001
 20
826.7519999999999
 30
0.0
 70
    32
  0
VERTEX
  5
7EE
330
4A5
100
AcDbEntity
  8
1
100
AcDbVertex
100
AcDb3dPolylineVertex
 10
97.7283
 20
826.839
 30
0.0
 70
    32
  0
VERTEX
  5
7EF
330
4A5
100
AcDbEntity
  8
1
100
AcDbVertex
100
AcDb3dPolylineVertex
 10
97.797
 20
826.9239999999999
 30
0.0
 70
    32
  0
VERTEX
  5
7F0
330
4A5
100
AcDbEntity
  8
1
100
AcDbVertex
100
AcDb3dPolylineVertex
 10
97.86889999999999
 20
827.0089999999999
 30
0.0
 70
    32
  0
VERTEX
  5
7F1
330
4A5
100
AcDbEntity
  8
1
100
AcDbVertex
100
AcDb3dPolylineVertex
 10
97.9438
 20
827.092
 30
0.0
 70
    32
  0
VERTEX
  5
7F2
330
4A5
100
AcDbEntity
  8
1
100
AcDbVertex
100
AcDb3dPolylineVertex
 10
98.02190000000001
 20
827.1729999999999
 30
0.0
 70
    32
  0
VERTEX
  5
7F3
330
4A5
100
AcDbEntity
  8
1
100
AcDbVertex
100
AcDb3dPolylineVertex
 10
98.10290000000001
 20
827.2539999999999
 30
0.0
 70
    32
  0
VERTEX
  5
7F4
330
4A5
100
AcDbEntity
  8
1
100
AcDbVertex
100
AcDb3dPolylineVertex
 10
98.1869
 20
827.332
 30
0.0
 70
    32
  0
VERTEX
  5
7F5
330
4A5
100
AcDbEntity
  8
1
100
AcDbVertex
100
AcDb3dPolylineVertex
 10
98.27370000000001
 20
827.41
 30
0.0
 70
    32
  0
VERTEX
  5
7F6
330
4A5
100
AcDbEntity
  8
1
100
AcDbVertex
100
AcDb3dPolylineVertex
 10
98.36339999999999
 20
827.485
 30
0.0
 70
    32
  0
VERTEX
  5
7F7
330
4A5
100
AcDbEntity
  8
1
100
AcDbVertex
100
AcDb3dPolylineVertex
 10
98.45590000000001
 20
827.5589999999999
 30
0.0
 70
    32
  0
VERTEX
  5
7F8
330
4A5
100
AcDbEntity
  8
1
100
AcDbVertex
100
AcDb3dPolylineVertex
 10
98.55110000000001
 20
827.632
 30
0.0
 70
    32
  0
VERTEX
  5
7F9
330
4A5
100
AcDbEntity
  8
1
100
AcDbVertex
100
AcDb3dPolylineVertex
 10
98.6489
 20
827.7029999999999
 30
0.0
 70
    32
  0
VERTEX
  5
7FA
330
4A5
100
AcDbEntity
  8
1
100
AcDbVertex
100
AcDb3dPolylineVertex
 10
98.7494
 20
827.771
 30
0.0
 70
    32
  0
VERTEX
  5
7FB
330
4A5
100
AcDbEntity
  8
1
100
AcDbVertex
100
AcDb3dPolylineVertex
 10
98.85229999999999
 20
827.8389999999999
 30
0.0
 70
    32
  0
VERTEX
  5
7FC
330
4A5
100
AcDbEntity
  8
1
100
AcDbVertex
100
AcDb3dPolylineVertex
 10
98.95780000000002
 20
827.904
 30
0.0
 70
    32
  0
VERTEX
  5
7FD
330
4A5
100
AcDbEntity
  8
1
100
AcDbVertex
100
AcDb3dPolylineVertex
 10
99.0656
 20
827.9669999999999
 30
0.0
 70
    32
  0
VERTEX
  5
7FE
330
4A5
100
AcDbEntity
  8
1
100
AcDbVertex
100
AcDb3dPolylineVertex
 10
99.17570000000001
 20
828.029
 30
0.0
 70
    32
  0
VERTEX
  5
7FF
330
4A5
100
AcDbEntity
  8
1
100
AcDbVertex
100
AcDb3dPolylineVertex
 10
99.288
 20
828.0880000000001
 30
0.0
 70
    32
  0
VERTEX
  5
800
330
4A5
100
AcDbEntity
  8
1
100
AcDbVertex
100
AcDb3dPolylineVertex
 10
99.4025
 20
828.1449999999999
 30
0.0
 70
    32
  0
VERTEX
  5
801
330
4A5
100
AcDbEntity
  8
1
100
AcDbVertex
100
AcDb3dPolylineVertex
 10
99.51920000000001
 20
828.2009999999999
 30
0.0
 70
    32
  0
VERTEX
  5
802
330
4A5
100
AcDbEntity
  8
1
100
AcDbVertex
100
AcDb3dPolylineVertex
 10
99.63779999999999
 20
828.2539999999999
 30
0.0
 70
    32
  0
VERTEX
  5
803
330
4A5
100
AcDbEntity
  8
1
100
AcDbVertex
100
AcDb3dPolylineVertex
 10
99.75830000000001
 20
828.3049999999999
 30
0.0
 70
    32
  0
VERTEX
  5
804
330
4A5
100
AcDbEntity
  8
1
100
AcDbVertex
100
AcDb3dPolylineVertex
 10
99.8808
 20
828.3539999999998
 30
0.0
 70
    32
  0
VERTEX
  5
805
330
4A5
100
AcDbEntity
  8
1
100
AcDbVertex
100
AcDb3dPolylineVertex
 10
100.005
 20
828.401
 30
0.0
 70
    32
  0
VERTEX
  5
806
330
4A5
100
AcDbEntity
  8
1
100
AcDbVertex
100
AcDb3dPolylineVertex
 10
100.131
 20
828.4450000000001
 30
0.0
 70
    32
  0
VERTEX
  5
807
330
4A5
100
AcDbEntity
  8
1
100
AcDbVertex
100
AcDb3dPolylineVertex
 10
100.258
 20
828.4880000000001
 30
0.0
 70
    32
  0
VERTEX
  5
808
330
4A5
100
AcDbEntity
  8
1
100
AcDbVertex
100
AcDb3dPolylineVertex
 10
100.387
 20
828.528
 30
0.0
 70
    32
  0
VERTEX
  5
809
330
4A5
100
AcDbEntity
  8
1
100
AcDbVertex
100
AcDb3dPolylineVertex
 10
100.518
 20
828.565
 30
0.0
 70
    32
  0
VERTEX
  5
80A
330
4A5
100
AcDbEntity
  8
1
100
AcDbVertex
100
AcDb3dPolylineVertex
 10
100.65
 20
828.601
 30
0.0
 70
    32
  0
VERTEX
  5
80B
330
4A5
100
AcDbEntity
  8
1
100
AcDbVertex
100
AcDb3dPolylineVertex
 10
100.783
 20
828.6339999999999
 30
0.0
 70
    32
  0
VERTEX
  5
80C
330
4A5
100
AcDbEntity
  8
1
100
AcDbVertex
100
AcDb3dPolylineVertex
 10
100.917
 20
828.664
 30
0.0
 70
    32
  0
VERTEX
  5
80D
330
4A5
100
AcDbEntity
  8
1
100
AcDbVertex
100
AcDb3dPolylineVertex
 10
101.052
 20
828.692
 30
0.0
 70
    32
  0
VERTEX
  5
80E
330
4A5
100
AcDbEntity
  8
1
100
AcDbVertex
100
AcDb3dPolylineVertex
 10
101.189
 20
828.7180000000001
 30
0.0
 70
    32
  0
VERTEX
  5
80F
330
4A5
100
AcDbEntity
  8
1
100
AcDbVertex
100
AcDb3dPolylineVertex
 10
101.326
 20
828.7419999999999
 30
0.0
 70
    32
  0
VERTEX
  5
810
330
4A5
100
AcDbEntity
  8
1
100
AcDbVertex
100
AcDb3dPolylineVertex
 10
101.464
 20
828.763
 30
0.0
 70
    32
  0
VERTEX
  5
811
330
4A5
100
AcDbEntity
  8
1
100
AcDbVertex
100
AcDb3dPolylineVertex
 10
101.603
 20
828.781
 30
0.0
 70
    32
  0
VERTEX
  5
812
330
4A5
100
AcDbEntity
  8
1
100
AcDbVertex
100
AcDb3dPolylineVertex
 10
101.742
 20
828.7969999999999
 30
0.0
 70
    32
  0
VERTEX
  5
813
330
4A5
100
AcDbEntity
  8
1
100
AcDbVertex
100
AcDb3dPolylineVertex
 10
101.882
 20
828.81
 30
0.0
 70
    32
  0
VERTEX
  5
814
330
4A5
100
AcDbEntity
  8
1
100
AcDbVertex
100
AcDb3dPolylineVertex
 10
102.023
 20
828.8210000000001
 30
0.0
 70
    32
  0
VERTEX
  5
815
330
4A5
100
AcDbEntity
  8
1
100
AcDbVertex
100
AcDb3dPolylineVertex
 10
102.164
 20
828.8300000000001
 30
0.0
 70
    32
  0
VERTEX
  5
816
330
4A5
100
AcDbEntity
  8
1
100
AcDbVertex
100
AcDb3dPolylineVertex
 10
102.305
 20
828.836
 30
0.0
 70
    32
  0
VERTEX
  5
817
330
4A5
100
AcDbEntity
  8
1
100
AcDbVertex
100
AcDb3dPolylineVertex
 10
102.446
 20
828.8389999999999
 30
0.0
 70
    32
  0
VERTEX
  5
818
330
4A5
100
AcDbEntity
  8
1
100
AcDbVertex
100
AcDb3dPolylineVertex
 10
102.587
 20
828.8400000000001
 30
0.0
 70
    32
  0
VERTEX
  5
819
330
4A5
100
AcDbEntity
  8
1
100
AcDbVertex
100
AcDb3dPolylineVertex
 10
102.729
 20
828.8389999999999
 30
0.0
 70
    32
  0
VERTEX
  5
81A
330
4A5
100
AcDbEntity
  8
1
100
AcDbVertex
100
AcDb3dPolylineVertex
 10
102.87
 20
828.8339999999999
 30
0.0
 70
    32
  0
VERTEX
  5
81B
330
4A5
100
AcDbEntity
  8
1
100
AcDbVertex
100
AcDb3dPolylineVertex
 10
103.011
 20
828.828
 30
0.0
 70
    32
  0
VERTEX
  5
81C
330
4A5
100
AcDbEntity
  8
1
100
AcDbVertex
100
AcDb3dPolylineVertex
 10
103.152
 20
828.819
 30
0.0
 70
    32
  0
VERTEX
  5
81D
330
4A5
100
AcDbEntity
  8
1
100
AcDbVertex
100
AcDb3dPolylineVertex
 10
103.292
 20
828.8070000000001
 30
0.0
 70
    32
  0
VERTEX
  5
81E
330
4A5
100
AcDbEntity
  8
1
100
AcDbVertex
100
AcDb3dPolylineVertex
 10
103.432
 20
828.7929999999999
 30
0.0
 70
    32
  0
VERTEX
  5
81F
330
4A5
100
AcDbEntity
  8
1
100
AcDbVertex
100
AcDb3dPolylineVertex
 10
103.571
 20
828.776
 30
0.0
 70
    32
  0
VERTEX
  5
820
330
4A5
100
AcDbEntity
  8
1
100
AcDbVertex
100
AcDb3dPolylineVertex
 10
103.71
 20
828.7569999999998
 30
0.0
 70
    32
  0
VERTEX
  5
821
330
4A5
100
AcDbEntity
  8
1
100
AcDbVertex
100
AcDb3dPolylineVertex
 10
103.848
 20
828.7360000000001
 30
0.0
 70
    32
  0
VERTEX
  5
822
330
4A5
100
AcDbEntity
  8
1
100
AcDbVertex
100
AcDb3dPolylineVertex
 10
103.985
 20
828.7119999999999
 30
0.0
 70
    32
  0
VERTEX
  5
823
330
4A5
100
AcDbEntity
  8
1
100
AcDbVertex
100
AcDb3dPolylineVertex
 10
104.121
 20
828.6849999999999
 30
0.0
 70
    32
  0
VERTEX
  5
824
330
4A5
100
AcDbEntity
  8
1
100
AcDbVertex
100
AcDb3dPolylineVertex
 10
104.256
 20
828.6560000000001
 30
0.0
 70
    32
  0
VERTEX
  5
825
330
4A5
100
AcDbEntity
  8
1
100
AcDbVertex
100
AcDb3dPolylineVertex
 10
104.39
 20
828.625
 30
0.0
 70
    32
  0
VERTEX
  5
826
330
4A5
100
AcDbEntity
  8
1
100
AcDbVertex
100
AcDb3dPolylineVertex
 10
104.523
 20
828.592
 30
0.0
 70
    32
  0
VERTEX
  5
827
330
4A5
100
AcDbEntity
  8
1
100
AcDbVertex
100
AcDb3dPolylineVertex
 10
104.654
 20
828.556
 30
0.0
 70
    32
  0
VERTEX
  5
828
330
4A5
100
AcDbEntity
  8
1
100
AcDbVertex
100
AcDb3dPolylineVertex
 10
104.784
 20
828.5169999999999
 30
0.0
 70
    32
  0
VERTEX
  5
829
330
4A5
100
AcDbEntity
  8
1
100
AcDbVertex
100
AcDb3dPolylineVertex
 10
104.913
 20
828.4769999999999
 30
0.0
 70
    32
  0
VERTEX
  5
82A
330
4A5
100
AcDbEntity
  8
1
100
AcDbVertex
100
AcDb3dPolylineVertex
 10
105.04
 20
828.434
 30
0.0
 70
    32
  0
VERTEX
  5
82B
330
4A5
100
AcDbEntity
  8
1
100
AcDbVertex
100
AcDb3dPolylineVertex
 10
105.165
 20
828.3889999999999
 30
0.0
 70
    32
  0
VERTEX
  5
82C
330
4A5
100
AcDbEntity
  8
1
100
AcDbVertex
100
AcDb3dPolylineVertex
 10
105.289
 20
828.3409999999999
 30
0.0
 70
    32
  0
VERTEX
  5
82D
330
4A5
100
AcDbEntity
  8
1
100
AcDbVertex
100
AcDb3dPolylineVertex
 10
105.411
 20
828.2919999999998
 30
0.0
 70
    32
  0
VERTEX
  5
82E
330
4A5
100
AcDbEntity
  8
1
100
AcDbVertex
100
AcDb3dPolylineVertex
 10
105.531
 20
828.24
 30
0.0
 70
    32
  0
VERTEX
  5
82F
330
4A5
100
AcDbEntity
  8
1
100
AcDbVertex
100
AcDb3dPolylineVertex
 10
105.649
 20
828.1859999999999
 30
0.0
 70
    32
  0
VERTEX
  5
830
330
4A5
100
AcDbEntity
  8
1
100
AcDbVertex
100
AcDb3dPolylineVertex
 10
105.765
 20
828.1310000000001
 30
0.0
 70
    32
  0
VERTEX
  5
831
330
4A5
100
AcDbEntity
  8
1
100
AcDbVertex
100
AcDb3dPolylineVertex
 10
105.879
 20
828.073
 30
0.0
 70
    32
  0
VERTEX
  5
832
330
4A5
100
AcDbEntity
  8
1
100
AcDbVertex
100
AcDb3dPolylineVertex
 10
105.991
 20
828.0129999999999
 30
0.0
 70
    32
  0
VERTEX
  5
833
330
4A5
100
AcDbEntity
  8
1
100
AcDbVertex
100
AcDb3dPolylineVertex
 10
106.101
 20
827.951
 30
0.0
 70
    32
  0
VERTEX
  5
834
330
4A5
100
AcDbEntity
  8
1
100
AcDbVertex
100
AcDb3dPolylineVertex
 10
106.208
 20
827.8869999999999
 30
0.0
 70
    32
  0
VERTEX
  5
835
330
4A5
100
AcDbEntity
  8
1
100
AcDbVertex
100
AcDb3dPolylineVertex
 10
106.313
 20
827.8209999999999
 30
0.0
 70
    32
  0
VERTEX
  5
836
330
4A5
100
AcDbEntity
  8
1
100
AcDbVertex
100
AcDb3dPolylineVertex
 10
106.415
 20
827.7539999999998
 30
0.0
 70
    32
  0
VERTEX
  5
837
330
4A5
100
AcDbEntity
  8
1
100
AcDbVertex
100
AcDb3dPolylineVertex
 10
106.515
 20
827.6839999999999
 30
0.0
 70
    32
  0
VERTEX
  5
838
330
4A5
100
AcDbEntity
  8
1
100
AcDbVertex
100
AcDb3dPolylineVertex
 10
106.612
 20
827.613
 30
0.0
 70
    32
  0
VERTEX
  5
839
330
4A5
100
AcDbEntity
  8
1
100
AcDbVertex
100
AcDb3dPolylineVertex
 10
106.706
 20
827.5399999999999
 30
0.0
 70
    32
  0
VERTEX
  5
83A
330
4A5
100
AcDbEntity
  8
1
100
AcDbVertex
100
AcDb3dPolylineVertex
 10
106.798
 20
827.466
 30
0.0
 70
    32
  0
VERTEX
  5
83B
330
4A5
100
AcDbEntity
  8
1
100
AcDbVertex
100
AcDb3dPolylineVertex
 10
106.887
 20
827.3899999999999
 30
0.0
 70
    32
  0
VERTEX
  5
83C
330
4A5
100
AcDbEntity
  8
1
100
AcDbVertex
100
AcDb3dPolylineVertex
 10
106.973
 20
827.312
 30
0.0
 70
    32
  0
VERTEX
  5
83D
330
4A5
100
AcDbEntity
  8
1
100
AcDbVertex
100
AcDb3dPolylineVertex
 10
107.056
 20
827.233
 30
0.0
 70
    32
  0
VERTEX
  5
83E
330
4A5
100
AcDbEntity
  8
1
100
AcDbVertex
100
AcDb3dPolylineVertex
 10
107.137
 20
827.1519999999998
 30
0.0
 70
    32
  0
VERTEX
  5
83F
330
4A5
100
AcDbEntity
  8
1
100
AcDbVertex
100
AcDb3dPolylineVertex
 10
107.214
 20
827.0700000000001
 30
0.0
 70
    32
  0
VERTEX
  5
840
330
4A5
100
AcDbEntity
  8
1
100
AcDbVertex
100
AcDb3dPolylineVertex
 10
107.288
 20
826.9869999999999
 30
0.0
 70
    32
  0
VERTEX
  5
841
330
4A5
100
AcDbEntity
  8
1
100
AcDbVertex
100
AcDb3dPolylineVertex
 10
107.359
 20
826.9019999999999
 30
0.0
 70
    32
  0
VERTEX
  5
842
330
4A5
100
AcDbEntity
  8
1
100
AcDbVertex
100
AcDb3dPolylineVertex
 10
107.427
 20
826.8159999999999
 30
0.0
 70
    32
  0
VERTEX
  5
843
330
4A5
100
AcDbEntity
  8
1
100
AcDbVertex
100
AcDb3dPolylineVertex
 10
107.492
 20
826.7289999999999
 30
0.0
 70
    32
  0
VERTEX
  5
844
330
4A5
100
AcDbEntity
  8
1
100
AcDbVertex
100
AcDb3dPolylineVertex
 10
107.553
 20
826.641
 30
0.0
 70
    32
  0
VERTEX
  5
845
330
4A5
100
AcDbEntity
  8
1
100
AcDbVertex
100
AcDb3dPolylineVertex
 10
107.611
 20
826.552
 30
0.0
 70
    32
  0
VERTEX
  5
846
330
4A5
100
AcDbEntity
  8
1
100
AcDbVertex
100
AcDb3dPolylineVertex
 10
107.666
 20
826.4610000000001
 30
0.0
 70
    32
  0
VERTEX
  5
847
330
4A5
100
AcDbEntity
  8
1
100
AcDbVertex
100
AcDb3dPolylineVertex
 10
107.717
 20
826.37
 30
0.0
 70
    32
  0
VERTEX
  5
848
330
4A5
100
AcDbEntity
  8
1
100
AcDbVertex
100
AcDb3dPolylineVertex
 10
107.765
 20
826.2780000000001
 30
0.0
 70
    32
  0
VERTEX
  5
849
330
4A5
100
AcDbEntity
  8
1
100
AcDbVertex
100
AcDb3dPolylineVertex
 10
107.81
 20
826.1849999999999
 30
0.0
 70
    32
  0
VERTEX
  5
84A
330
4A5
100
AcDbEntity
  8
1
100
AcDbVertex
100
AcDb3dPolylineVertex
 10
107.851
 20
826.091
 30
0.0
 70
    32
  0
VERTEX
  5
84B
330
4A5
100
AcDbEntity
  8
1
100
AcDbVertex
100
AcDb3dPolylineVertex
 10
107.889
 20
825.9969999999999
 30
0.0
 70
    32
  0
VERTEX
  5
84C
330
4A5
100
AcDbEntity
  8
1
100
AcDbVertex
100
AcDb3dPolylineVertex
 10
107.923
 20
825.9019999999999
 30
0.0
 70
    32
  0
VERTEX
  5
84D
330
4A5
100
AcDbEntity
  8
1
100
AcDbVertex
100
AcDb3dPolylineVertex
 10
107.953
 20
825.806
 30
0.0
 70
    32
  0
VERTEX
  5
84E
330
4A5
100
AcDbEntity
  8
1
100
AcDbVertex
100
AcDb3dPolylineVertex
 10
107.98
 20
825.7100000000001
 30
0.0
 70
    32
  0
VERTEX
  5
84F
330
4A5
100
AcDbEntity
  8
1
100
AcDbVertex
100
AcDb3dPolylineVertex
 10
108.004
 20
825.6139999999998
 30
0.0
 70
    32
  0
VERTEX
  5
850
330
4A5
100
AcDbEntity
  8
1
100
AcDbVertex
100
AcDb3dPolylineVertex
 10
108.024
 20
825.5169999999999
 30
0.0
 70
    32
  0
VERTEX
  5
851
330
4A5
100
AcDbEntity
  8
1
100
AcDbVertex
100
AcDb3dPolylineVertex
 10
108.04
 20
825.4189999999999
 30
0.0
 70
    32
  0
VERTEX
  5
852
330
4A5
100
AcDbEntity
  8
1
100
AcDbVertex
100
AcDb3dPolylineVertex
 10
108.053
 20
825.322
 30
0.0
 70
    32
  0
VERTEX
  5
853
330
4A5
100
AcDbEntity
  8
1
100
AcDbVertex
100
AcDb3dPolylineVertex
 10
108.062
 20
825.2239999999998
 30
0.0
 70
    32
  0
VERTEX
  5
854
330
4A5
100
AcDbEntity
  8
1
100
AcDbVertex
100
AcDb3dPolylineVertex
 10
108.067
 20
825.126
 30
0.0
 70
    32
  0
VERTEX
  5
855
330
4A5
100
AcDbEntity
  8
1
100
AcDbVertex
100
AcDb3dPolylineVertex
 10
108.069
 20
825.028
 30
0.0
 70
    32
  0
VERTEX
  5
856
330
4A5
100
AcDbEntity
  8
1
100
AcDbVertex
100
AcDb3dPolylineVertex
 10
108.067
 20
824.9299999999999
 30
0.0
 70
    32
  0
VERTEX
  5
857
330
4A5
100
AcDbEntity
  8
1
100
AcDbVertex
100
AcDb3dPolylineVertex
 10
108.062
 20
824.8319999999999
 30
0.0
 70
    32
  0
VERTEX
  5
858
330
4A5
100
AcDbEntity
  8
1
100
AcDbVertex
100
AcDb3dPolylineVertex
 10
108.052
 20
824.735
 30
0.0
 70
    32
  0
SEQEND
  5
859
330
4A5
100
AcDbEntity
  8
1
  0
LINE
  5
4A6
330
8C8
100
AcDbEntity
  8
1外形線
100
AcDbLine
 10
98.06885705743423
 20
811.4339395816868
 30
0.0
 11
107.0688570574344
 21
811.433939581687
 31
0.0
  0
LINE
  5
4A7
330
8C8
100
AcDbEntity
  8
1外形線
100
AcDbLine
 10
118.5688570574353
 20
829.7721965353215
 30
0.0
 11
76.56885705743468
 21
829.7721965353215
 31
0.0
  0
LINE
  5
4A8
330
8C8
100
AcDbEntity
  8
1外形線
100
AcDbLine
 10
107.0688570574344
 20
863.201189006061
 30
0.0
 11
98.06885705743448
 21
863.201189006061
 31
0.0
  0
ARC
  5
4A9
330
8C8
100
AcDbEntity
  8
1外形線
100
AcDbCircle
 10
102.5688570574344
 20
870.033939581687
 30
0.0
 40
4.5
100
AcDbArc
 50
0.0
 51
180.0
  0
LINE
  5
4AA
330
8C8
100
AcDbEntity
  8
1外形線
100
AcDbLine
 10
118.5688570574353
 20
831.4339395816865
 30
0.0
 11
76.56885705743468
 21
831.4339395816869
 31
0.0
  0
LINE
  5
4AB
330
8C8
100
AcDbEntity
  8
1外形線
100
AcDbLine
 10
97.70174542369012
 20
816.4250076523275
 30
0.0
 11
76.56885705743468
 21
816.4250076523275
 31
0.0
  0
LINE
  5
4AC
330
8C8
100
AcDbEntity
  8
1外形線
100
AcDbLine
 10
97.10577585408101
 20
824.5275149458514
 30
0.0
 11
76.56885705743468
 21
824.5275149458514
 31
0.0
  0
LINE
  5
4AD
330
8C8
100
AcDbEntity
  8
1外形線
100
AcDbLine
 10
76.56885705743468
 20
831.4339395816869
 30
0.0
 11
76.56885705743468
 21
808.2339395816873
 31
0.0
  0
LINE
  5
4AE
330
8C8
100
AcDbEntity
  8
1外形線
100
AcDbLine
 10
76.56885705743468
 20
831.633939581687
 30
0.0
 11
76.56885705743468
 21
831.4339395816869
 31
0.0
  0
ARC
  5
4AF
330
8C8
100
AcDbEntity
  8
1外形線
100
AcDbCircle
 10
76.06885705743469
 20
831.633939581687
 30
0.0
 40
0.5
100
AcDbArc
 50
90.0
 51
90.0
  0
ARC
  5
4B0
330
8C8
100
AcDbEntity
  8
1外形線
100
AcDbCircle
 10
76.06885705743469
 20
831.633939581687
 30
0.0
 40
0.5
100
AcDbArc
 50
0.0000000000065138
 51
90.0
  0
LINE
  5
4B1
330
8C8
100
AcDbEntity
  8
1外形線
100
AcDbLine
 10
97.09735212506176
 20
824.6420397962765
 30
0.0
 11
98.06885705743423
 21
811.4339395816868
 31
0.0
  0
LINE
  5
4B2
330
8C8
100
AcDbEntity
  8
1外形線
100
AcDbLine
 10
98.06885705743448
 20
864.8486589233998
 30
0.0
 11
76.56885705743468
 21
864.8486589233998
 31
0.0
  0
LINE
  5
4B3
330
8C8
100
AcDbEntity
  8
1外形線
100
AcDbLine
 10
76.56885705743468
 20
870.3354866624115
 30
0.0
 11
98.07897182971352
 21
870.3354866624115
 31
0.0
  0
LINE
  5
4B4
330
8C8
100
AcDbEntity
  8
1外形線
100
AcDbLine
 10
76.56885705743468
 20
862.8339395816865
 30
0.0
 11
76.56885705743468
 21
862.633939581687
 31
0.0
  0
ARC
  5
4B5
330
8C8
100
AcDbEntity
  8
1外形線
100
AcDbCircle
 10
76.06885705743446
 20
862.633939581687
 30
0.0
 40
0.5
100
AcDbArc
 50
270.0
 51
0.0
  0
LINE
  5
4B6
330
8C8
100
AcDbEntity
  8
1外形線
100
AcDbLine
 10
98.06885705743448
 20
870.033939581687
 30
0.0
 11
98.06885705743448
 21
863.201189006061
 31
0.0
  0
CIRCLE
  5
4B7
330
8C8
100
AcDbEntity
  8
1外形線
100
AcDbCircle
 10
102.5688570574344
 20
870.033939581687
 30
0.0
 40
2.0
  0
LINE
  5
4B8
330
8C8
100
AcDbEntity
  8
1外形線
100
AcDbLine
 10
118.5688570574353
 20
816.4250076523275
 30
0.0
 11
107.4348456916971
 21
816.4250076523275
 31
0.0
  0
LINE
  5
4B9
330
8C8
100
AcDbEntity
  8
1外形線
100
AcDbLine
 10
118.5688570574353
 20
824.5275149458514
 30
0.0
 11
108.0289921822862
 21
824.5275149458514
 31
0.0
  0
LINE
  5
4BA
330
8C8
100
AcDbEntity
  8
1外形線
100
AcDbLine
 10
107.0688570574344
 20
811.433939581687
 30
0.0
 11
108.0347066380765
 21
824.6054442451924
 31
0.0
  0
LINE
  5
4BB
330
8C8
100
AcDbEntity
  8
1外形線
100
AcDbLine
 10
107.0688570574344
 20
870.033939581687
 30
0.0
 11
107.0688570574344
 21
863.201189006061
 31
0.0
  0
LINE
  5
4BC
330
8C8
100
AcDbEntity
  8
1外形線
100
AcDbLine
 10
107.0688570574344
 20
927.8666901573128
 30
0.0
 11
98.06885705743448
 21
927.8666901573128
 31
0.0
  0
ARC
  5
4BD
330
8C8
100
AcDbEntity
  8
1外形線
100
AcDbCircle
 10
102.5688570574344
 20
921.0339395816866
 30
0.0
 40
4.5
100
AcDbArc
 50
180.0
 51
0.0
  0
CIRCLE
  5
4BE
330
8C8
100
AcDbEntity
  8
1外形線
100
AcDbCircle
 10
102.5688570574344
 20
921.0339395816866
 30
0.0
 40
2.0
  0
LINE
  5
4BF
330
8C8
100
AcDbEntity
  8
1外形線
100
AcDbLine
 10
76.56885705743468
 20
928.433939581687
 30
0.0
 11
76.56885705743468
 21
895.5339395816871
 31
0.0
  0
LINE
  5
4C0
330
8C8
100
AcDbEntity
  8
1外形線
100
AcDbLine
 10
98.06885705743448
 20
926.2192202399742
 30
0.0
 11
76.56885705743468
 21
926.2192202399742
 31
0.0
  0
LINE
  5
4C1
330
8C8
100
AcDbEntity
  8
1外形線
100
AcDbLine
 10
76.56885705743468
 20
920.7323925009625
 30
0.0
 11
98.07897182971352
 21
920.7323925009625
 31
0.0
  0
LINE
  5
4C2
330
8C8
100
AcDbEntity
  8
1外形線
100
AcDbLine
 10
76.56885705743468
 20
928.2339395816869
 30
0.0
 11
76.56885705743468
 21
928.433939581687
 31
0.0
  0
ARC
  5
4C3
330
8C8
100
AcDbEntity
  8
1外形線
100
AcDbCircle
 10
76.06885705743446
 20
928.433939581687
 30
0.0
 40
0.5
100
AcDbArc
 50
0.0
 51
90.0
  0
LINE
  5
4C4
330
8C8
100
AcDbEntity
  8
1外形線
100
AcDbLine
 10
98.06885705743448
 20
921.0339395816866
 30
0.0
 11
98.06885705743448
 21
927.8666901573128
 31
0.0
  0
LINE
  5
4C5
330
8C8
100
AcDbEntity
  8
1外形線
100
AcDbLine
 10
107.0688570574344
 20
921.0339395816866
 30
0.0
 11
107.0688570574344
 21
927.8666901573128
 31
0.0
  0
TEXT
  5
4C6
330
8C8
100
AcDbEntity
  8
1外形線
100
AcDbText
 10
70.56885718976935
 20
958.9339410193472
 30
0.0
 40
10.0
  1
SIF-66
  7
KANJI
100
AcDbText
  0
LINE
  5
4C7
330
8C8
100
AcDbEntity
  8
1外形線
100
AcDbLine
 10
244.5688570574349
 20
862.633939581687
 30
0.0
 11
244.5688570574349
 21
895.5339395816871
 31
0.0
  0
LINE
  5
4C8
330
8C8
100
AcDbEntity
  8
1外形線
100
AcDbLine
 10
250.5688570574349
 20
895.5339395816871
 30
0.0
 11
250.5688570574349
 21
863.1339395816871
 31
0.0
  0
LINE
  5
4C9
330
8C8
100
AcDbEntity
  8
1外形線
100
AcDbLine
 10
223.0688570574349
 20
864.8486589234003
 30
0.0
 11
244.5688570574349
 21
864.8486589234003
 31
0.0
  0
LINE
  5
4CA
330
8C8
100
AcDbEntity
  8
1外形線
100
AcDbLine
 10
223.058742285156
 20
870.335486662412
 30
0.0
 11
244.5688570574349
 21
870.3354866624115
 31
0.0
  0
LINE
  5
4CB
330
8C8
100
AcDbEntity
  8
1外形線
100
AcDbLine
 10
223.0688570574349
 20
870.033939581687
 30
0.0
 11
223.0688570574349
 21
863.201189006061
 31
0.0
  0
LINE
  5
4CC
330
8C8
100
AcDbEntity
  8
1外形線
100
AcDbLine
 10
214.0688570574349
 20
870.033939581687
 30
0.0
 11
214.0688570574349
 21
863.201189006061
 31
0.0
  0
LINE
  5
4CD
330
8C8
100
AcDbEntity
  8
1外形線
100
AcDbLine
 10
214.0688570574349
 20
863.201189006061
 30
0.0
 11
223.0688570574349
 21
863.201189006061
 31
0.0
  0
ARC
  5
4CE
330
8C8
100
AcDbEntity
  8
1外形線
100
AcDbCircle
 10
218.5688570574351
 20
870.033939581687
 30
0.0
 40
4.5
100
AcDbArc
 50
0.0
 51
180.0
  0
CIRCLE
  5
4CF
330
8C8
100
AcDbEntity
  8
1外形線
100
AcDbCircle
 10
218.5688570574351
 20
870.033939581687
 30
0.0
 40
2.0
  0
ARC
  5
4D0
330
8C8
100
AcDbEntity
  8
1外形線
100
AcDbCircle
 10
249.5688570574349
 20
863.1339395816871
 30
0.0
 40
1.0
100
AcDbArc
 50
270.0
 51
0.0
  0
ARC
  5
4D1
330
8C8
100
AcDbEntity
  8
1外形線
100
AcDbCircle
 10
245.0688570574349
 20
862.633939581687
 30
0.0
 40
0.5
100
AcDbArc
 50
180.0
 51
270.0
  0
LINE
  5
4D2
330
8C8
100
AcDbEntity
  8
1外形線
100
AcDbLine
 10
244.5688570574349
 20
862.8339395816865
 30
0.0
 11
244.5688570574349
 21
862.633939581687
 31
0.0
  0
LINE
  5
4D3
330
8C8
100
AcDbEntity
  8
1外形線
  6
Continuous
100
AcDbLine
 10
249.5688570574349
 20
862.1339395816871
 30
0.0
 11
245.0688570574349
 21
862.1339395816871
 31
0.0
  0
LINE
  5
4D4
330
8C8
100
AcDbEntity
  8
1外形線
100
AcDbLine
 10
223.0688570574349
 20
926.2192202399736
 30
0.0
 11
244.5688570574349
 21
926.2192202399736
 31
0.0
  0
LINE
  5
4D5
330
8C8
100
AcDbEntity
  8
1外形線
100
AcDbLine
 10
223.058742285156
 20
920.7323925009619
 30
0.0
 11
244.5688570574349
 21
920.7323925009625
 31
0.0
  0
ARC
  5
4D6
330
8C8
100
AcDbEntity
  8
1外形線
100
AcDbCircle
 10
218.5688570574351
 20
921.0339395816866
 30
0.0
 40
4.5
100
AcDbArc
 50
180.0
 51
0.0
  0
CIRCLE
  5
4D7
330
8C8
100
AcDbEntity
  8
1外形線
100
AcDbCircle
 10
218.5688570574351
 20
921.0339395816866
 30
0.0
 40
2.0
  0
LINE
  5
4D8
330
8C8
100
AcDbEntity
  8
1外形線
100
AcDbLine
 10
214.0688570574349
 20
927.8666901573128
 30
0.0
 11
223.0688570574349
 21
927.8666901573128
 31
0.0
  0
LINE
  5
4D9
330
8C8
100
AcDbEntity
  8
1外形線
100
AcDbLine
 10
214.0688570574349
 20
921.0339395816866
 30
0.0
 11
214.0688570574349
 21
927.8666901573128
 31
0.0
  0
LINE
  5
4DA
330
8C8
100
AcDbEntity
  8
1外形線
100
AcDbLine
 10
223.0688570574349
 20
921.0339395816866
 30
0.0
 11
223.0688570574349
 21
927.8666901573128
 31
0.0
  0
LINE
  5
4DB
330
8C8
100
AcDbEntity
  8
1外形線
100
AcDbLine
 10
244.5688570574349
 20
928.433939581687
 30
0.0
 11
244.5688570574349
 21
895.5339395816871
 31
0.0
  0
LINE
  5
4DC
330
8C8
100
AcDbEntity
  8
1外形線
100
AcDbLine
 10
250.5688570574349
 20
895.5339395816871
 30
0.0
 11
250.5688570574349
 21
927.9339395816867
 31
0.0
  0
ARC
  5
4DD
330
8C8
100
AcDbEntity
  8
1外形線
100
AcDbCircle
 10
249.5688570574349
 20
927.9339395816867
 30
0.0
 40
1.0
100
AcDbArc
 50
0.0
 51
90.0
  0
LINE
  5
4DE
330
8C8
100
AcDbEntity
  8
1外形線
100
AcDbLine
 10
244.5688570574349
 20
928.2339395816869
 30
0.0
 11
244.5688570574349
 21
928.433939581687
 31
0.0
  0
ARC
  5
4DF
330
8C8
100
AcDbEntity
  8
1外形線
100
AcDbCircle
 10
245.0688570574349
 20
928.433939581687
 30
0.0
 40
0.5
100
AcDbArc
 50
90.0
 51
180.0
  0
LINE
  5
4E0
330
8C8
100
AcDbEntity
  8
1外形線
  6
Continuous
100
AcDbLine
 10
249.5688570574349
 20
928.9339395816867
 30
0.0
 11
245.0688570574349
 21
928.9339395816867
 31
0.0
  0
LINE
  5
4E1
330
8C8
100
AcDbEntity
  8
1外形線
100
AcDbLine
 10
281.2688570574347
 20
807.2339395816873
 30
0.0
 11
281.2688570574347
 21
763.0965328645268
 31
0.0
  0
LINE
  5
4E2
330
8C8
100
AcDbEntity
  8
1外形線
100
AcDbLine
 10
296.340405940426
 20
829.6462437962116
 30
0.0
 11
296.340405940426
 21
780.4003242846222
 31
0.0
  0
LINE
  5
4E3
330
8C8
100
AcDbEntity
  8
1外形線
100
AcDbLine
 10
288.3334834001971
 20
824.32250212003
 30
0.0
 11
288.3334834001971
 21
775.3001779734177
 31
0.0
  0
LINE
  5
4E4
330
8C8
100
AcDbEntity
  8
1外形線
100
AcDbLine
 10
282.9348945448881
 20
816.0578011786949
 30
0.0
 11
282.9348945448881
 21
767.8278309103322
 31
0.0
  0
LINE
  5
4E5
330
8C8
100
AcDbEntity
  8
1外形線
100
AcDbLine
 10
346.6688570574348
 20
807.2339395816873
 30
0.0
 11
346.6688570574348
 21
763.0965328645268
 31
0.0
  0
LINE
  5
4E6
330
8C8
100
AcDbEntity
  8
1外形線
100
AcDbLine
 10
339.6042307146724
 20
824.32250212003
 30
0.0
 11
339.6042307146724
 21
775.3001779734177
 31
0.0
  0
LINE
  5
4E7
330
8C8
100
AcDbEntity
  8
1外形線
100
AcDbLine
 10
345.0028195699814
 20
816.0578011786949
 30
0.0
 11
345.0028195699814
 21
767.8278309103322
 31
0.0
  0
LINE
  5
4E8
330
8C8
100
AcDbEntity
  8
1外形線
100
AcDbLine
 10
331.5973081744435
 20
829.6462437962116
 30
0.0
 11
331.5973081744435
 21
780.4003242846222
 31
0.0
  0
LINE
  5
4E9
330
8C8
100
AcDbEntity
  8
1外形線
100
AcDbLine
 10
321.4688570574348
 20
517.5339395816876
 30
0.0
 11
308.1806299088831
 21
517.5339395816875
 31
0.0
  0
LINE
  5
4EA
330
8C8
100
AcDbEntity
  8
1外形線
100
AcDbLine
 10
321.4688570574348
 20
518.2339395816874
 30
0.0
 11
308.1806299088831
 21
518.2339395816874
 31
0.0
  0
LINE
  5
4EB
330
8C8
100
AcDbEntity
  8
1外形線
100
AcDbLine
 10
321.4688570574348
 20
518.2339395816874
 30
0.0
 11
308.1806299088831
 21
518.2339395816874
 31
0.0
  0
LINE
  5
4EC
330
8C8
100
AcDbEntity
  8
1外形線
100
AcDbLine
 10
321.4688570574348
 20
517.5339395816876
 30
0.0
 11
334.7570842059864
 21
517.5339395816875
 31
0.0
  0
LINE
  5
4ED
330
8C8
100
AcDbEntity
  8
1外形線
100
AcDbLine
 10
321.4688570574348
 20
518.2339395816874
 30
0.0
 11
334.7570842059864
 21
518.2339395816874
 31
0.0
  0
LINE
  5
4EE
330
8C8
100
AcDbEntity
  8
1外形線
100
AcDbLine
 10
321.4688570574348
 20
518.2339395816874
 30
0.0
 11
334.7570842059864
 21
518.2339395816874
 31
0.0
  0
LINE
  5
4EF
330
8C8
100
AcDbEntity
  8
1外形線
100
AcDbLine
 10
343.9688570574348
 20
751.2339395816876
 30
0.0
 11
341.9688570574348
 21
751.2339395816876
 31
0.0
  0
LINE
  5
4F0
330
8C8
100
AcDbEntity
  8
1外形線
100
AcDbLine
 10
342.9688570574348
 20
754.2339395816873
 30
0.0
 11
342.4688570574348
 21
754.2339395816873
 31
0.0
  0
ARC
  5
4F1
330
8C8
100
AcDbEntity
  8
1外形線
100
AcDbCircle
 10
322.0599547572281
 20
757.2339395816883
 30
0.0
 40
22.0
100
AcDbArc
 50
5.215908570452643
 51
90.00000000000323
  0
ARC
  5
4F2
330
8C8
100
AcDbEntity
  8
1外形線
100
AcDbCircle
 10
322.4688570574345
 20
757.2339395816872
 30
0.0
 40
24.9
100
AcDbArc
 50
0.0
 51
90.0
  0
ARC
  5
4F3
330
8C8
100
AcDbEntity
  8
1外形線
100
AcDbCircle
 10
326.1688570574348
 20
741.2339395816872
 30
0.0
 40
21.2
100
AcDbArc
 50
270.0
 51
0.0
  0
ARC
  5
4F4
330
8C8
100
AcDbEntity
  8
1外形線
100
AcDbCircle
 10
324.9688570574348
 20
741.2339395816872
 30
0.0
 40
19.0
100
AcDbArc
 50
270.0
 51
0.0
  0
ARC
  5
4F5
330
8C8
100
AcDbEntity
  8
1外形線
100
AcDbCircle
 10
302.9688570574348
 20
741.2339395816872
 30
0.0
 40
19.0
100
AcDbArc
 50
180.0
 51
270.0
  0
ARC
  5
4F6
330
8C8
100
AcDbEntity
  8
1外形線
100
AcDbCircle
 10
301.7688570574347
 20
741.2339395816872
 30
0.0
 40
21.2
100
AcDbArc
 50
180.0
 51
270.9459638637135
  0
LINE
  5
4F7
330
8C8
100
AcDbEntity
  8
1外形線
100
AcDbLine
 10
291.9688570574343
 20
757.2339395816872
 30
0.0
 11
291.9688570574343
 21
725.7420061968579
 31
0.0
  0
LINE
  5
4F8
330
8C8
100
AcDbEntity
  8
1外形線
100
AcDbLine
 10
335.9688570574352
 20
757.2339395816872
 30
0.0
 11
335.9688570574352
 21
725.7420061968579
 31
0.0
  0
LINE
  5
4F9
330
8C8
100
AcDbEntity
  8
1外形線
100
AcDbLine
 10
313.9688570574348
 20
724.2339395816872
 30
0.0
 11
294.4835756831961
 21
724.2339395816872
 31
0.0
  0
LINE
  5
4FA
330
8C8
100
AcDbEntity
  8
1外形線
100
AcDbLine
 10
313.9688570574348
 20
720.0339395816874
 30
0.0
 11
301.8688570574346
 21
720.0339395816874
 31
0.0
  0
LINE
  5
4FB
330
8C8
100
AcDbEntity
  8
1外形線
100
AcDbLine
 10
313.9688570574348
 20
722.2339395816868
 30
0.0
 11
302.9688570574348
 21
722.2339395816873
 31
0.0
  0
LINE
  5
4FC
330
8C8
100
AcDbEntity
  8
1外形線
100
AcDbLine
 10
313.9688570574348
 20
720.0339395816874
 30
0.0
 11
326.1688570574348
 21
720.0339395816874
 31
0.0
  0
LINE
  5
4FD
330
8C8
100
AcDbEntity
  8
1外形線
100
AcDbLine
 10
313.9688570574348
 20
724.2339395816872
 30
0.0
 11
333.4541384316731
 21
724.2339395816872
 31
0.0
  0
LINE
  5
4FE
330
8C8
100
AcDbEntity
  8
1外形線
100
AcDbLine
 10
313.9688570574348
 20
722.2339395816868
 30
0.0
 11
324.9688570574348
 21
722.2339395816873
 31
0.0
  0
LINE
  5
4FF
330
8C8
100
AcDbEntity
  8
1外形線
100
AcDbLine
 10
313.9688570574348
 20
782.1339395816875
 30
0.0
 11
305.468857057435
 21
782.1339395816875
 31
0.0
  0
LINE
  5
500
330
8C8
100
AcDbEntity
  8
1外形線
100
AcDbLine
 10
305.877759357642
 20
779.2339395816883
 30
0.0
 11
313.9688570574348
 21
779.2339395816878
 31
0.0
  0
LINE
  5
501
330
8C8
100
AcDbEntity
  8
1外形線
100
AcDbLine
 10
296.7126079677299
 20
777.2339395816883
 30
0.0
 11
313.9688570574348
 21
777.2339395816886
 31
0.0
  0
LINE
  5
502
330
8C8
100
AcDbEntity
  8
1外形線
100
AcDbLine
 10
296.0623386895839
 20
776.9229597987806
 30
0.0
 11
294.9907630861865
 21
758.2708479208113
 31
0.0
  0
ARC
  5
503
330
8C8
100
AcDbEntity
  8
1外形線
100
AcDbCircle
 10
305.8777593576412
 20
757.2339395816883
 30
0.0
 40
22.0
100
AcDbArc
 50
89.99999999999673
 51
174.7840914295472
  0
ARC
  5
504
330
8C8
100
AcDbEntity
  8
1外形線
100
AcDbCircle
 10
305.468857057435
 20
757.2339395816872
 30
0.0
 40
24.9
100
AcDbArc
 50
90.0
 51
180.0
  0
LINE
  5
505
330
8C8
100
AcDbEntity
  8
1外形線
100
AcDbLine
 10
288.4688570574343
 20
757.2339395816872
 30
0.0
 11
293.8925739210933
 21
757.2339395816872
 31
0.0
  0
LINE
  5
506
330
8C8
100
AcDbEntity
  8
1外形線
  6
Continuous
100
AcDbLine
 10
280.5688570574348
 20
741.2339395816872
 30
0.0
 11
280.5688570574348
 21
751.2339395816876
 31
0.0
  0
LINE
  5
507
330
8C8
100
AcDbEntity
  8
1外形線
  6
Continuous
100
AcDbLine
 10
285.9688570574348
 20
732.7486582074489
 30
0.0
 11
285.9688570574348
 21
751.2339395816876
 31
0.0
  0
LINE
  5
508
330
8C8
100
AcDbEntity
  8
1外形線
  6
Continuous
100
AcDbLine
 10
283.9688570574348
 20
741.2339395816872
 30
0.0
 11
283.9688570574348
 21
759.2339395816873
 31
0.0
  0
LINE
  5
509
330
8C8
100
AcDbEntity
  8
1外形線
100
AcDbLine
 10
283.9688570574348
 20
759.2339395816873
 30
0.0
 11
283.6474810136337
 21
759.2339395816873
 31
0.0
  0
ARC
  5
50A
330
8C8
100
AcDbEntity
  8
1外形線
100
AcDbCircle
 10
283.6474810136337
 20
758.7339395816873
 30
0.0
 40
0.5
100
AcDbArc
 50
90.0
 51
179.0000000000014
  0
LINE
  5
50B
330
8C8
100
AcDbEntity
  8
1外形線
100
AcDbLine
 10
281.7688570574347
 20
754.2339395816873
 30
0.0
 11
281.2688570574347
 21
757.2339395816872
 31
0.0
  0
LINE
  5
50C
330
8C8
100
AcDbEntity
  8
1外形線
100
AcDbLine
 10
283.0688570574346
 20
754.2339395816873
 30
0.0
 11
281.7688570574347
 21
754.2339395816873
 31
0.0
  0
LINE
  5
50D
330
8C8
100
AcDbEntity
  8
1外形線
100
AcDbLine
 10
280.5688570574348
 20
751.2339395816876
 30
0.0
 11
281.2688570574347
 21
751.2339395816883
 31
0.0
  0
LINE
  5
50E
330
8C8
100
AcDbEntity
  8
1外形線
100
AcDbLine
 10
281.2688570574347
 20
751.2339395816873
 30
0.0
 11
281.7688570574347
 21
754.2339395816873
 31
0.0
  0
LINE
  5
50F
330
8C8
100
AcDbEntity
  8
1外形線
100
AcDbLine
 10
280.5688570574348
 20
757.2339395816872
 30
0.0
 11
281.2688570574347
 21
757.2339395816872
 31
0.0
  0
LINE
  5
510
330
8C8
100
AcDbEntity
  8
1外形線
100
AcDbLine
 10
283.0688570574346
 20
754.2339395816873
 30
0.0
 11
283.1475571660554
 21
758.7426657849058
 31
0.0
  0
ARC
  5
511
330
8C8
100
AcDbEntity
  8
1外形線
100
AcDbCircle
 10
285.4688570574348
 20
754.7339395816873
 30
0.0
 40
0.5
100
AcDbArc
 50
270.0
 51
0.0
  0
LINE
  5
512
330
8C8
100
AcDbEntity
  8
1外形線
100
AcDbLine
 10
283.9688570574348
 20
751.2339395816876
 30
0.0
 11
285.9688570574348
 21
751.2339395816876
 31
0.0
  0
LINE
  5
513
330
8C8
100
AcDbEntity
  8
1外形線
100
AcDbLine
 10
284.9688570574348
 20
754.2339395816873
 30
0.0
 11
285.4688570574348
 21
754.2339395816873
 31
0.0
  0
ARC
  5
514
330
8C8
100
AcDbEntity
  8
1外形線
100
AcDbCircle
 10
284.9688570574348
 20
755.2339395816873
 30
0.0
 40
1.0
100
AcDbArc
 50
180.0
 51
270.0
  0
LINE
  5
515
330
8C8
100
AcDbEntity
  8
1外形線
  6
Continuous
100
AcDbLine
 10
285.9688570574348
 20
754.7339395816873
 30
0.0
 11
285.9688570574348
 21
766.5953288589712
 31
0.0
  0
LINE
  5
516
330
8C8
100
AcDbEntity
  8
1外形線
100
AcDbLine
 10
288.4688570574343
 20
757.2339395816872
 30
0.0
 11
288.4688570574348
 21
759.2339395816873
 31
0.0
  0
LINE
  5
517
330
8C8
100
AcDbEntity
  8
1外形線
100
AcDbLine
 10
285.9688570574348
 20
759.2339395816874
 30
0.0
 11
288.4688570574348
 21
759.2339395816873
 31
0.0
  0
ARC
  5
518
330
8C8
100
AcDbEntity
  8
1外形線
100
AcDbCircle
 10
293.8925739210933
 20
758.3339395816873
 30
0.0
 40
1.1
100
AcDbArc
 50
270.0
 51
356.7119356159093
  0
ARC
  5
519
330
8C8
100
AcDbEntity
  8
1外形線
100
AcDbCircle
 10
301.7688570574349
 20
791.2339395816872
 30
0.0
 40
21.2
100
AcDbArc
 50
180.0
 51
194.7645771277626
  0
LINE
  5
51A
330
8C8
100
AcDbEntity
  8
1外形線
100
AcDbLine
 10
280.5688570574346
 20
801.2339395816875
 30
0.0
 11
281.2688570574349
 21
801.2339395816884
 31
0.0
  0
LINE
  5
51B
330
8C8
100
AcDbEntity
  8
1外形線
  6
Continuous
100
AcDbLine
 10
280.5688570574346
 20
791.2339395816872
 30
0.0
 11
280.5688570574346
 21
801.2339395816875
 31
0.0
  0
LINE
  5
51C
330
8C8
100
AcDbEntity
  8
1外形線
  6
Continuous
100
AcDbLine
 10
281.2688570574349
 20
791.2339395816872
 30
0.0
 11
281.2688570574349
 21
801.2339395816878
 31
0.0
  0
LINE
  5
51D
330
8C8
100
AcDbEntity
  8
1外形線
100
AcDbLine
 10
331.8753754252856
 20
776.9229597987806
 30
0.0
 11
332.9469510286829
 21
758.2708479208113
 31
0.0
  0
LINE
  5
51E
330
8C8
100
AcDbEntity
  8
1外形線
  6
Continuous
100
AcDbLine
 10
341.9688570574348
 20
732.7486582074489
 30
0.0
 11
341.9688570574348
 21
751.2339395816876
 31
0.0
  0
LINE
  5
51F
330
8C8
100
AcDbEntity
  8
1外形線
100
AcDbLine
 10
339.4688570574352
 20
757.2339395816872
 30
0.0
 11
334.045140193776
 21
757.2339395816872
 31
0.0
  0
ARC
  5
520
330
8C8
100
AcDbEntity
  8
1外形線
100
AcDbCircle
 10
334.045140193776
 20
758.3339395816873
 30
0.0
 40
1.1
100
AcDbArc
 50
183.2880643840907
 51
270.0
  0
LINE
  5
521
330
8C8
100
AcDbEntity
  8
1外形線
100
AcDbLine
 10
341.9688570574348
 20
759.2339395816874
 30
0.0
 11
339.4688570574348
 21
759.2339395816873
 31
0.0
  0
ARC
  5
522
330
8C8
100
AcDbEntity
  8
1外形線
100
AcDbCircle
 10
342.4688570574348
 20
754.7339395816873
 30
0.0
 40
0.5
100
AcDbArc
 50
180.0
 51
270.0
  0
LINE
  5
523
330
8C8
100
AcDbEntity
  8
1外形線
  6
Continuous
100
AcDbLine
 10
341.9688570574348
 20
754.7339395816873
 30
0.0
 11
341.9688570574348
 21
766.5953288589712
 31
0.0
  0
LINE
  5
524
330
8C8
100
AcDbEntity
  8
1外形線
100
AcDbLine
 10
339.4688570574352
 20
757.2339395816872
 30
0.0
 11
339.4688570574348
 21
759.2339395816873
 31
0.0
  0
LINE
  5
525
330
8C8
100
AcDbEntity
  8
1外形線
100
AcDbLine
 10
331.2251061471396
 20
777.2339395816883
 30
0.0
 11
313.9688570574348
 21
777.2339395816886
 31
0.0
  0
LINE
  5
526
330
8C8
100
AcDbEntity
  8
1外形線
100
AcDbLine
 10
313.9688570574348
 20
782.1339395816875
 30
0.0
 11
322.4688570574345
 21
782.1339395816875
 31
0.0
  0
LINE
  5
527
330
8C8
100
AcDbEntity
  8
1外形線
100
AcDbLine
 10
322.0599547572275
 20
779.2339395816883
 30
0.0
 11
313.9688570574348
 21
779.2339395816878
 31
0.0
  0
LINE
  5
528
330
8C8
100
AcDbEntity
  8
1外形線
  6
Continuous
100
AcDbLine
 10
343.9688570574348
 20
741.2339395816872
 30
0.0
 11
343.9688570574348
 21
759.2339395816873
 31
0.0
  0
LINE
  5
529
330
8C8
100
AcDbEntity
  8
1外形線
  6
Continuous
100
AcDbLine
 10
347.3688570574345
 20
741.2339395816872
 30
0.0
 11
347.3688570574345
 21
751.2339395816876
 31
0.0
  0
LINE
  5
52A
330
8C8
100
AcDbEntity
  8
1外形線
100
AcDbLine
 10
343.9688570574348
 20
759.2339395816873
 30
0.0
 11
344.2902331012358
 21
759.2339395816873
 31
0.0
  0
ARC
  5
52B
330
8C8
100
AcDbEntity
  8
1外形線
100
AcDbCircle
 10
344.2902331012358
 20
758.7339395816873
 30
0.0
 40
0.5
100
AcDbArc
 50
0.9999999999985195
 51
90.0
  0
ARC
  5
52C
330
8C8
100
AcDbEntity
  8
1外形線
100
AcDbCircle
 10
342.9688570574348
 20
755.2339395816873
 30
0.0
 40
1.0
100
AcDbArc
 50
270.0
 51
0.0
  0
LINE
  5
52D
330
8C8
100
AcDbEntity
  8
1外形線
100
AcDbLine
 10
346.1688570574348
 20
754.2339395816873
 30
0.0
 11
346.6688570574348
 21
757.2339395816872
 31
0.0
  0
LINE
  5
52E
330
8C8
100
AcDbEntity
  8
1外形線
100
AcDbLine
 10
347.3688570574345
 20
751.2339395816876
 30
0.0
 11
346.6688570574348
 21
751.2339395816883
 31
0.0
  0
LINE
  5
52F
330
8C8
100
AcDbEntity
  8
1外形線
100
AcDbLine
 10
346.6688570574348
 20
751.2339395816873
 30
0.0
 11
346.1688570574348
 21
754.2339395816873
 31
0.0
  0
LINE
  5
530
330
8C8
100
AcDbEntity
  8
1外形線
100
AcDbLine
 10
344.8688570574349
 20
754.2339395816873
 30
0.0
 11
346.1688570574348
 21
754.2339395816873
 31
0.0
  0
LINE
  5
531
330
8C8
100
AcDbEntity
  8
1外形線
100
AcDbLine
 10
347.3688570574345
 20
757.2339395816872
 30
0.0
 11
346.6688570574348
 21
757.2339395816872
 31
0.0
  0
LINE
  5
532
330
8C8
100
AcDbEntity
  8
1外形線
100
AcDbLine
 10
344.8688570574349
 20
754.2339395816873
 30
0.0
 11
344.7901569488141
 21
758.7426657849058
 31
0.0
  0
ARC
  5
533
330
8C8
100
AcDbEntity
  8
1外形線
100
AcDbCircle
 10
326.1688570574345
 20
791.2339395816872
 30
0.0
 40
21.2
100
AcDbArc
 50
345.2354228722372
 51
0.0
  0
LINE
  5
534
330
8C8
100
AcDbEntity
  8
1外形線
100
AcDbLine
 10
347.3688570574349
 20
801.2339395816875
 30
0.0
 11
346.6688570574345
 21
801.2339395816884
 31
0.0
  0
LINE
  5
535
330
8C8
100
AcDbEntity
  8
1外形線
  6
Continuous
100
AcDbLine
 10
347.3688570574349
 20
791.2339395816872
 30
0.0
 11
347.3688570574349
 21
801.2339395816875
 31
0.0
  0
LINE
  5
536
330
8C8
100
AcDbEntity
  8
1外形線
  6
Continuous
100
AcDbLine
 10
346.6688570574345
 20
791.2339395816872
 30
0.0
 11
346.6688570574345
 21
801.2339395816878
 31
0.0
  0
ARC
  5
537
330
8C8
100
AcDbEntity
  8
1外形線
100
AcDbCircle
 10
322.4688570574348
 20
807.2339395816873
 30
0.0
 40
24.19999999999999
100
AcDbArc
 50
0.0
 51
90.0
  0
ARC
  5
538
330
8C8
100
AcDbEntity
  8
1外形線
100
AcDbCircle
 10
322.4688570574348
 20
807.2339395816873
 30
0.0
 40
24.9
100
AcDbArc
 50
0.0
 51
90.0
  0
LINE
  5
539
330
8C8
100
AcDbEntity
  8
1外形線
100
AcDbLine
 10
313.9688570574348
 20
832.1339395816876
 30
0.0
 11
305.4688570574348
 21
832.1339395816876
 31
0.0
  0
LINE
  5
53A
330
8C8
100
AcDbEntity
  8
1外形線
100
AcDbLine
 10
313.9688570574348
 20
831.433939581688
 30
0.0
 11
305.468857057434
 21
831.4339395816872
 31
0.0
  0
ARC
  5
53B
330
8C8
100
AcDbEntity
  8
1外形線
100
AcDbCircle
 10
305.4688570574348
 20
807.2339395816873
 30
0.0
 40
24.19999999999999
100
AcDbArc
 50
90.0
 51
180.0
  0
ARC
  5
53C
330
8C8
100
AcDbEntity
  8
1外形線
100
AcDbCircle
 10
305.4688570574348
 20
807.2339395816873
 30
0.0
 40
24.9
100
AcDbArc
 50
90.0
 51
180.0
  0
LINE
  5
53D
330
8C8
100
AcDbEntity
  8
1外形線
100
AcDbLine
 10
280.5688570574346
 20
807.2339395816873
 30
0.0
 11
281.2688570574349
 21
807.2339395816873
 31
0.0
  0
LINE
  5
53E
330
8C8
100
AcDbEntity
  8
1外形線
100
AcDbLine
 10
313.9688570574348
 20
832.1339395816876
 30
0.0
 11
322.4688570574348
 21
832.1339395816876
 31
0.0
  0
LINE
  5
53F
330
8C8
100
AcDbEntity
  8
1外形線
100
AcDbLine
 10
313.9688570574348
 20
831.433939581688
 30
0.0
 11
322.4688570574354
 21
831.4339395816872
 31
0.0
  0
LINE
  5
540
330
8C8
100
AcDbEntity
  8
1外形線
100
AcDbLine
 10
347.3688570574349
 20
807.2339395816873
 30
0.0
 11
346.6688570574345
 21
807.2339395816873
 31
0.0
  0
ENDSEC
  0
SECTION
  2
OBJECTS
  0
DICTIONARY
  5
865
330
0
100
AcDbDictionary
281
     1
  3
ACAD_CIP_PREVIOUS_PRODUCT_INFO
350
8DC
  3
ACAD_COLOR
350
8BB
  3
ACAD_DETAILVIEWSTYLE
350
8C2
  3
ACAD_GROUP
350
866
  3
ACAD_LAYOUT
350
8BA
  3
ACAD_MATERIAL
350
869
  3
ACAD_MLEADERSTYLE
350
8BE
  3
ACAD_MLINESTYLE
350
8B7
  3
ACAD_PLOTSETTINGS
350
8B9
  3
ACAD_PLOTSTYLENAME
350
867
  3
ACAD_SCALELIST
350
89B
  3
ACAD_SECTIONVIEWSTYLE
350
8C0
  3
ACAD_TABLESTYLE
350
8BC
  3
ACAD_VISUALSTYLE
350
882
  3
ACDB_RECOMPOSE_DATA
350
8F2
  3
AcDbVariableDictionary
350
8E5
  0
DICTIONARY
  5
8DF
330
8AD
100
AcDbDictionary
280
     1
281
     1
  3
ADSK_XREC_LAYER_RECONCILED
360
8E0
  0
DICTIONARY
  5
8E1
330
8CD
100
AcDbDictionary
280
     1
281
     1
  3
ADSK_XREC_LAYER_RECONCILED
360
8E2
  0
DICTIONARY
  5
8E3
330
8DB
100
AcDbDictionary
280
     1
281
     1
  3
ADSK_XREC_LAYER_RECONCILED
360
8E4
  0
XRECORD
  5
8DC
102
{ACAD_REACTORS
330
865
102
}
330
865
100
AcDbXrecord
280
     1
300
ACDLT
300
2020
300

  0
DICTIONARY
  5
8BB
102
{ACAD_REACTORS
330
865
102
}
330
865
100
AcDbDictionary
281
     1
  0
DICTIONARY
  5
8C2
102
{ACAD_REACTORS
330
865
102
}
330
865
100
AcDbDictionary
281
     1
  3
Imperial24
350
8C3
  0
DICTIONARY
  5
866
102
{ACAD_REACTORS
330
865
102
}
330
865
100
AcDbDictionary
281
     1
  0
DICTIONARY
  5
8BA
102
{ACAD_REACTORS
330
865
102
}
330
865
100
AcDbDictionary
281
     1
  3
Model
350
8CB
  3
レイアウト1
350
8C7
  0
DICTIONARY
  5
869
102
{ACAD_REACTORS
330
865
102
}
330
865
100
AcDbDictionary
281
     1
  3
ByBlock
350
872
  3
ByLayer
350
86A
  3
Global
350
87A
  0
DICTIONARY
  5
8BE
102
{ACAD_REACTORS
330
865
102
}
330
865
100
AcDbDictionary
281
     1
  3
Standard
350
8BF
  0
DICTIONARY
  5
8B7
102
{ACAD_REACTORS
330
865
102
}
330
865
100
AcDbDictionary
281
     1
  3
Standard
350
8B8
  0
DICTIONARY
  5
8B9
102
{ACAD_REACTORS
330
865
102
}
330
865
100
AcDbDictionary
281
     1
  0
ACDBDICTIONARYWDFLT
  5
867
102
{ACAD_REACTORS
330
865
102
}
330
865
100
AcDbDictionary
281
     1
  3
Normal
350
868
100
AcDbDictionaryWithDefault
340
868
  0
DICTIONARY
  5
89B
102
{ACAD_REACTORS
330
865
102
}
330
865
100
AcDbDictionary
281
     1
  3
A0
350
89C
  3
A1
350
89D
  3
A2
350
89E
  3
A3
350
89F
  3
A4
350
8A0
  3
A5
350
8A1
  3
A6
350
8A2
  3
A7
350
8A3
  3
A8
350
8A4
  3
A9
350
8A5
  3
B0
350
8A6
  3
B1
350
8A7
  3
B2
350
8A8
  3
B3
350
8A9
  3
B4
350
8AA
  3
B5
350
8AB
  3
B6
350
8AC
  0
DICTIONARY
  5
8C0
102
{ACAD_REACTORS
330
865
102
}
330
865
100
AcDbDictionary
281
     1
  3
Imperial24
350
8C1
  0
DICTIONARY
  5
8BC
102
{ACAD_REACTORS
330
865
102
}
330
865
100
AcDbDictionary
281
     1
  3
Standard
350
8BD
  0
DICTIONARY
  5
882
102
{ACAD_REACTORS
330
865
102
}
330
865
100
AcDbDictionary
281
     1
  3
2dWireframe
350
888
  3
Basic
350
887
  3
Brighten
350
88E
  3
ColorChange
350
892
  3
Conceptual
350
88B
  3
Dim
350
88D
  3
EdgeColorOff
350
89A
  3
Facepattern
350
891
  3
Flat
350
883
  3
FlatWithEdges
350
884
  3
Gouraud
350
885
  3
GouraudWithEdges
350
886
  3
Hidden
350
88A
  3
JitterOff
350
898
  3
Linepattern
350
890
  3
OverhangOff
350
899
  3
Realistic
350
88C
  3
Shaded
350
897
  3
Shaded with edges
350
896
  3
Shades of Gray
350
893
  3
Sketchy
350
894
  3
Thicken
350
88F
  3
Wireframe
350
889
  3
X-Ray
350
895
  0
XRECORD
  5
8F2
102
{ACAD_REACTORS
330
865
102
}
330
865
100
AcDbXrecord
280
     1
 90
        1
330
8BD
  0
DICTIONARY
  5
8E5
102
{ACAD_REACTORS
330
865
102
}
330
865
100
AcDbDictionary
281
     1
  3
CANNOSCALE
350
8EB
  3
CMLEADERSTYLE
350
8E7
  3
CTABLESTYLE
350
8E6
  3
CVIEWDETAILSTYLE
350
8E8
  3
CVIEWSECTIONSTYLE
350
8E9
  3
LAYEREVAL
350
8ED
  3
LAYERNOTIFY
350
8EE
  3
LIGHTINGUNITS
350
8EC
  3
MSLTSCALE
350
8EA
  0
XRECORD
  5
8E0
102
{ACAD_REACTORS
330
8DF
102
}
330
8DF
100
AcDbXrecord
280
     1
290
     1
  0
XRECORD
  5
8E2
102
{ACAD_REACTORS
330
8E1
102
}
330
8E1
100
AcDbXrecord
280
     1
290
     1
  0
XRECORD
  5
8E4
102
{ACAD_REACTORS
330
8E3
102
}
330
8E3
100
AcDbXrecord
280
     1
290
     1
  0
ACDBDETAILVIEWSTYLE
  5
8C3
102
{ACAD_XDICTIONARY
360
925
102
}
102
{ACAD_REACTORS
330
8C2
102
}
330
8C2
100
AcDbModelDocViewStyle
 70
     0
  3
Imperial24
290
     0
100
AcDbDetailViewStyle
 70
     0
 71
     0
 90
        3
 71
     1
340
8AE
 62
   256
 40
0.24
340
0
 62
   256
 40
0.24
300

 40
0.36
280
     3
 71
     2
340
8B5
 90
       25
 62
   256
 71
     3
340
8AE
 62
   256
 40
0.24
 90
        1
 40
0.75
 90
        1
300
%<\AcVar ViewType \f "%tc1">% %<\AcVar ViewDetailId>%\PSCALE %<\AcVar ViewScale \f "%sn">%
 71
     4
340
8B5
 90
       25
 62
   256
340
8B5
 90
       25
 62
   256
280
     0
  0
LAYOUT
  5
8CB
102
{ACAD_REACTORS
330
8BA
102
}
330
8BA
100
AcDbPlotSettings
  1

  2
RICOH IPSiO SP 6320 RPCS (PR1511-004)
  4

  6

 40
0.0
 41
0.0
 42
0.0
 43
0.0
 44
0.0
 45
0.0
 46
0.0
 47
0.0
 48
0.0
 49
0.0
140
0.0
141
0.0
142
1.0
143
1.0
 70
  1712
 72
     0
 73
     0
 74
     0
  7

 75
     0
147
1.0
 76
     0
 77
     2
 78
   300
148
0.0
149
0.0
100
AcDbLayout
  1
Model
 70
     1
 71
     0
 10
0.0
 20
0.0
 11
12.0
 21
9.0
 12
0.0
 22
0.0
 32
0.0
 14
0.0
 24
0.0
 34
0.0
 15
0.0
 25
0.0
 35
0.0
146
0.0
 13
0.0
 23
0.0
 33
0.0
 16
1.0
 26
0.0
 36
0.0
 17
0.0
 27
1.0
 37
0.0
 76
     0
330
8C8
331
8CC
  0
LAYOUT
  5
8C7
102
{ACAD_REACTORS
330
8BA
102
}
330
8BA
100
AcDbPlotSettings
  1

  2
RICOH IPSiO SP 6320 RPCS (PR1511-004)
  4

  6

 40
0.0
 41
0.0
 42
0.0
 43
0.0
 44
0.0
 45
0.0
 46
0.0
 47
0.0
 48
0.0
 49
0.0
140
0.0
141
0.0
142
1.0
143
1.0
 70
   688
 72
     0
 73
     0
 74
     5
  7

 75
    16
147
1.0
 76
     0
 77
     2
 78
   300
148
0.0
149
0.0
100
AcDbLayout
  1
レイアウト1
 70
     1
 71
     1
 10
0.0
 20
0.0
 11
420.0
 21
297.0
 12
0.0
 22
0.0
 32
0.0
 14
1.000000000000000E+20
 24
1.000000000000000E+20
 34
1.000000000000000E+20
 15
-1.000000000000000E+20
 25
-1.000000000000000E+20
 35
-1.000000000000000E+20
146
0.0
 13
0.0
 23
0.0
 33
0.0
 16
1.0
 26
0.0
 36
0.0
 17
0.0
 27
1.0
 37
0.0
 76
     0
330
8C4
  0
MATERIAL
  5
872
102
{ACAD_XDICTIONARY
360
873
102
}
102
{ACAD_REACTORS
330
869
102
}
330
869
100
AcDbMaterial
  1
ByBlock
 72
     0
 43
0.0208333333333333
 43
0.0
 43
0.0
 43
0.0
 43
0.0
 43
0.0208333333333333
 43
0.0
 43
0.0
 43
0.0
 43
0.0
 43
1.0
 43
0.0
 43
0.0
 43
0.0
 43
0.0
 43
1.0
 77
     0
 47
0.0208333333333333
 47
0.0
 47
0.0
 47
0.0
 47
0.0
 47
0.0208333333333333
 47
0.0
 47
0.0
 47
0.0
 47
0.0
 47
1.0
 47
0.0
 47
0.0
 47
0.0
 47
0.0
 47
1.0
171
     0
 49
0.0208333333333333
 49
0.0
 49
0.0
 49
0.0
 49
0.0
 49
0.0208333333333333
 49
0.0
 49
0.0
 49
0.0
 49
0.0
 49
1.0
 49
0.0
 49
0.0
 49
0.0
 49
0.0
 49
1.0
175
     0
142
0.0208333333333333
142
0.0
142
0.0
142
0.0
142
0.0
142
0.0208333333333333
142
0.0
142
0.0
142
0.0
142
0.0
142
1.0
142
0.0
142
0.0
142
0.0
142
0.0
142
1.0
179
     0
144
0.0208333333333333
144
0.0
144
0.0
144
0.0
144
0.0
144
0.0208333333333333
144
0.0
144
0.0
144
0.0
144
0.0
144
1.0
144
0.0
144
0.0
144
0.0
144
0.0
144
1.0
147
0.0208333333333333
147
0.0
147
0.0
147
0.0
147
0.0
147
0.0208333333333333
147
0.0
147
0.0
147
0.0
147
0.0
147
1.0
147
0.0
147
0.0
147
0.0
147
0.0
147
1.0
  0
MATERIAL
  5
86A
102
{ACAD_XDICTIONARY
360
86B
102
}
102
{ACAD_REACTORS
330
869
102
}
330
869
100
AcDbMaterial
  1
ByLayer
 72
     0
 43
0.0208333333333333
 43
0.0
 43
0.0
 43
0.0
 43
0.0
 43
0.0208333333333333
 43
0.0
 43
0.0
 43
0.0
 43
0.0
 43
1.0
 43
0.0
 43
0.0
 43
0.0
 43
0.0
 43
1.0
 77
     0
 47
0.0208333333333333
 47
0.0
 47
0.0
 47
0.0
 47
0.0
 47
0.0208333333333333
 47
0.0
 47
0.0
 47
0.0
 47
0.0
 47
1.0
 47
0.0
 47
0.0
 47
0.0
 47
0.0
 47
1.0
171
     0
 49
0.0208333333333333
 49
0.0
 49
0.0
 49
0.0
 49
0.0
 49
0.0208333333333333
 49
0.0
 49
0.0
 49
0.0
 49
0.0
 49
1.0
 49
0.0
 49
0.0
 49
0.0
 49
0.0
 49
1.0
175
     0
142
0.0208333333333333
142
0.0
142
0.0
142
0.0
142
0.0
142
0.0208333333333333
142
0.0
142
0.0
142
0.0
142
0.0
142
1.0
142
0.0
142
0.0
142
0.0
142
0.0
142
1.0
179
     0
144
0.0208333333333333
144
0.0
144
0.0
144
0.0
144
0.0
144
0.0208333333333333
144
0.0
144
0.0
144
0.0
144
0.0
144
1.0
144
0.0
144
0.0
144
0.0
144
0.0
144
1.0
147
0.0208333333333333
147
0.0
147
0.0
147
0.0
147
0.0
147
0.0208333333333333
147
0.0
147
0.0
147
0.0
147
0.0
147
1.0
147
0.0
147
0.0
147
0.0
147
0.0
147
1.0
  0
MATERIAL
  5
87A
102
{ACAD_XDICTIONARY
360
87B
102
}
102
{ACAD_REACTORS
330
869
102
}
330
869
100
AcDbMaterial
  1
Global
 72
     0
 43
0.0208333333333333
 43
0.0
 43
0.0
 43
0.0
 43
0.0
 43
0.0208333333333333
 43
0.0
 43
0.0
 43
0.0
 43
0.0
 43
1.0
 43
0.0
 43
0.0
 43
0.0
 43
0.0
 43
1.0
 77
     0
 47
0.0208333333333333
 47
0.0
 47
0.0
 47
0.0
 47
0.0
 47
0.0208333333333333
 47
0.0
 47
0.0
 47
0.0
 47
0.0
 47
1.0
 47
0.0
 47
0.0
 47
0.0
 47
0.0
 47
1.0
171
     0
 49
0.0208333333333333
 49
0.0
 49
0.0
 49
0.0
 49
0.0
 49
0.0208333333333333
 49
0.0
 49
0.0
 49
0.0
 49
0.0
 49
1.0
 49
0.0
 49
0.0
 49
0.0
 49
0.0
 49
1.0
175
     0
142
0.0208333333333333
142
0.0
142
0.0
142
0.0
142
0.0
142
0.0208333333333333
142
0.0
142
0.0
142
0.0
142
0.0
142
1.0
142
0.0
142
0.0
142
0.0
142
0.0
142
1.0
179
     0
144
0.0208333333333333
144
0.0
144
0.0
144
0.0
144
0.0
144
0.0208333333333333
144
0.0
144
0.0
144
0.0
144
0.0
144
1.0
144
0.0
144
0.0
144
0.0
144
0.0
144
1.0
147
0.0208333333333333
147
0.0
147
0.0
147
0.0
147
0.0
147
0.0208333333333333
147
0.0
147
0.0
147
0.0
147
0.0
147
1.0
147
0.0
147
0.0
147
0.0
147
0.0
147
1.0
  0
MLEADERSTYLE
  5
8BF
102
{ACAD_REACTORS
330
8BE
102
}
330
8BE
100
AcDbMLeaderStyle
179
     2
170
     2
171
     1
172
     0
 90
        2
 40
0.0
 41
0.0
173
     1
 91
-1056964608
340
8B3
 92
       -2
290
     1
 42
0.09
291
     1
 43
0.36
  3
Standard
 44
0.18
300

342
8AE
174
     1
178
     6
175
     1
176
     0
 93
-1056964608
 45
0.18
292
     0
297
     0
 46
0.18
 94
-1056964608
 47
1.0
 49
1.0
140
1.0
293
     1
141
0.0
294
     1
177
     0
142
1.0
295
     0
296
     0
143
0.125
271
     0
272
     9
273
     9
  0
MLINESTYLE
  5
8B8
102
{ACAD_REACTORS
330
8B7
102
}
330
8B7
100
AcDbMlineStyle
  2
STANDARD
 70
     0
  3

 62
   256
 51
90.0
 52
90.0
 71
     2
 49
0.5
 62
   256
  6
BYLAYER
 49
-0.5
 62
   256
  6
BYLAYER
  0
ACDBPLACEHOLDER
  5
868
102
{ACAD_REACTORS
330
867
102
}
330
867
  0
SCALE
  5
89C
102
{ACAD_REACTORS
330
89B
102
}
330
89B
100
AcDbScale
 70
     0
300
1:1
140
1.0
141
1.0
290
     1
  0
SCALE
  5
89D
102
{ACAD_REACTORS
330
89B
102
}
330
89B
100
AcDbScale
 70
     0
300
1/128" = 1'-0"
140
0.0078125
141
12.0
290
     0
  0
SCALE
  5
89E
102
{ACAD_REACTORS
330
89B
102
}
330
89B
100
AcDbScale
 70
     0
300
1/64" = 1'-0"
140
0.015625
141
12.0
290
     0
  0
SCALE
  5
89F
102
{ACAD_REACTORS
330
89B
102
}
330
89B
100
AcDbScale
 70
     0
300
1/32" = 1'-0"
140
0.03125
141
12.0
290
     0
  0
SCALE
  5
8A0
102
{ACAD_REACTORS
330
89B
102
}
330
89B
100
AcDbScale
 70
     0
300
1/16" = 1'-0"
140
0.0625
141
12.0
290
     0
  0
SCALE
  5
8A1
102
{ACAD_REACTORS
330
89B
102
}
330
89B
100
AcDbScale
 70
     0
300
3/32" = 1'-0"
140
0.09375
141
12.0
290
     0
  0
SCALE
  5
8A2
102
{ACAD_REACTORS
330
89B
102
}
330
89B
100
AcDbScale
 70
     0
300
1/8" = 1'-0"
140
0.125
141
12.0
290
     0
  0
SCALE
  5
8A3
102
{ACAD_REACTORS
330
89B
102
}
330
89B
100
AcDbScale
 70
     0
300
3/16" = 1'-0"
140
0.1875
141
12.0
290
     0
  0
SCALE
  5
8A4
102
{ACAD_REACTORS
330
89B
102
}
330
89B
100
AcDbScale
 70
     0
300
1/4" = 1'-0"
140
0.25
141
12.0
290
     0
  0
SCALE
  5
8A5
102
{ACAD_REACTORS
330
89B
102
}
330
89B
100
AcDbScale
 70
     0
300
3/8" = 1'-0"
140
0.375
141
12.0
290
     0
  0
SCALE
  5
8A6
102
{ACAD_REACTORS
330
89B
102
}
330
89B
100
AcDbScale
 70
     0
300
1/2" = 1'-0"
140
0.5
141
12.0
290
     0
  0
SCALE
  5
8A7
102
{ACAD_REACTORS
330
89B
102
}
330
89B
100
AcDbScale
 70
     0
300
3/4" = 1'-0"
140
0.75
141
12.0
290
     0
  0
SCALE
  5
8A8
102
{ACAD_REACTORS
330
89B
102
}
330
89B
100
AcDbScale
 70
     0
300
1" = 1'-0"
140
1.0
141
12.0
290
     0
  0
SCALE
  5
8A9
102
{ACAD_REACTORS
330
89B
102
}
330
89B
100
AcDbScale
 70
     0
300
1-1/2" = 1'-0"
140
1.5
141
12.0
290
     0
  0
SCALE
  5
8AA
102
{ACAD_REACTORS
330
89B
102
}
330
89B
100
AcDbScale
 70
     0
300
3" = 1'-0"
140
3.0
141
12.0
290
     0
  0
SCALE
  5
8AB
102
{ACAD_REACTORS
330
89B
102
}
330
89B
100
AcDbScale
 70
     0
300
6" = 1'-0"
140
6.0
141
12.0
290
     0
  0
SCALE
  5
8AC
102
{ACAD_REACTORS
330
89B
102
}
330
89B
100
AcDbScale
 70
     0
300
1'-0" = 1'-0"
140
12.0
141
12.0
290
     0
  0
ACDBSECTIONVIEWSTYLE
  5
8C1
102
{ACAD_XDICTIONARY
360
923
102
}
102
{ACAD_REACTORS
330
8C0
102
}
330
8C0
100
AcDbModelDocViewStyle
 70
     0
  3
Imperial24
290
     0
100
AcDbSectionViewStyle
 70
     0
 71
     0
 90
       78
 71
     1
340
8AE
 62
   256
 40
0.24
340
0
340
0
 62
   256
 40
0.24
300
I, O, Q, S, X, Z
 40
0.48
 90
        3
 40
0.18
 90
        1
 71
     2
340
8B5
 90
       25
 62
   256
340
8B5
 90
       50
 62
   256
 40
0.24
 40
0.0
 40
0.24
 71
     3
340
8AE
 62
   256
 40
0.24
 90
        1
 40
0.75
 90
        1
300
%<\AcVar ViewType \f "%tc1">% %<\AcVar ViewSectionStartId>%-%<\AcVar ViewSectionEndId>%\PSCALE %<\AcVar ViewScale \f "%sn">%
 71
     4
 62
   256
 62
   257
300
ANSI31
 40
1.0
 90
        0
290
     0
290
     0
 90
        6
 40
0.0
 40
1.570796326794896
 40
0.2617993877991494
 40
1.308996938995747
 40
-0.2617993877991494
 40
1.832595714594046
  0
TABLESTYLE
  5
8BD
102
{ACAD_XDICTIONARY
360
8F0
102
}
102
{ACAD_REACTORS
330
8BC
102
}
330
8BC
100
AcDbTableStyle
280
     0
  3
Standard
 70
     0
 71
     0
 40
0.06
 41
0.06
280
     0
281
     0
  7
STANDARD
140
0.18
170
     2
 62
     0
 63
     7
283
     0
 90
      512
 91
        0
  1

274
    -2
284
     1
 64
     0
275
    -2
285
     1
 65
     0
276
    -2
286
     1
 66
     0
277
    -2
287
     1
 67
     0
278
    -2
288
     1
 68
     0
279
    -2
289
     1
 69
     0
  7
STANDARD
140
0.25
170
     5
 62
     0
 63
     7
283
     0
 90
      512
 91
        0
  1

274
    -2
284
     1
 64
     0
275
    -2
285
     1
 65
     0
276
    -2
286
     1
 66
     0
277
    -2
287
     1
 67
     0
278
    -2
288
     1
 68
     0
279
    -2
289
     1
 69
     0
  7
STANDARD
140
0.18
170
     5
 62
     0
 63
     7
283
     0
 90
      512
 91
        0
  1

274
    -2
284
     1
 64
     0
275
    -2
285
     1
 65
     0
276
    -2
286
     1
 66
     0
277
    -2
287
     1
 67
     0
278
    -2
288
     1
 68
     0
279
    -2
289
     1
 69
     0
  0
VISUALSTYLE
  5
888
102
{ACAD_XDICTIONARY
360
8FD
102
}
102
{ACAD_REACTORS
330
882
102
}
330
882
100
AcDbVisualStyle
  2
2dWireframe
 70
     4
177
     2
291
     0
 71
     0
176
     1
 72
     2
176
     1
 73
     0
176
     1
 90
        0
176
     1
 40
0.6
176
     1
 41
30.0
176
     1
 63
     7
421
 16777215
176
     1
 74
     1
176
     1
 91
        4
176
     1
 64
     7
176
     1
 65
   257
176
     1
 75
     1
176
     1
175
     1
176
     1
 42
1.0
176
     1
 92
        0
176
     1
 66
   257
176
     1
 43
1.0
176
     1
 76
     1
176
     1
 77
     6
176
     1
 78
     2
176
     1
 67
     7
176
     1
 79
     5
176
     1
170
     0
176
     1
171
     0
176
     1
290
     0
176
     1
 93
        1
176
     1
 44
0.0
176
     1
173
     0
176
     1
1001
ACAD
1000
AcDbSavedByObjectVersion
1070
     0
  0
VISUALSTYLE
  5
887
102
{ACAD_XDICTIONARY
360
8FB
102
}
102
{ACAD_REACTORS
330
882
102
}
330
882
100
AcDbVisualStyle
  2
Basic
 70
     7
177
     2
291
     1
 71
     1
176
     1
 72
     0
176
     1
 73
     1
176
     1
 90
        0
176
     1
 40
0.6
176
     1
 41
30.0
176
     1
 63
     7
421
 16777215
176
     1
 74
     0
176
     1
 91
        4
176
     1
 64
     7
176
     1
 65
   257
176
     1
 75
     1
176
     1
175
     1
176
     1
 42
1.0
176
     1
 92
        8
176
     1
 66
     7
176
     1
 43
1.0
176
     1
 76
     1
176
     1
 77
     6
176
     1
 78
     2
176
     1
 67
     7
176
     1
 79
     5
176
     1
170
     0
176
     1
171
     0
176
     1
290
     0
176
     1
 93
        1
176
     1
 44
0.0
176
     1
173
     0
176
     1
1001
ACAD
1000
AcDbSavedByObjectVersion
1070
     0
  0
VISUALSTYLE
  5
88E
102
{ACAD_XDICTIONARY
360
909
102
}
102
{ACAD_REACTORS
330
882
102
}
330
882
100
AcDbVisualStyle
  2
Brighten
 70
    12
177
     2
291
     1
 71
     2
176
     1
 72
     2
176
     1
 73
     0
176
     1
 90
        0
176
     1
 40
0.6
176
     1
 41
30.0
176
     1
 63
     7
421
 16777215
176
     1
 74
     1
176
     1
 91
        4
176
     1
 64
     7
176
     1
 65
   257
176
     1
 75
     1
176
     1
175
     1
176
     1
 42
1.0
176
     1
 92
        8
176
     1
 66
     7
176
     1
 43
1.0
176
     1
 76
     1
176
     1
 77
     6
176
     1
 78
     2
176
     1
 67
     7
176
     1
 79
     5
176
     1
170
     0
176
     1
171
     0
176
     1
290
     0
176
     1
 93
        1
176
     1
 44
50.0
176
     1
173
     0
176
     1
1001
ACAD
1000
AcDbSavedByObjectVersion
1070
     0
  0
VISUALSTYLE
  5
892
102
{ACAD_XDICTIONARY
360
911
102
}
102
{ACAD_REACTORS
330
882
102
}
330
882
100
AcDbVisualStyle
  2
ColorChange
 70
    16
177
     2
291
     1
 71
     2
176
     1
 72
     2
176
     1
 73
     3
176
     1
 90
        0
176
     1
 40
0.6
176
     1
 41
30.0
176
     1
 63
     8
421
  8421504
176
     1
 74
     1
176
     1
 91
        4
176
     1
 64
     7
176
     1
 65
   257
176
     1
 75
     1
176
     1
175
     1
176
     1
 42
1.0
176
     1
 92
        8
176
     1
 66
     8
424
  8421504
176
     1
 43
1.0
176
     1
 76
     1
176
     1
 77
     6
176
     1
 78
     2
176
     1
 67
     7
176
     1
 79
     5
176
     1
170
     0
176
     1
171
     0
176
     1
290
     0
176
     1
 93
        1
176
     1
 44
0.0
176
     1
173
     0
176
     1
1001
ACAD
1000
AcDbSavedByObjectVersion
1070
     0
  0
VISUALSTYLE
  5
88B
102
{ACAD_XDICTIONARY
360
903
102
}
102
{ACAD_REACTORS
330
882
102
}
330
882
100
AcDbVisualStyle
  2
Conceptual
 70
     9
177
     2
291
     0
 71
     3
176
     1
 72
     2
176
     1
 73
     0
176
     1
 90
        0
176
     1
 40
0.6
176
     1
 41
30.0
176
     1
 63
     7
421
 16777215
176
     1
 74
     2
176
     1
 91
        2
176
     1
 64
     7
176
     1
 65
   257
176
     1
 75
     1
176
     1
175
     1
176
     1
 42
179.0
176
     1
 92
        8
176
     1
 66
     7
176
     1
 43
1.0
176
     1
 76
     1
176
     1
 77
     6
176
     1
 78
     2
176
     1
 67
     7
176
     1
 79
     3
176
     1
170
     0
176
     1
171
     0
176
     1
290
     0
176
     1
 93
        1
176
     1
 44
0.0
176
     1
173
     0
176
     1
1001
ACAD
1000
AcDbSavedByObjectVersion
1070
     0
  0
VISUALSTYLE
  5
88D
102
{ACAD_XDICTIONARY
360
907
102
}
102
{ACAD_REACTORS
330
882
102
}
330
882
100
AcDbVisualStyle
  2
Dim
 70
    11
177
     2
291
     1
 71
     2
176
     1
 72
     2
176
     1
 73
     0
176
     1
 90
        0
176
     1
 40
0.6
176
     1
 41
30.0
176
     1
 63
     7
421
 16777215
176
     1
 74
     1
176
     1
 91
        4
176
     1
 64
     7
176
     1
 65
   257
176
     1
 75
     1
176
     1
175
     1
176
     1
 42
1.0
176
     1
 92
        8
176
     1
 66
     7
176
     1
 43
1.0
176
     1
 76
     1
176
     1
 77
     6
176
     1
 78
     2
176
     1
 67
     7
176
     1
 79
     5
176
     1
170
     0
176
     1
171
     0
176
     1
290
     0
176
     1
 93
        1
176
     1
 44
-50.0
176
     1
173
     0
176
     1
1001
ACAD
1000
AcDbSavedByObjectVersion
1070
     0
  0
VISUALSTYLE
  5
89A
102
{ACAD_XDICTIONARY
360
921
102
}
102
{ACAD_REACTORS
330
882
102
}
330
882
100
AcDbVisualStyle
  2
EdgeColorOff
 70
    22
177
     2
291
     1
 71
     2
176
     0
 72
     2
176
     0
 73
     0
176
     0
 90
        0
176
     0
 40
0.6
176
     0
 41
30.0
176
     0
 63
     7
421
 16777215
176
     0
 74
     1
176
     0
 91
        4
176
     0
 64
     7
176
     0
 65
   257
176
     0
 75
     1
176
     0
175
     1
176
     0
 42
1.0
176
     0
 92
        8
176
     2
 66
     7
176
     0
 43
1.0
176
     0
 76
     1
176
     0
 77
     6
176
     0
 78
     2
176
     0
 67
     7
176
     0
 79
     5
176
     0
170
     0
176
     0
171
     0
176
     0
290
     0
176
     0
 93
        1
176
     0
 44
0.0
176
     0
173
     0
176
     0
1001
ACAD
1000
AcDbSavedByObjectVersion
1070
     0
  0
VISUALSTYLE
  5
891
102
{ACAD_XDICTIONARY
360
90F
102
}
102
{ACAD_REACTORS
330
882
102
}
330
882
100
AcDbVisualStyle
  2
Facepattern
 70
    15
177
     2
291
     1
 71
     2
176
     1
 72
     2
176
     1
 73
     0
176
     1
 90
        0
176
     1
 40
0.6
176
     1
 41
30.0
176
     1
 63
     7
421
 16777215
176
     1
 74
     1
176
     1
 91
        4
176
     1
 64
     7
176
     1
 65
   257
176
     1
 75
     1
176
     1
175
     1
176
     1
 42
1.0
176
     1
 92
        8
176
     1
 66
     7
176
     1
 43
1.0
176
     1
 76
     1
176
     1
 77
     6
176
     1
 78
     2
176
     1
 67
     7
176
     1
 79
     5
176
     1
170
     0
176
     1
171
     0
176
     1
290
     0
176
     1
 93
        1
176
     1
 44
0.0
176
     1
173
     0
176
     1
1001
ACAD
1000
AcDbSavedByObjectVersion
1070
     0
  0
VISUALSTYLE
  5
883
102
{ACAD_XDICTIONARY
360
8F3
102
}
102
{ACAD_REACTORS
330
882
102
}
330
882
100
AcDbVisualStyle
  2
Flat
 70
     0
177
     2
291
     1
 71
     2
176
     1
 72
     1
176
     1
 73
     1
176
     1
 90
        2
176
     1
 40
0.6
176
     1
 41
30.0
176
     1
 63
     7
421
 16777215
176
     1
 74
     0
176
     1
 91
        0
176
     1
 64
     7
176
     1
 65
   257
176
     1
 75
     1
176
     1
175
     1
176
     1
 42
1.0
176
     1
 92
        8
176
     1
 66
     7
176
     1
 43
1.0
176
     1
 76
     1
176
     1
 77
     6
176
     1
 78
     2
176
     1
 67
     7
176
     1
 79
     5
176
     1
170
     0
176
     1
171
     0
176
     1
290
     0
176
     1
 93
       13
176
     1
 44
0.0
176
     1
173
     0
176
     1
1001
ACAD
1000
AcDbSavedByObjectVersion
1070
     0
  0
VISUALSTYLE
  5
884
102
{ACAD_XDICTIONARY
360
8F5
102
}
102
{ACAD_REACTORS
330
882
102
}
330
882
100
AcDbVisualStyle
  2
FlatWithEdges
 70
     1
177
     2
291
     1
 71
     2
176
     1
 72
     1
176
     1
 73
     1
176
     1
 90
        2
176
     1
 40
0.6
176
     1
 41
30.0
176
     1
 63
     7
421
 16777215
176
     1
 74
     1
176
     1
 91
        0
176
     1
 64
     7
176
     1
 65
   257
176
     1
 75
     1
176
     1
175
     1
176
     1
 42
1.0
176
     1
 92
        0
176
     1
 66
   257
176
     1
 43
1.0
176
     1
 76
     1
176
     1
 77
     6
176
     1
 78
     2
176
     1
 67
     7
176
     1
 79
     5
176
     1
170
     0
176
     1
171
     0
176
     1
290
     0
176
     1
 93
       13
176
     1
 44
0.0
176
     1
173
     0
176
     1
1001
ACAD
1000
AcDbSavedByObjectVersion
1070
     0
  0
VISUALSTYLE
  5
885
102
{ACAD_XDICTIONARY
360
8F7
102
}
102
{ACAD_REACTORS
330
882
102
}
330
882
100
AcDbVisualStyle
  2
Gouraud
 70
     2
177
     2
291
     1
 71
     2
176
     1
 72
     2
176
     1
 73
     1
176
     1
 90
        2
176
     1
 40
0.6
176
     1
 41
30.0
176
     1
 63
     7
421
 16777215
176
     1
 74
     0
176
     1
 91
        0
176
     1
 64
     7
176
     1
 65
   257
176
     1
 75
     1
176
     1
175
     1
176
     1
 42
1.0
176
     1
 92
        0
176
     1
 66
     7
176
     1
 43
1.0
176
     1
 76
     1
176
     1
 77
     6
176
     1
 78
     2
176
     1
 67
     7
176
     1
 79
     5
176
     1
170
     0
176
     1
171
     0
176
     1
290
     0
176
     1
 93
       13
176
     1
 44
0.0
176
     1
173
     0
176
     1
1001
ACAD
1000
AcDbSavedByObjectVersion
1070
     0
  0
VISUALSTYLE
  5
886
102
{ACAD_XDICTIONARY
360
8F9
102
}
102
{ACAD_REACTORS
330
882
102
}
330
882
100
AcDbVisualStyle
  2
GouraudWithEdges
 70
     3
177
     2
291
     1
 71
     2
176
     1
 72
     2
176
     1
 73
     1
176
     1
 90
        2
176
     1
 40
0.6
176
     1
 41
30.0
176
     1
 63
     7
421
 16777215
176
     1
 74
     1
176
     1
 91
        0
176
     1
 64
     7
176
     1
 65
   257
176
     1
 75
     1
176
     1
175
     1
176
     1
 42
1.0
176
     1
 92
        0
176
     1
 66
   257
176
     1
 43
1.0
176
     1
 76
     1
176
     1
 77
     6
176
     1
 78
     2
176
     1
 67
     7
176
     1
 79
     5
176
     1
170
     0
176
     1
171
     0
176
     1
290
     0
176
     1
 93
       13
176
     1
 44
0.0
176
     1
173
     0
176
     1
1001
ACAD
1000
AcDbSavedByObjectVersion
1070
     0
  0
VISUALSTYLE
  5
88A
102
{ACAD_XDICTIONARY
360
901
102
}
102
{ACAD_REACTORS
330
882
102
}
330
882
100
AcDbVisualStyle
  2
Hidden
 70
     6
177
     2
291
     0
 71
     1
176
     1
 72
     2
176
     1
 73
     2
176
     1
 90
        0
176
     1
 40
0.6
176
     1
 41
30.0
176
     1
 63
     7
421
 16777215
176
     1
 74
     2
176
     1
 91
        2
176
     1
 64
     7
176
     1
 65
   257
176
     1
 75
     2
176
     1
175
     1
176
     1
 42
40.0
176
     1
 92
        0
176
     1
 66
   257
176
     1
 43
1.0
176
     1
 76
     1
176
     1
 77
     6
176
     1
 78
     2
176
     1
 67
     7
176
     1
 79
     3
176
     1
170
     0
176
     1
171
     0
176
     1
290
     0
176
     1
 93
        1
176
     1
 44
0.0
176
     1
173
     0
176
     1
1001
ACAD
1000
AcDbSavedByObjectVersion
1070
     0
  0
VISUALSTYLE
  5
898
102
{ACAD_XDICTIONARY
360
91D
102
}
102
{ACAD_REACTORS
330
882
102
}
330
882
100
AcDbVisualStyle
  2
JitterOff
 70
    20
177
     2
291
     1
 71
     2
176
     0
 72
     2
176
     0
 73
     0
176
     0
 90
        0
176
     0
 40
0.6
176
     0
 41
30.0
176
     0
 63
     7
421
 16777215
176
     0
 74
     1
176
     0
 91
        4
176
     0
 64
     7
176
     0
 65
   257
176
     0
 75
     1
176
     0
175
     1
176
     0
 42
1.0
176
     0
 92
       10
176
     2
 66
     7
176
     0
 43
1.0
176
     0
 76
     1
176
     0
 77
     6
176
     0
 78
     2
176
     0
 67
     7
176
     0
 79
     5
176
     0
170
     0
176
     0
171
     0
176
     0
290
     0
176
     0
 93
        1
176
     0
 44
0.0
176
     0
173
     0
176
     0
1001
ACAD
1000
AcDbSavedByObjectVersion
1070
     0
  0
VISUALSTYLE
  5
890
102
{ACAD_XDICTIONARY
360
90D
102
}
102
{ACAD_REACTORS
330
882
102
}
330
882
100
AcDbVisualStyle
  2
Linepattern
 70
    14
177
     2
291
     1
 71
     2
176
     1
 72
     2
176
     1
 73
     0
176
     1
 90
        0
176
     1
 40
0.6
176
     1
 41
30.0
176
     1
 63
     7
421
 16777215
176
     1
 74
     1
176
     1
 91
        4
176
     1
 64
     7
176
     1
 65
   257
176
     1
 75
     7
176
     1
175
     7
176
     1
 42
1.0
176
     1
 92
        8
176
     1
 66
     7
176
     1
 43
1.0
176
     1
 76
     1
176
     1
 77
     6
176
     1
 78
     2
176
     1
 67
     7
176
     1
 79
     5
176
     1
170
     0
176
     1
171
     0
176
     1
290
     0
176
     1
 93
        1
176
     1
 44
0.0
176
     1
173
     0
176
     1
1001
ACAD
1000
AcDbSavedByObjectVersion
1070
     0
  0
VISUALSTYLE
  5
899
102
{ACAD_XDICTIONARY
360
91F
102
}
102
{ACAD_REACTORS
330
882
102
}
330
882
100
AcDbVisualStyle
  2
OverhangOff
 70
    21
177
     2
291
     1
 71
     2
176
     0
 72
     2
176
     0
 73
     0
176
     0
 90
        0
176
     0
 40
0.6
176
     0
 41
30.0
176
     0
 63
     7
421
 16777215
176
     0
 74
     1
176
     0
 91
        4
176
     0
 64
     7
176
     0
 65
   257
176
     0
 75
     1
176
     0
175
     1
176
     0
 42
1.0
176
     0
 92
        9
176
     2
 66
     7
176
     0
 43
1.0
176
     0
 76
     1
176
     0
 77
     6
176
     0
 78
     2
176
     0
 67
     7
176
     0
 79
     5
176
     0
170
     0
176
     0
171
     0
176
     0
290
     0
176
     0
 93
        1
176
     0
 44
0.0
176
     0
173
     0
176
     0
1001
ACAD
1000
AcDbSavedByObjectVersion
1070
     0
  0
VISUALSTYLE
  5
88C
102
{ACAD_XDICTIONARY
360
905
102
}
102
{ACAD_REACTORS
330
882
102
}
330
882
100
AcDbVisualStyle
  2
Realistic
 70
     8
177
     2
291
     0
 71
     2
176
     1
 72
     3
176
     1
 73
     0
176
     1
 90
        2
176
     1
 40
0.6
176
     1
 41
30.0
176
     1
 63
     7
421
 16777215
176
     1
 74
     0
176
     1
 91
        0
176
     1
 64
     7
176
     1
 65
   257
176
     1
 75
     1
176
     1
175
     1
176
     1
 42
1.0
176
     1
 92
        8
176
     1
 66
   257
176
     1
 43
1.0
176
     1
 76
     1
176
     1
 77
     6
176
     1
 78
     2
176
     1
 67
     7
176
     1
 79
     3
176
     1
170
     0
176
     1
171
     0
176
     1
290
     0
176
     1
 93
       13
176
     1
 44
0.0
176
     1
173
     0
176
     1
1001
ACAD
1000
AcDbSavedByObjectVersion
1070
     0
  0
VISUALSTYLE
  5
897
102
{ACAD_XDICTIONARY
360
91B
102
}
102
{ACAD_REACTORS
330
882
102
}
330
882
100
AcDbVisualStyle
  2
Shaded
 70
    27
177
     2
291
     0
 71
     2
176
     1
 72
     2
176
     1
 73
     1
176
     1
 90
        2
176
     1
 40
0.6
176
     1
 41
30.0
176
     1
 63
     7
421
 16777215
176
     1
 74
     0
176
     1
 91
        4
176
     1
 64
     7
176
     1
 65
   257
176
     1
 75
     1
176
     1
175
     1
176
     1
 42
1.0
176
     1
 92
        8
176
     1
 66
   257
176
     1
 43
1.0
176
     1
 76
     1
176
     1
 77
     6
176
     1
 78
     2
176
     1
 67
     8
425
  7895160
176
     1
 79
     3
176
     1
170
     0
176
     1
171
     0
176
     1
290
     0
176
     1
 93
        5
176
     1
 44
0.0
176
     1
173
     0
176
     1
1001
ACAD
1000
AcDbSavedByObjectVersion
1070
     0
  0
VISUALSTYLE
  5
896
102
{ACAD_XDICTIONARY
360
919
102
}
102
{ACAD_REACTORS
330
882
102
}
330
882
100
AcDbVisualStyle
  2
Shaded with edges
 70
    26
177
     2
291
     0
 71
     2
176
     1
 72
     2
176
     1
 73
     1
176
     1
 90
        2
176
     1
 40
0.6
176
     1
 41
30.0
176
     1
 63
     7
421
 16777215
176
     1
 74
     1
176
     1
 91
        2
176
     1
 64
     7
176
     1
 65
   257
176
     1
 75
     2
176
     1
175
     1
176
     1
 42
1.0
176
     1
 92
        8
176
     1
 66
   257
176
     1
 43
1.0
176
     1
 76
     1
176
     1
 77
     6
176
     1
 78
     2
176
     1
 67
     7
176
     1
 79
     3
176
     1
170
     0
176
     1
171
     0
176
     1
290
     0
176
     1
 93
        5
176
     1
 44
0.0
176
     1
173
     0
176
     1
1001
ACAD
1000
AcDbSavedByObjectVersion
1070
     0
  0
VISUALSTYLE
  5
893
102
{ACAD_XDICTIONARY
360
913
102
}
102
{ACAD_REACTORS
330
882
102
}
330
882
100
AcDbVisualStyle
  2
Shades of Gray
 70
    23
177
     2
291
     0
 71
     2
176
     1
 72
     2
176
     1
 73
     3
176
     1
 90
        0
176
     1
 40
0.6
176
     1
 41
30.0
176
     1
 63
     7
421
 16777215
176
     1
 74
     2
176
     1
 91
        2
176
     1
 64
     7
176
     1
 65
     7
176
     1
 75
     1
176
     1
175
     1
176
     1
 42
40.0
176
     1
 92
        8
176
     1
 66
     7
176
     1
 43
1.0
176
     1
 76
     1
176
     1
 77
     6
176
     1
 78
     2
176
     1
 67
     7
176
     1
 79
     3
176
     1
170
     0
176
     1
171
     0
176
     1
290
     0
176
     1
 93
        1
176
     1
 44
0.0
176
     1
173
     0
176
     1
1001
ACAD
1000
AcDbSavedByObjectVersion
1070
     0
  0
VISUALSTYLE
  5
894
102
{ACAD_XDICTIONARY
360
915
102
}
102
{ACAD_REACTORS
330
882
102
}
330
882
100
AcDbVisualStyle
  2
Sketchy
 70
    24
177
     2
291
     0
 71
     1
176
     1
 72
     2
176
     1
 73
     2
176
     1
 90
        0
176
     1
 40
0.6
176
     1
 41
30.0
176
     1
 63
     7
421
 16777215
176
     1
 74
     2
176
     1
 91
        2
176
     1
 64
     7
176
     1
 65
     7
176
     1
 75
     1
176
     1
175
     1
176
     1
 42
40.0
176
     1
 92
       11
176
     1
 66
     7
176
     1
 43
1.0
176
     1
 76
     1
176
     1
 77
     6
176
     1
 78
     2
176
     1
 67
     7
176
     1
 79
     6
176
     1
170
     0
176
     1
171
     0
176
     1
290
     0
176
     1
 93
        1
176
     1
 44
0.0
176
     1
173
     0
176
     1
1001
ACAD
1000
AcDbSavedByObjectVersion
1070
     0
  0
VISUALSTYLE
  5
88F
102
{ACAD_XDICTIONARY
360
90B
102
}
102
{ACAD_REACTORS
330
882
102
}
330
882
100
AcDbVisualStyle
  2
Thicken
 70
    13
177
     2
291
     1
 71
     2
176
     1
 72
     2
176
     1
 73
     0
176
     1
 90
        0
176
     1
 40
0.6
176
     1
 41
30.0
176
     1
 63
     7
421
 16777215
176
     1
 74
     1
176
     1
 91
        4
176
     1
 64
     7
176
     1
 65
   257
176
     1
 75
     1
176
     1
175
     1
176
     1
 42
1.0
176
     1
 92
       12
176
     1
 66
     7
176
     1
 43
1.0
176
     1
 76
     1
176
     1
 77
     6
176
     1
 78
     2
176
     1
 67
     7
176
     1
 79
     5
176
     1
170
     0
176
     1
171
     0
176
     1
290
     0
176
     1
 93
        1
176
     1
 44
0.0
176
     1
173
     0
176
     1
1001
ACAD
1000
AcDbSavedByObjectVersion
1070
     0
  0
VISUALSTYLE
  5
889
102
{ACAD_XDICTIONARY
360
8FF
102
}
102
{ACAD_REACTORS
330
882
102
}
330
882
100
AcDbVisualStyle
  2
Wireframe
 70
     5
177
     2
291
     0
 71
     0
176
     1
 72
     2
176
     1
 73
     0
176
     1
 90
        0
176
     1
 40
0.6
176
     1
 41
30.0
176
     1
 63
     7
421
 16777215
176
     1
 74
     1
176
     1
 91
        4
176
     1
 64
     7
176
     1
 65
   257
176
     1
 75
     1
176
     1
175
     1
176
     1
 42
1.0
176
     1
 92
        0
176
     1
 66
   257
176
     1
 43
1.0
176
     1
 76
     1
176
     1
 77
     6
176
     1
 78
     2
176
     1
 67
     7
176
     1
 79
     3
176
     1
170
     0
176
     1
171
     0
176
     1
290
     0
176
     1
 93
        1
176
     1
 44
0.0
176
     1
173
     0
176
     1
1001
ACAD
1000
AcDbSavedByObjectVersion
1070
     0
  0
VISUALSTYLE
  5
895
102
{ACAD_XDICTIONARY
360
917
102
}
102
{ACAD_REACTORS
330
882
102
}
330
882
100
AcDbVisualStyle
  2
X-Ray
 70
    25
177
     2
291
     0
 71
     2
176
     1
 72
     2
176
     1
 73
     1
176
     1
 90
        1
176
     1
 40
0.5
176
     1
 41
30.0
176
     1
 63
     7
421
 16777215
176
     1
 74
     1
176
     1
 91
        0
176
     1
 64
     7
176
     1
 65
   257
176
     1
 75
     1
176
     1
175
     1
176
     1
 42
1.0
176
     1
 92
        8
176
     1
 66
     7
176
     1
 43
1.0
176
     1
 76
     1
176
     1
 77
     6
176
     1
 78
     2
176
     1
 67
     7
176
     1
 79
     3
176
     1
170
     0
176
     1
171
     0
176
     1
290
     0
176
     1
 93
       13
176
     1
 44
0.0
176
     1
173
     0
176
     1
1001
ACAD
1000
AcDbSavedByObjectVersion
1070
     0
  0
DICTIONARYVAR
  5
8EB
102
{ACAD_REACTORS
330
8E5
102
}
330
8E5
100
DictionaryVariables
280
     0
  1
1:1
  0
DICTIONARYVAR
  5
8E7
102
{ACAD_REACTORS
330
8E5
102
}
330
8E5
100
DictionaryVariables
280
     0
  1
STANDARD
  0
DICTIONARYVAR
  5
8E6
102
{ACAD_REACTORS
330
8E5
102
}
330
8E5
100
DictionaryVariables
280
     0
  1
STANDARD
  0
DICTIONARYVAR
  5
8E8
102
{ACAD_REACTORS
330
8E5
102
}
330
8E5
100
DictionaryVariables
280
     0
  1
Imperial24
  0
DICTIONARYVAR
  5
8E9
102
{ACAD_REACTORS
330
8E5
102
}
330
8E5
100
DictionaryVariables
280
     0
  1
Imperial24
  0
DICTIONARYVAR
  5
8ED
102
{ACAD_REACTORS
330
8E5
102
}
330
8E5
100
DictionaryVariables
280
     0
  1
1
  0
DICTIONARYVAR
  5
8EE
102
{ACAD_REACTORS
330
8E5
102
}
330
8E5
100
DictionaryVariables
280
     0
  1
15
  0
DICTIONARYVAR
  5
8EC
102
{ACAD_REACTORS
330
8E5
102
}
330
8E5
100
DictionaryVariables
280
     0
  1
0
  0
DICTIONARYVAR
  5
8EA
102
{ACAD_REACTORS
330
8E5
102
}
330
8E5
100
DictionaryVariables
280
     0
  1
0
  0
DICTIONARY
  5
925
330
8C3
100
AcDbDictionary
280
     1
281
     1
  3
ACAD_XREC_ROUNDTRIP
360
926
  0
DICTIONARY
  5
873
330
872
100
AcDbDictionary
280
     1
281
     1
  3
BUMPTILE
360
875
  3
DIFFUSETILE
360
874
  3
OPACITYTILE
360
878
  3
REFLECTIONTILE
360
877
  3
REFRACTIONTILE
360
879
  3
SPECULARTILE
360
876
  0
DICTIONARY
  5
86B
330
86A
100
AcDbDictionary
280
     1
281
     1
  3
BUMPTILE
360
86D
  3
DIFFUSETILE
360
86C
  3
OPACITYTILE
360
870
  3
REFLECTIONTILE
360
86F
  3
REFRACTIONTILE
360
871
  3
SPECULARTILE
360
86E
  0
DICTIONARY
  5
87B
330
87A
100
AcDbDictionary
280
     1
281
     1
  3
BUMPTILE
360
87D
  3
DIFFUSETILE
360
87C
  3
OPACITYTILE
360
880
  3
REFLECTIONTILE
360
87F
  3
REFRACTIONTILE
360
881
  3
SPECULARTILE
360
87E
  0
DICTIONARY
  5
923
330
8C1
100
AcDbDictionary
280
     1
281
     1
  3
ACAD_XREC_ROUNDTRIP
360
924
  0
DICTIONARY
  5
8F0
330
8BD
100
AcDbDictionary
280
     1
281
     1
  3
ACAD_ROUNDTRIP_2008_TABLESTYLE_CELLSTYLEMAP
360
8F1
  0
DICTIONARY
  5
8FD
330
888
100
AcDbDictionary
280
     1
281
     1
  3
ACAD_XREC_ROUNDTRIP
360
8FE
  0
DICTIONARY
  5
8FB
330
887
100
AcDbDictionary
280
     1
281
     1
  3
ACAD_XREC_ROUNDTRIP
360
8FC
  0
DICTIONARY
  5
909
330
88E
100
AcDbDictionary
280
     1
281
     1
  3
ACAD_XREC_ROUNDTRIP
360
90A
  0
DICTIONARY
  5
911
330
892
100
AcDbDictionary
280
     1
281
     1
  3
ACAD_XREC_ROUNDTRIP
360
912
  0
DICTIONARY
  5
903
330
88B
100
AcDbDictionary
280
     1
281
     1
  3
ACAD_XREC_ROUNDTRIP
360
904
  0
DICTIONARY
  5
907
330
88D
100
AcDbDictionary
280
     1
281
     1
  3
ACAD_XREC_ROUNDTRIP
360
908
  0
DICTIONARY
  5
921
330
89A
100
AcDbDictionary
280
     1
281
     1
  3
ACAD_XREC_ROUNDTRIP
360
922
  0
DICTIONARY
  5
90F
330
891
100
AcDbDictionary
280
     1
281
     1
  3
ACAD_XREC_ROUNDTRIP
360
910
  0
DICTIONARY
  5
8F3
330
883
100
AcDbDictionary
280
     1
281
     1
  3
ACAD_XREC_ROUNDTRIP
360
8F4
  0
DICTIONARY
  5
8F5
330
884
100
AcDbDictionary
280
     1
281
     1
  3
ACAD_XREC_ROUNDTRIP
360
8F6
  0
DICTIONARY
  5
8F7
330
885
100
AcDbDictionary
280
     1
281
     1
  3
ACAD_XREC_ROUNDTRIP
360
8F8
  0
DICTIONARY
  5
8F9
330
886
100
AcDbDictionary
280
     1
281
     1
  3
ACAD_XREC_ROUNDTRIP
360
8FA
  0
DICTIONARY
  5
901
330
88A
100
AcDbDictionary
280
     1
281
     1
  3
ACAD_XREC_ROUNDTRIP
360
902
  0
DICTIONARY
  5
91D
330
898
100
AcDbDictionary
280
     1
281
     1
  3
ACAD_XREC_ROUNDTRIP
360
91E
  0
DICTIONARY
  5
90D
330
890
100
AcDbDictionary
280
     1
281
     1
  3
ACAD_XREC_ROUNDTRIP
360
90E
  0
DICTIONARY
  5
91F
330
899
100
AcDbDictionary
280
     1
281
     1
  3
ACAD_XREC_ROUNDTRIP
360
920
  0
DICTIONARY
  5
905
330
88C
100
AcDbDictionary
280
     1
281
     1
  3
ACAD_XREC_ROUNDTRIP
360
906
  0
DICTIONARY
  5
91B
330
897
100
AcDbDictionary
280
     1
281
     1
  3
ACAD_XREC_ROUNDTRIP
360
91C
  0
DICTIONARY
  5
919
330
896
100
AcDbDictionary
280
     1
281
     1
  3
ACAD_XREC_ROUNDTRIP
360
91A
  0
DICTIONARY
  5
913
330
893
100
AcDbDictionary
280
     1
281
     1
  3
ACAD_XREC_ROUNDTRIP
360
914
  0
DICTIONARY
  5
915
330
894
100
AcDbDictionary
280
     1
281
     1
  3
ACAD_XREC_ROUNDTRIP
360
916
  0
DICTIONARY
  5
90B
330
88F
100
AcDbDictionary
280
     1
281
     1
  3
ACAD_XREC_ROUNDTRIP
360
90C
  0
DICTIONARY
  5
8FF
330
889
100
AcDbDictionary
280
     1
281
     1
  3
ACAD_XREC_ROUNDTRIP
360
900
  0
DICTIONARY
  5
917
330
895
100
AcDbDictionary
280
     1
281
     1
  3
ACAD_XREC_ROUNDTRIP
360
918
  0
XRECORD
  5
926
102
{ACAD_REACTORS
330
925
102
}
330
925
100
AcDbXrecord
280
     1
102
DISPLAYNAME
  1
Imperial24
102
FLAGS
 90
        0
  0
XRECORD
  5
875
102
{ACAD_REACTORS
330
873
102
}
330
873
100
AcDbXrecord
280
     1
270
     1
271
     1
  0
XRECORD
  5
874
102
{ACAD_REACTORS
330
873
102
}
330
873
100
AcDbXrecord
280
     1
270
     1
271
     1
  0
XRECORD
  5
878
102
{ACAD_REACTORS
330
873
102
}
330
873
100
AcDbXrecord
280
     1
270
     1
271
     1
  0
XRECORD
  5
877
102
{ACAD_REACTORS
330
873
102
}
330
873
100
AcDbXrecord
280
     1
270
     1
271
     1
  0
XRECORD
  5
879
102
{ACAD_REACTORS
330
873
102
}
330
873
100
AcDbXrecord
280
     1
270
     1
271
     1
  0
XRECORD
  5
876
102
{ACAD_REACTORS
330
873
102
}
330
873
100
AcDbXrecord
280
     1
270
     1
271
     1
  0
XRECORD
  5
86D
102
{ACAD_REACTORS
330
86B
102
}
330
86B
100
AcDbXrecord
280
     1
270
     1
271
     1
  0
XRECORD
  5
86C
102
{ACAD_REACTORS
330
86B
102
}
330
86B
100
AcDbXrecord
280
     1
270
     1
271
     1
  0
XRECORD
  5
870
102
{ACAD_REACTORS
330
86B
102
}
330
86B
100
AcDbXrecord
280
     1
270
     1
271
     1
  0
XRECORD
  5
86F
102
{ACAD_REACTORS
330
86B
102
}
330
86B
100
AcDbXrecord
280
     1
270
     1
271
     1
  0
XRECORD
  5
871
102
{ACAD_REACTORS
330
86B
102
}
330
86B
100
AcDbXrecord
280
     1
270
     1
271
     1
  0
XRECORD
  5
86E
102
{ACAD_REACTORS
330
86B
102
}
330
86B
100
AcDbXrecord
280
     1
270
     1
271
     1
  0
XRECORD
  5
87D
102
{ACAD_REACTORS
330
87B
102
}
330
87B
100
AcDbXrecord
280
     1
270
     1
271
     1
  0
XRECORD
  5
87C
102
{ACAD_REACTORS
330
87B
102
}
330
87B
100
AcDbXrecord
280
     1
270
     1
271
     1
  0
XRECORD
  5
880
102
{ACAD_REACTORS
330
87B
102
}
330
87B
100
AcDbXrecord
280
     1
270
     1
271
     1
  0
XRECORD
  5
87F
102
{ACAD_REACTORS
330
87B
102
}
330
87B
100
AcDbXrecord
280
     1
270
     1
271
     1
  0
XRECORD
  5
881
102
{ACAD_REACTORS
330
87B
102
}
330
87B
100
AcDbXrecord
280
     1
270
     1
271
     1
  0
XRECORD
  5
87E
102
{ACAD_REACTORS
330
87B
102
}
330
87B
100
AcDbXrecord
280
     1
270
     1
271
     1
  0
XRECORD
  5
924
102
{ACAD_REACTORS
330
923
102
}
330
923
100
AcDbXrecord
280
     1
102
DISPLAYNAME
  1
Imperial24
102
FLAGS
 90
        0
  0
CELLSTYLEMAP
  5
8F1
102
{ACAD_REACTORS
330
8F0
102
}
330
8F0
100
AcDbCellStyleMap
 90
        3
300
CELLSTYLE
  1
TABLEFORMAT_BEGIN
 90
        5
170
     1
 91
        0
 92
    32768
 62
   257
 93
        1
300
CONTENTFORMAT
  1
CONTENTFORMAT_BEGIN
 90
        0
 91
        0
 92
      512
 93
        0
300

 40
0.0
140
1.0
 94
        5
 62
     0
340
8AE
144
0.25
309
CONTENTFORMAT_END
171
     0
 94
        0
309
TABLEFORMAT_END
  1
CELLSTYLE_BEGIN
 90
        1
 91
        1
300
_TITLE
309
CELLSTYLE_END
300
CELLSTYLE
  1
TABLEFORMAT_BEGIN
 90
        5
170
     1
 91
        0
 92
        0
 62
   257
 93
        1
300
CONTENTFORMAT
  1
CONTENTFORMAT_BEGIN
 90
        0
 91
        0
 92
      512
 93
        0
300

 40
0.0
140
1.0
 94
        5
 62
     0
340
8AE
144
0.18
309
CONTENTFORMAT_END
171
     0
 94
        0
309
TABLEFORMAT_END
  1
CELLSTYLE_BEGIN
 90
        2
 91
        1
300
_HEADER
309
CELLSTYLE_END
300
CELLSTYLE
  1
TABLEFORMAT_BEGIN
 90
        5
170
     1
 91
        0
 92
        0
 62
   257
 93
        1
300
CONTENTFORMAT
  1
CONTENTFORMAT_BEGIN
 90
        0
 91
        0
 92
      512
 93
        0
300

 40
0.0
140
1.0
 94
        2
 62
     0
340
8AE
144
0.18
309
CONTENTFORMAT_END
171
     0
 94
        0
309
TABLEFORMAT_END
  1
CELLSTYLE_BEGIN
 90
        3
 91
        2
300
_DATA
309
CELLSTYLE_END
  0
XRECORD
  5
8FE
102
{ACAD_REACTORS
330
8FD
102
}
330
8FD
100
AcDbXrecord
280
     1
102
RTVSPost2010Prop28
280
     1
102
RTVSPost2010PropOp28
 70
     1
102
RTVSPost2010Prop29
280
     1
102
RTVSPost2010PropOp29
 70
     1
102
RTVSPost2010Prop30
280
     0
102
RTVSPost2010PropOp30
 70
     1
102
RTVSPost2010Prop31
280
     0
102
RTVSPost2010PropOp31
 70
     1
102
RTVSPost2010Prop32
280
     0
102
RTVSPost2010PropOp32
 70
     1
102
RTVSPost2010Prop33
280
     0
102
RTVSPost2010PropOp33
 70
     1
102
RTVSPost2010Prop34
280
     0
102
RTVSPost2010PropOp34
 70
     1
102
RTVSPost2010Prop35
280
     0
102
RTVSPost2010PropOp35
 70
     1
102
RTVSPost2010Prop36
280
     0
102
RTVSPost2010PropOp36
 70
     1
102
RTVSPost2010Prop37
 90
       50
102
RTVSPost2010PropOp37
 70
     1
102
RTVSPost2010Prop38
140
0.0
102
RTVSPost2010PropOp38
 70
     1
102
RTVSPost2010Prop39
140
1.0
102
RTVSPost2010PropOp39
 70
     1
102
RTVSPost2010Prop40
 90
        0
102
RTVSPost2010PropOp40
 70
     1
102
RTVSPost2010Prop41ColorIndex
 90
       18
102
RTVSPost2010Prop41ColorRGB
 90
        0
102
RTVSPost2010PropOp41
 70
     1
102
RTVSPost2010Prop42
 90
       50
102
RTVSPost2010PropOp42
 70
     1
102
RTVSPost2010Prop43
 90
        3
102
RTVSPost2010PropOp43
 70
     1
102
RTVSPost2010Prop44ColorIndex
 90
        5
102
RTVSPost2010Prop44ColorRGB
 90
      255
102
RTVSPost2010PropOp44
 70
     1
102
RTVSPost2010Prop45
280
     0
102
RTVSPost2010PropOp45
 70
     1
102
RTVSPost2010Prop46
 90
       50
102
RTVSPost2010PropOp46
 70
     1
102
RTVSPost2010Prop47
 90
       50
102
RTVSPost2010PropOp47
 70
     1
102
RTVSPost2010Prop48
 90
       50
102
RTVSPost2010PropOp48
 70
     1
102
RTVSPost2010Prop49
280
     0
102
RTVSPost2010PropOp49
 70
     1
102
RTVSPost2010Prop50
 90
       50
102
RTVSPost2010PropOp50
 70
     1
102
RTVSPost2010Prop51ColorIndex
 90
      256
102
RTVSPost2010Prop51ColorRGB
 90
-16777216
102
RTVSPost2010PropOp51
 70
     0
102
RTVSPost2010Prop52
140
1.0
102
RTVSPost2010PropOp52
 70
     0
102
RTVSPost2010Prop53
 90
        2
102
RTVSPost2010PropOp53
 70
     1
102
RTVSPost2010Prop54
  1
strokes_ogs.tif
102
RTVSPost2010PropOp54
 70
     1
102
RTVSPost2010Prop55
280
     0
102
RTVSPost2010PropOp55
 70
     1
102
RTVSPost2010Prop56
140
1.0
102
RTVSPost2010PropOp56
 70
     1
102
RTVSPost2010Prop57
140
1.0
102
RTVSPost2010PropOp57
 70
     1
  0
XRECORD
  5
8FC
102
{ACAD_REACTORS
330
8FB
102
}
330
8FB
100
AcDbXrecord
280
     1
102
RTVSPost2010Prop28
280
     0
102
RTVSPost2010PropOp28
 70
     1
102
RTVSPost2010Prop29
280
     1
102
RTVSPost2010PropOp29
 70
     1
102
RTVSPost2010Prop30
280
     1
102
RTVSPost2010PropOp30
 70
     1
102
RTVSPost2010Prop31
280
     0
102
RTVSPost2010PropOp31
 70
     1
102
RTVSPost2010Prop32
280
     0
102
RTVSPost2010PropOp32
 70
     1
102
RTVSPost2010Prop33
280
     0
102
RTVSPost2010PropOp33
 70
     1
102
RTVSPost2010Prop34
280
     0
102
RTVSPost2010PropOp34
 70
     1
102
RTVSPost2010Prop35
280
     0
102
RTVSPost2010PropOp35
 70
     1
102
RTVSPost2010Prop36
280
     0
102
RTVSPost2010PropOp36
 70
     1
102
RTVSPost2010Prop37
 90
       50
102
RTVSPost2010PropOp37
 70
     1
102
RTVSPost2010Prop38
140
0.0
102
RTVSPost2010PropOp38
 70
     1
102
RTVSPost2010Prop39
140
1.0
102
RTVSPost2010PropOp39
 70
     1
102
RTVSPost2010Prop40
 90
        0
102
RTVSPost2010PropOp40
 70
     1
102
RTVSPost2010Prop41ColorIndex
 90
       18
102
RTVSPost2010Prop41ColorRGB
 90
        0
102
RTVSPost2010PropOp41
 70
     1
102
RTVSPost2010Prop42
 90
       50
102
RTVSPost2010PropOp42
 70
     1
102
RTVSPost2010Prop43
 90
        3
102
RTVSPost2010PropOp43
 70
     1
102
RTVSPost2010Prop44ColorIndex
 90
        5
102
RTVSPost2010Prop44ColorRGB
 90
      255
102
RTVSPost2010PropOp44
 70
     1
102
RTVSPost2010Prop45
280
     0
102
RTVSPost2010PropOp45
 70
     1
102
RTVSPost2010Prop46
 90
       50
102
RTVSPost2010PropOp46
 70
     1
102
RTVSPost2010Prop47
 90
       50
102
RTVSPost2010PropOp47
 70
     1
102
RTVSPost2010Prop48
 90
       50
102
RTVSPost2010PropOp48
 70
     1
102
RTVSPost2010Prop49
280
     0
102
RTVSPost2010PropOp49
 70
     1
102
RTVSPost2010Prop50
 90
       50
102
RTVSPost2010PropOp50
 70
     1
102
RTVSPost2010Prop51ColorIndex
 90
      256
102
RTVSPost2010Prop51ColorRGB
 90
-16777216
102
RTVSPost2010PropOp51
 70
     0
102
RTVSPost2010Prop52
140
1.0
102
RTVSPost2010PropOp52
 70
     0
102
RTVSPost2010Prop53
 90
        2
102
RTVSPost2010PropOp53
 70
     1
102
RTVSPost2010Prop54
  1
strokes_ogs.tif
102
RTVSPost2010PropOp54
 70
     1
102
RTVSPost2010Prop55
280
     0
102
RTVSPost2010PropOp55
 70
     1
102
RTVSPost2010Prop56
140
1.0
102
RTVSPost2010PropOp56
 70
     1
102
RTVSPost2010Prop57
140
1.0
102
RTVSPost2010PropOp57
 70
     1
  0
XRECORD
  5
90A
102
{ACAD_REACTORS
330
909
102
}
330
909
100
AcDbXrecord
280
     1
102
RTVSPost2010Prop28
280
     0
102
RTVSPost2010PropOp28
 70
     1
102
RTVSPost2010Prop29
280
     1
102
RTVSPost2010PropOp29
 70
     1
102
RTVSPost2010Prop30
280
     1
102
RTVSPost2010PropOp30
 70
     1
102
RTVSPost2010Prop31
280
     0
102
RTVSPost2010PropOp31
 70
     1
102
RTVSPost2010Prop32
280
     0
102
RTVSPost2010PropOp32
 70
     1
102
RTVSPost2010Prop33
280
     0
102
RTVSPost2010PropOp33
 70
     1
102
RTVSPost2010Prop34
280
     0
102
RTVSPost2010PropOp34
 70
     1
102
RTVSPost2010Prop35
280
     0
102
RTVSPost2010PropOp35
 70
     1
102
RTVSPost2010Prop36
280
     0
102
RTVSPost2010PropOp36
 70
     1
102
RTVSPost2010Prop37
 90
       50
102
RTVSPost2010PropOp37
 70
     1
102
RTVSPost2010Prop38
140
0.0
102
RTVSPost2010PropOp38
 70
     1
102
RTVSPost2010Prop39
140
1.0
102
RTVSPost2010PropOp39
 70
     1
102
RTVSPost2010Prop40
 90
        0
102
RTVSPost2010PropOp40
 70
     1
102
RTVSPost2010Prop41ColorIndex
 90
       18
102
RTVSPost2010Prop41ColorRGB
 90
        0
102
RTVSPost2010PropOp41
 70
     1
102
RTVSPost2010Prop42
 90
       50
102
RTVSPost2010PropOp42
 70
     1
102
RTVSPost2010Prop43
 90
        3
102
RTVSPost2010PropOp43
 70
     1
102
RTVSPost2010Prop44ColorIndex
 90
        5
102
RTVSPost2010Prop44ColorRGB
 90
      255
102
RTVSPost2010PropOp44
 70
     1
102
RTVSPost2010Prop45
280
     0
102
RTVSPost2010PropOp45
 70
     1
102
RTVSPost2010Prop46
 90
       50
102
RTVSPost2010PropOp46
 70
     1
102
RTVSPost2010Prop47
 90
       50
102
RTVSPost2010PropOp47
 70
     1
102
RTVSPost2010Prop48
 90
       50
102
RTVSPost2010PropOp48
 70
     1
102
RTVSPost2010Prop49
280
     0
102
RTVSPost2010PropOp49
 70
     1
102
RTVSPost2010Prop50
 90
       50
102
RTVSPost2010PropOp50
 70
     1
102
RTVSPost2010Prop51ColorIndex
 90
      256
102
RTVSPost2010Prop51ColorRGB
 90
-16777216
102
RTVSPost2010PropOp51
 70
     0
102
RTVSPost2010Prop52
140
1.0
102
RTVSPost2010PropOp52
 70
     0
102
RTVSPost2010Prop53
 90
        2
102
RTVSPost2010PropOp53
 70
     1
102
RTVSPost2010Prop54
  1
strokes_ogs.tif
102
RTVSPost2010PropOp54
 70
     1
102
RTVSPost2010Prop55
280
     0
102
RTVSPost2010PropOp55
 70
     1
102
RTVSPost2010Prop56
140
1.0
102
RTVSPost2010PropOp56
 70
     1
102
RTVSPost2010Prop57
140
1.0
102
RTVSPost2010PropOp57
 70
     1
  0
XRECORD
  5
912
102
{ACAD_REACTORS
330
911
102
}
330
911
100
AcDbXrecord
280
     1
102
RTVSPost2010Prop28
280
     0
102
RTVSPost2010PropOp28
 70
     1
102
RTVSPost2010Prop29
280
     1
102
RTVSPost2010PropOp29
 70
     1
102
RTVSPost2010Prop30
280
     1
102
RTVSPost2010PropOp30
 70
     1
102
RTVSPost2010Prop31
280
     0
102
RTVSPost2010PropOp31
 70
     1
102
RTVSPost2010Prop32
280
     0
102
RTVSPost2010PropOp32
 70
     1
102
RTVSPost2010Prop33
280
     0
102
RTVSPost2010PropOp33
 70
     1
102
RTVSPost2010Prop34
280
     0
102
RTVSPost2010PropOp34
 70
     1
102
RTVSPost2010Prop35
280
     0
102
RTVSPost2010PropOp35
 70
     1
102
RTVSPost2010Prop36
280
     0
102
RTVSPost2010PropOp36
 70
     1
102
RTVSPost2010Prop37
 90
       50
102
RTVSPost2010PropOp37
 70
     1
102
RTVSPost2010Prop38
140
0.0
102
RTVSPost2010PropOp38
 70
     1
102
RTVSPost2010Prop39
140
1.0
102
RTVSPost2010PropOp39
 70
     1
102
RTVSPost2010Prop40
 90
        0
102
RTVSPost2010PropOp40
 70
     1
102
RTVSPost2010Prop41ColorIndex
 90
       18
102
RTVSPost2010Prop41ColorRGB
 90
        0
102
RTVSPost2010PropOp41
 70
     1
102
RTVSPost2010Prop42
 90
       50
102
RTVSPost2010PropOp42
 70
     1
102
RTVSPost2010Prop43
 90
        3
102
RTVSPost2010PropOp43
 70
     1
102
RTVSPost2010Prop44ColorIndex
 90
        5
102
RTVSPost2010Prop44ColorRGB
 90
      255
102
RTVSPost2010PropOp44
 70
     1
102
RTVSPost2010Prop45
280
     0
102
RTVSPost2010PropOp45
 70
     1
102
RTVSPost2010Prop46
 90
       50
102
RTVSPost2010PropOp46
 70
     1
102
RTVSPost2010Prop47
 90
       50
102
RTVSPost2010PropOp47
 70
     1
102
RTVSPost2010Prop48
 90
       50
102
RTVSPost2010PropOp48
 70
     1
102
RTVSPost2010Prop49
280
     0
102
RTVSPost2010PropOp49
 70
     1
102
RTVSPost2010Prop50
 90
       50
102
RTVSPost2010PropOp50
 70
     1
102
RTVSPost2010Prop51ColorIndex
 90
      256
102
RTVSPost2010Prop51ColorRGB
 90
-16777216
102
RTVSPost2010PropOp51
 70
     0
102
RTVSPost2010Prop52
140
1.0
102
RTVSPost2010PropOp52
 70
     0
102
RTVSPost2010Prop53
 90
        2
102
RTVSPost2010PropOp53
 70
     1
102
RTVSPost2010Prop54
  1
strokes_ogs.tif
102
RTVSPost2010PropOp54
 70
     1
102
RTVSPost2010Prop55
280
     0
102
RTVSPost2010PropOp55
 70
     1
102
RTVSPost2010Prop56
140
1.0
102
RTVSPost2010PropOp56
 70
     1
102
RTVSPost2010Prop57
140
1.0
102
RTVSPost2010PropOp57
 70
     1
  0
XRECORD
  5
904
102
{ACAD_REACTORS
330
903
102
}
330
903
100
AcDbXrecord
280
     1
102
RTVSPost2010Prop28
280
     0
102
RTVSPost2010PropOp28
 70
     1
102
RTVSPost2010Prop29
280
     1
102
RTVSPost2010PropOp29
 70
     1
102
RTVSPost2010Prop30
280
     1
102
RTVSPost2010PropOp30
 70
     1
102
RTVSPost2010Prop31
280
     0
102
RTVSPost2010PropOp31
 70
     1
102
RTVSPost2010Prop32
280
     0
102
RTVSPost2010PropOp32
 70
     1
102
RTVSPost2010Prop33
280
     0
102
RTVSPost2010PropOp33
 70
     1
102
RTVSPost2010Prop34
280
     0
102
RTVSPost2010PropOp34
 70
     1
102
RTVSPost2010Prop35
280
     0
102
RTVSPost2010PropOp35
 70
     1
102
RTVSPost2010Prop36
280
     0
102
RTVSPost2010PropOp36
 70
     1
102
RTVSPost2010Prop37
 90
       50
102
RTVSPost2010PropOp37
 70
     1
102
RTVSPost2010Prop38
140
0.0
102
RTVSPost2010PropOp38
 70
     1
102
RTVSPost2010Prop39
140
1.0
102
RTVSPost2010PropOp39
 70
     1
102
RTVSPost2010Prop40
 90
        0
102
RTVSPost2010PropOp40
 70
     1
102
RTVSPost2010Prop41ColorIndex
 90
       18
102
RTVSPost2010Prop41ColorRGB
 90
        0
102
RTVSPost2010PropOp41
 70
     1
102
RTVSPost2010Prop42
 90
       50
102
RTVSPost2010PropOp42
 70
     1
102
RTVSPost2010Prop43
 90
        3
102
RTVSPost2010PropOp43
 70
     1
102
RTVSPost2010Prop44ColorIndex
 90
        5
102
RTVSPost2010Prop44ColorRGB
 90
      255
102
RTVSPost2010PropOp44
 70
     1
102
RTVSPost2010Prop45
280
     0
102
RTVSPost2010PropOp45
 70
     1
102
RTVSPost2010Prop46
 90
       50
102
RTVSPost2010PropOp46
 70
     1
102
RTVSPost2010Prop47
 90
       50
102
RTVSPost2010PropOp47
 70
     1
102
RTVSPost2010Prop48
 90
       50
102
RTVSPost2010PropOp48
 70
     1
102
RTVSPost2010Prop49
280
     0
102
RTVSPost2010PropOp49
 70
     1
102
RTVSPost2010Prop50
 90
       50
102
RTVSPost2010PropOp50
 70
     1
102
RTVSPost2010Prop51ColorIndex
 90
      256
102
RTVSPost2010Prop51ColorRGB
 90
-16777216
102
RTVSPost2010PropOp51
 70
     0
102
RTVSPost2010Prop52
140
1.0
102
RTVSPost2010PropOp52
 70
     0
102
RTVSPost2010Prop53
 90
        2
102
RTVSPost2010PropOp53
 70
     1
102
RTVSPost2010Prop54
  1
strokes_ogs.tif
102
RTVSPost2010PropOp54
 70
     1
102
RTVSPost2010Prop55
280
     0
102
RTVSPost2010PropOp55
 70
     1
102
RTVSPost2010Prop56
140
1.0
102
RTVSPost2010PropOp56
 70
     1
102
RTVSPost2010Prop57
140
1.0
102
RTVSPost2010PropOp57
 70
     1
  0
XRECORD
  5
908
102
{ACAD_REACTORS
330
907
102
}
330
907
100
AcDbXrecord
280
     1
102
RTVSPost2010Prop28
280
     0
102
RTVSPost2010PropOp28
 70
     1
102
RTVSPost2010Prop29
280
     1
102
RTVSPost2010PropOp29
 70
     1
102
RTVSPost2010Prop30
280
     1
102
RTVSPost2010PropOp30
 70
     1
102
RTVSPost2010Prop31
280
     0
102
RTVSPost2010PropOp31
 70
     1
102
RTVSPost2010Prop32
280
     0
102
RTVSPost2010PropOp32
 70
     1
102
RTVSPost2010Prop33
280
     0
102
RTVSPost2010PropOp33
 70
     1
102
RTVSPost2010Prop34
280
     0
102
RTVSPost2010PropOp34
 70
     1
102
RTVSPost2010Prop35
280
     0
102
RTVSPost2010PropOp35
 70
     1
102
RTVSPost2010Prop36
280
     0
102
RTVSPost2010PropOp36
 70
     1
102
RTVSPost2010Prop37
 90
       50
102
RTVSPost2010PropOp37
 70
     1
102
RTVSPost2010Prop38
140
0.0
102
RTVSPost2010PropOp38
 70
     1
102
RTVSPost2010Prop39
140
1.0
102
RTVSPost2010PropOp39
 70
     1
102
RTVSPost2010Prop40
 90
        0
102
RTVSPost2010PropOp40
 70
     1
102
RTVSPost2010Prop41ColorIndex
 90
       18
102
RTVSPost2010Prop41ColorRGB
 90
        0
102
RTVSPost2010PropOp41
 70
     1
102
RTVSPost2010Prop42
 90
       50
102
RTVSPost2010PropOp42
 70
     1
102
RTVSPost2010Prop43
 90
        3
102
RTVSPost2010PropOp43
 70
     1
102
RTVSPost2010Prop44ColorIndex
 90
        5
102
RTVSPost2010Prop44ColorRGB
 90
      255
102
RTVSPost2010PropOp44
 70
     1
102
RTVSPost2010Prop45
280
     0
102
RTVSPost2010PropOp45
 70
     1
102
RTVSPost2010Prop46
 90
       50
102
RTVSPost2010PropOp46
 70
     1
102
RTVSPost2010Prop47
 90
       50
102
RTVSPost2010PropOp47
 70
     1
102
RTVSPost2010Prop48
 90
       50
102
RTVSPost2010PropOp48
 70
     1
102
RTVSPost2010Prop49
280
     0
102
RTVSPost2010PropOp49
 70
     1
102
RTVSPost2010Prop50
 90
       50
102
RTVSPost2010PropOp50
 70
     1
102
RTVSPost2010Prop51ColorIndex
 90
      256
102
RTVSPost2010Prop51ColorRGB
 90
-16777216
102
RTVSPost2010PropOp51
 70
     0
102
RTVSPost2010Prop52
140
1.0
102
RTVSPost2010PropOp52
 70
     0
102
RTVSPost2010Prop53
 90
        2
102
RTVSPost2010PropOp53
 70
     1
102
RTVSPost2010Prop54
  1
strokes_ogs.tif
102
RTVSPost2010PropOp54
 70
     1
102
RTVSPost2010Prop55
280
     0
102
RTVSPost2010PropOp55
 70
     1
102
RTVSPost2010Prop56
140
1.0
102
RTVSPost2010PropOp56
 70
     1
102
RTVSPost2010Prop57
140
1.0
102
RTVSPost2010PropOp57
 70
     1
  0
XRECORD
  5
922
102
{ACAD_REACTORS
330
921
102
}
330
921
100
AcDbXrecord
280
     1
102
RTVSPost2010Prop28
280
     0
102
RTVSPost2010PropOp28
 70
     1
102
RTVSPost2010Prop29
280
     1
102
RTVSPost2010PropOp29
 70
     1
102
RTVSPost2010Prop30
280
     1
102
RTVSPost2010PropOp30
 70
     1
102
RTVSPost2010Prop31
280
     0
102
RTVSPost2010PropOp31
 70
     1
102
RTVSPost2010Prop32
280
     0
102
RTVSPost2010PropOp32
 70
     1
102
RTVSPost2010Prop33
280
     0
102
RTVSPost2010PropOp33
 70
     1
102
RTVSPost2010Prop34
280
     0
102
RTVSPost2010PropOp34
 70
     1
102
RTVSPost2010Prop35
280
     0
102
RTVSPost2010PropOp35
 70
     1
102
RTVSPost2010Prop36
280
     0
102
RTVSPost2010PropOp36
 70
     1
102
RTVSPost2010Prop37
 90
       50
102
RTVSPost2010PropOp37
 70
     0
102
RTVSPost2010Prop38
140
0.0
102
RTVSPost2010PropOp38
 70
     0
102
RTVSPost2010Prop39
140
1.0
102
RTVSPost2010PropOp39
 70
     0
102
RTVSPost2010Prop40
 90
        0
102
RTVSPost2010PropOp40
 70
     0
102
RTVSPost2010Prop41ColorIndex
 90
       18
102
RTVSPost2010Prop41ColorRGB
 90
        0
102
RTVSPost2010PropOp41
 70
     0
102
RTVSPost2010Prop42
 90
       50
102
RTVSPost2010PropOp42
 70
     0
102
RTVSPost2010Prop43
 90
        3
102
RTVSPost2010PropOp43
 70
     0
102
RTVSPost2010Prop44ColorIndex
 90
        5
102
RTVSPost2010Prop44ColorRGB
 90
      255
102
RTVSPost2010PropOp44
 70
     0
102
RTVSPost2010Prop45
280
     0
102
RTVSPost2010PropOp45
 70
     1
102
RTVSPost2010Prop46
 90
       50
102
RTVSPost2010PropOp46
 70
     0
102
RTVSPost2010Prop47
 90
       50
102
RTVSPost2010PropOp47
 70
     0
102
RTVSPost2010Prop48
 90
       50
102
RTVSPost2010PropOp48
 70
     0
102
RTVSPost2010Prop49
280
     0
102
RTVSPost2010PropOp49
 70
     1
102
RTVSPost2010Prop50
 90
       50
102
RTVSPost2010PropOp50
 70
     0
102
RTVSPost2010Prop51ColorIndex
 90
      256
102
RTVSPost2010Prop51ColorRGB
 90
-16777216
102
RTVSPost2010PropOp51
 70
     0
102
RTVSPost2010Prop52
140
1.0
102
RTVSPost2010PropOp52
 70
     0
102
RTVSPost2010Prop53
 90
        2
102
RTVSPost2010PropOp53
 70
     0
102
RTVSPost2010Prop54
  1
strokes_ogs.tif
102
RTVSPost2010PropOp54
 70
     0
102
RTVSPost2010Prop55
280
     0
102
RTVSPost2010PropOp55
 70
     1
102
RTVSPost2010Prop56
140
1.0
102
RTVSPost2010PropOp56
 70
     0
102
RTVSPost2010Prop57
140
1.0
102
RTVSPost2010PropOp57
 70
     0
  0
XRECORD
  5
910
102
{ACAD_REACTORS
330
90F
102
}
330
90F
100
AcDbXrecord
280
     1
102
RTVSPost2010Prop28
280
     0
102
RTVSPost2010PropOp28
 70
     1
102
RTVSPost2010Prop29
280
     1
102
RTVSPost2010PropOp29
 70
     1
102
RTVSPost2010Prop30
280
     1
102
RTVSPost2010PropOp30
 70
     1
102
RTVSPost2010Prop31
280
     0
102
RTVSPost2010PropOp31
 70
     1
102
RTVSPost2010Prop32
280
     0
102
RTVSPost2010PropOp32
 70
     1
102
RTVSPost2010Prop33
280
     0
102
RTVSPost2010PropOp33
 70
     1
102
RTVSPost2010Prop34
280
     0
102
RTVSPost2010PropOp34
 70
     1
102
RTVSPost2010Prop35
280
     0
102
RTVSPost2010PropOp35
 70
     1
102
RTVSPost2010Prop36
280
     0
102
RTVSPost2010PropOp36
 70
     1
102
RTVSPost2010Prop37
 90
       50
102
RTVSPost2010PropOp37
 70
     1
102
RTVSPost2010Prop38
140
0.0
102
RTVSPost2010PropOp38
 70
     1
102
RTVSPost2010Prop39
140
1.0
102
RTVSPost2010PropOp39
 70
     1
102
RTVSPost2010Prop40
 90
        0
102
RTVSPost2010PropOp40
 70
     1
102
RTVSPost2010Prop41ColorIndex
 90
       18
102
RTVSPost2010Prop41ColorRGB
 90
        0
102
RTVSPost2010PropOp41
 70
     1
102
RTVSPost2010Prop42
 90
       50
102
RTVSPost2010PropOp42
 70
     1
102
RTVSPost2010Prop43
 90
        3
102
RTVSPost2010PropOp43
 70
     1
102
RTVSPost2010Prop44ColorIndex
 90
        5
102
RTVSPost2010Prop44ColorRGB
 90
      255
102
RTVSPost2010PropOp44
 70
     1
102
RTVSPost2010Prop45
280
     0
102
RTVSPost2010PropOp45
 70
     1
102
RTVSPost2010Prop46
 90
       50
102
RTVSPost2010PropOp46
 70
     1
102
RTVSPost2010Prop47
 90
       50
102
RTVSPost2010PropOp47
 70
     1
102
RTVSPost2010Prop48
 90
       50
102
RTVSPost2010PropOp48
 70
     1
102
RTVSPost2010Prop49
280
     0
102
RTVSPost2010PropOp49
 70
     1
102
RTVSPost2010Prop50
 90
       50
102
RTVSPost2010PropOp50
 70
     1
102
RTVSPost2010Prop51ColorIndex
 90
      256
102
RTVSPost2010Prop51ColorRGB
 90
-16777216
102
RTVSPost2010PropOp51
 70
     0
102
RTVSPost2010Prop52
140
1.0
102
RTVSPost2010PropOp52
 70
     0
102
RTVSPost2010Prop53
 90
        2
102
RTVSPost2010PropOp53
 70
     1
102
RTVSPost2010Prop54
  1
strokes_ogs.tif
102
RTVSPost2010PropOp54
 70
     1
102
RTVSPost2010Prop55
280
     0
102
RTVSPost2010PropOp55
 70
     1
102
RTVSPost2010Prop56
140
1.0
102
RTVSPost2010PropOp56
 70
     1
102
RTVSPost2010Prop57
140
1.0
102
RTVSPost2010PropOp57
 70
     1
  0
XRECORD
  5
8F4
102
{ACAD_REACTORS
330
8F3
102
}
330
8F3
100
AcDbXrecord
280
     1
102
RTVSPost2010Prop28
280
     0
102
RTVSPost2010PropOp28
 70
     1
102
RTVSPost2010Prop29
280
     1
102
RTVSPost2010PropOp29
 70
     1
102
RTVSPost2010Prop30
280
     1
102
RTVSPost2010PropOp30
 70
     1
102
RTVSPost2010Prop31
280
     0
102
RTVSPost2010PropOp31
 70
     1
102
RTVSPost2010Prop32
280
     0
102
RTVSPost2010PropOp32
 70
     1
102
RTVSPost2010Prop33
280
     0
102
RTVSPost2010PropOp33
 70
     1
102
RTVSPost2010Prop34
280
     0
102
RTVSPost2010PropOp34
 70
     1
102
RTVSPost2010Prop35
280
     0
102
RTVSPost2010PropOp35
 70
     1
102
RTVSPost2010Prop36
280
     0
102
RTVSPost2010PropOp36
 70
     1
102
RTVSPost2010Prop37
 90
       50
102
RTVSPost2010PropOp37
 70
     1
102
RTVSPost2010Prop38
140
0.0
102
RTVSPost2010PropOp38
 70
     1
102
RTVSPost2010Prop39
140
1.0
102
RTVSPost2010PropOp39
 70
     1
102
RTVSPost2010Prop40
 90
        0
102
RTVSPost2010PropOp40
 70
     1
102
RTVSPost2010Prop41ColorIndex
 90
       18
102
RTVSPost2010Prop41ColorRGB
 90
        0
102
RTVSPost2010PropOp41
 70
     1
102
RTVSPost2010Prop42
 90
       50
102
RTVSPost2010PropOp42
 70
     1
102
RTVSPost2010Prop43
 90
        3
102
RTVSPost2010PropOp43
 70
     1
102
RTVSPost2010Prop44ColorIndex
 90
        5
102
RTVSPost2010Prop44ColorRGB
 90
      255
102
RTVSPost2010PropOp44
 70
     1
102
RTVSPost2010Prop45
280
     0
102
RTVSPost2010PropOp45
 70
     1
102
RTVSPost2010Prop46
 90
       50
102
RTVSPost2010PropOp46
 70
     1
102
RTVSPost2010Prop47
 90
       50
102
RTVSPost2010PropOp47
 70
     1
102
RTVSPost2010Prop48
 90
       50
102
RTVSPost2010PropOp48
 70
     1
102
RTVSPost2010Prop49
280
     0
102
RTVSPost2010PropOp49
 70
     1
102
RTVSPost2010Prop50
 90
       50
102
RTVSPost2010PropOp50
 70
     1
102
RTVSPost2010Prop51ColorIndex
 90
      256
102
RTVSPost2010Prop51ColorRGB
 90
-16777216
102
RTVSPost2010PropOp51
 70
     0
102
RTVSPost2010Prop52
140
1.0
102
RTVSPost2010PropOp52
 70
     0
102
RTVSPost2010Prop53
 90
        2
102
RTVSPost2010PropOp53
 70
     1
102
RTVSPost2010Prop54
  1
strokes_ogs.tif
102
RTVSPost2010PropOp54
 70
     1
102
RTVSPost2010Prop55
280
     0
102
RTVSPost2010PropOp55
 70
     1
102
RTVSPost2010Prop56
140
1.0
102
RTVSPost2010PropOp56
 70
     1
102
RTVSPost2010Prop57
140
1.0
102
RTVSPost2010PropOp57
 70
     1
  0
XRECORD
  5
8F6
102
{ACAD_REACTORS
330
8F5
102
}
330
8F5
100
AcDbXrecord
280
     1
102
RTVSPost2010Prop28
280
     0
102
RTVSPost2010PropOp28
 70
     1
102
RTVSPost2010Prop29
280
     1
102
RTVSPost2010PropOp29
 70
     1
102
RTVSPost2010Prop30
280
     1
102
RTVSPost2010PropOp30
 70
     1
102
RTVSPost2010Prop31
280
     0
102
RTVSPost2010PropOp31
 70
     1
102
RTVSPost2010Prop32
280
     0
102
RTVSPost2010PropOp32
 70
     1
102
RTVSPost2010Prop33
280
     0
102
RTVSPost2010PropOp33
 70
     1
102
RTVSPost2010Prop34
280
     0
102
RTVSPost2010PropOp34
 70
     1
102
RTVSPost2010Prop35
280
     0
102
RTVSPost2010PropOp35
 70
     1
102
RTVSPost2010Prop36
280
     0
102
RTVSPost2010PropOp36
 70
     1
102
RTVSPost2010Prop37
 90
       50
102
RTVSPost2010PropOp37
 70
     1
102
RTVSPost2010Prop38
140
0.0
102
RTVSPost2010PropOp38
 70
     1
102
RTVSPost2010Prop39
140
1.0
102
RTVSPost2010PropOp39
 70
     1
102
RTVSPost2010Prop40
 90
        0
102
RTVSPost2010PropOp40
 70
     1
102
RTVSPost2010Prop41ColorIndex
 90
       18
102
RTVSPost2010Prop41ColorRGB
 90
        0
102
RTVSPost2010PropOp41
 70
     1
102
RTVSPost2010Prop42
 90
       50
102
RTVSPost2010PropOp42
 70
     1
102
RTVSPost2010Prop43
 90
        3
102
RTVSPost2010PropOp43
 70
     1
102
RTVSPost2010Prop44ColorIndex
 90
        5
102
RTVSPost2010Prop44ColorRGB
 90
      255
102
RTVSPost2010PropOp44
 70
     1
102
RTVSPost2010Prop45
280
     0
102
RTVSPost2010PropOp45
 70
     1
102
RTVSPost2010Prop46
 90
       50
102
RTVSPost2010PropOp46
 70
     1
102
RTVSPost2010Prop47
 90
       50
102
RTVSPost2010PropOp47
 70
     1
102
RTVSPost2010Prop48
 90
       50
102
RTVSPost2010PropOp48
 70
     1
102
RTVSPost2010Prop49
280
     0
102
RTVSPost2010PropOp49
 70
     1
102
RTVSPost2010Prop50
 90
       50
102
RTVSPost2010PropOp50
 70
     1
102
RTVSPost2010Prop51ColorIndex
 90
      256
102
RTVSPost2010Prop51ColorRGB
 90
-16777216
102
RTVSPost2010PropOp51
 70
     0
102
RTVSPost2010Prop52
140
1.0
102
RTVSPost2010PropOp52
 70
     0
102
RTVSPost2010Prop53
 90
        2
102
RTVSPost2010PropOp53
 70
     1
102
RTVSPost2010Prop54
  1
strokes_ogs.tif
102
RTVSPost2010PropOp54
 70
     1
102
RTVSPost2010Prop55
280
     0
102
RTVSPost2010PropOp55
 70
     1
102
RTVSPost2010Prop56
140
1.0
102
RTVSPost2010PropOp56
 70
     1
102
RTVSPost2010Prop57
140
1.0
102
RTVSPost2010PropOp57
 70
     1
  0
XRECORD
  5
8F8
102
{ACAD_REACTORS
330
8F7
102
}
330
8F7
100
AcDbXrecord
280
     1
102
RTVSPost2010Prop28
280
     0
102
RTVSPost2010PropOp28
 70
     1
102
RTVSPost2010Prop29
280
     1
102
RTVSPost2010PropOp29
 70
     1
102
RTVSPost2010Prop30
280
     1
102
RTVSPost2010PropOp30
 70
     1
102
RTVSPost2010Prop31
280
     0
102
RTVSPost2010PropOp31
 70
     1
102
RTVSPost2010Prop32
280
     0
102
RTVSPost2010PropOp32
 70
     1
102
RTVSPost2010Prop33
280
     0
102
RTVSPost2010PropOp33
 70
     1
102
RTVSPost2010Prop34
280
     0
102
RTVSPost2010PropOp34
 70
     1
102
RTVSPost2010Prop35
280
     0
102
RTVSPost2010PropOp35
 70
     1
102
RTVSPost2010Prop36
280
     0
102
RTVSPost2010PropOp36
 70
     1
102
RTVSPost2010Prop37
 90
       50
102
RTVSPost2010PropOp37
 70
     1
102
RTVSPost2010Prop38
140
0.0
102
RTVSPost2010PropOp38
 70
     1
102
RTVSPost2010Prop39
140
1.0
102
RTVSPost2010PropOp39
 70
     1
102
RTVSPost2010Prop40
 90
        0
102
RTVSPost2010PropOp40
 70
     1
102
RTVSPost2010Prop41ColorIndex
 90
       18
102
RTVSPost2010Prop41ColorRGB
 90
        0
102
RTVSPost2010PropOp41
 70
     1
102
RTVSPost2010Prop42
 90
       50
102
RTVSPost2010PropOp42
 70
     1
102
RTVSPost2010Prop43
 90
        3
102
RTVSPost2010PropOp43
 70
     1
102
RTVSPost2010Prop44ColorIndex
 90
        5
102
RTVSPost2010Prop44ColorRGB
 90
      255
102
RTVSPost2010PropOp44
 70
     1
102
RTVSPost2010Prop45
280
     0
102
RTVSPost2010PropOp45
 70
     1
102
RTVSPost2010Prop46
 90
       50
102
RTVSPost2010PropOp46
 70
     1
102
RTVSPost2010Prop47
 90
       50
102
RTVSPost2010PropOp47
 70
     1
102
RTVSPost2010Prop48
 90
       50
102
RTVSPost2010PropOp48
 70
     1
102
RTVSPost2010Prop49
280
     0
102
RTVSPost2010PropOp49
 70
     1
102
RTVSPost2010Prop50
 90
       50
102
RTVSPost2010PropOp50
 70
     1
102
RTVSPost2010Prop51ColorIndex
 90
      256
102
RTVSPost2010Prop51ColorRGB
 90
-16777216
102
RTVSPost2010PropOp51
 70
     0
102
RTVSPost2010Prop52
140
1.0
102
RTVSPost2010PropOp52
 70
     0
102
RTVSPost2010Prop53
 90
        2
102
RTVSPost2010PropOp53
 70
     1
102
RTVSPost2010Prop54
  1
strokes_ogs.tif
102
RTVSPost2010PropOp54
 70
     1
102
RTVSPost2010Prop55
280
     0
102
RTVSPost2010PropOp55
 70
     1
102
RTVSPost2010Prop56
140
1.0
102
RTVSPost2010PropOp56
 70
     1
102
RTVSPost2010Prop57
140
1.0
102
RTVSPost2010PropOp57
 70
     1
  0
XRECORD
  5
8FA
102
{ACAD_REACTORS
330
8F9
102
}
330
8F9
100
AcDbXrecord
280
     1
102
RTVSPost2010Prop28
280
     0
102
RTVSPost2010PropOp28
 70
     1
102
RTVSPost2010Prop29
280
     1
102
RTVSPost2010PropOp29
 70
     1
102
RTVSPost2010Prop30
280
     1
102
RTVSPost2010PropOp30
 70
     1
102
RTVSPost2010Prop31
280
     0
102
RTVSPost2010PropOp31
 70
     1
102
RTVSPost2010Prop32
280
     0
102
RTVSPost2010PropOp32
 70
     1
102
RTVSPost2010Prop33
280
     0
102
RTVSPost2010PropOp33
 70
     1
102
RTVSPost2010Prop34
280
     0
102
RTVSPost2010PropOp34
 70
     1
102
RTVSPost2010Prop35
280
     0
102
RTVSPost2010PropOp35
 70
     1
102
RTVSPost2010Prop36
280
     0
102
RTVSPost2010PropOp36
 70
     1
102
RTVSPost2010Prop37
 90
       50
102
RTVSPost2010PropOp37
 70
     1
102
RTVSPost2010Prop38
140
0.0
102
RTVSPost2010PropOp38
 70
     1
102
RTVSPost2010Prop39
140
1.0
102
RTVSPost2010PropOp39
 70
     1
102
RTVSPost2010Prop40
 90
        0
102
RTVSPost2010PropOp40
 70
     1
102
RTVSPost2010Prop41ColorIndex
 90
       18
102
RTVSPost2010Prop41ColorRGB
 90
        0
102
RTVSPost2010PropOp41
 70
     1
102
RTVSPost2010Prop42
 90
       50
102
RTVSPost2010PropOp42
 70
     1
102
RTVSPost2010Prop43
 90
        3
102
RTVSPost2010PropOp43
 70
     1
102
RTVSPost2010Prop44ColorIndex
 90
        5
102
RTVSPost2010Prop44ColorRGB
 90
      255
102
RTVSPost2010PropOp44
 70
     1
102
RTVSPost2010Prop45
280
     0
102
RTVSPost2010PropOp45
 70
     1
102
RTVSPost2010Prop46
 90
       50
102
RTVSPost2010PropOp46
 70
     1
102
RTVSPost2010Prop47
 90
       50
102
RTVSPost2010PropOp47
 70
     1
102
RTVSPost2010Prop48
 90
       50
102
RTVSPost2010PropOp48
 70
     1
102
RTVSPost2010Prop49
280
     0
102
RTVSPost2010PropOp49
 70
     1
102
RTVSPost2010Prop50
 90
       50
102
RTVSPost2010PropOp50
 70
     1
102
RTVSPost2010Prop51ColorIndex
 90
      256
102
RTVSPost2010Prop51ColorRGB
 90
-16777216
102
RTVSPost2010PropOp51
 70
     0
102
RTVSPost2010Prop52
140
1.0
102
RTVSPost2010PropOp52
 70
     0
102
RTVSPost2010Prop53
 90
        2
102
RTVSPost2010PropOp53
 70
     1
102
RTVSPost2010Prop54
  1
strokes_ogs.tif
102
RTVSPost2010PropOp54
 70
     1
102
RTVSPost2010Prop55
280
     0
102
RTVSPost2010PropOp55
 70
     1
102
RTVSPost2010Prop56
140
1.0
102
RTVSPost2010PropOp56
 70
     1
102
RTVSPost2010Prop57
140
1.0
102
RTVSPost2010PropOp57
 70
     1
  0
XRECORD
  5
902
102
{ACAD_REACTORS
330
901
102
}
330
901
100
AcDbXrecord
280
     1
102
RTVSPost2010Prop28
280
     0
102
RTVSPost2010PropOp28
 70
     1
102
RTVSPost2010Prop29
280
     1
102
RTVSPost2010PropOp29
 70
     1
102
RTVSPost2010Prop30
280
     1
102
RTVSPost2010PropOp30
 70
     1
102
RTVSPost2010Prop31
280
     0
102
RTVSPost2010PropOp31
 70
     1
102
RTVSPost2010Prop32
280
     0
102
RTVSPost2010PropOp32
 70
     1
102
RTVSPost2010Prop33
280
     0
102
RTVSPost2010PropOp33
 70
     1
102
RTVSPost2010Prop34
280
     0
102
RTVSPost2010PropOp34
 70
     1
102
RTVSPost2010Prop35
280
     0
102
RTVSPost2010PropOp35
 70
     1
102
RTVSPost2010Prop36
280
     0
102
RTVSPost2010PropOp36
 70
     1
102
RTVSPost2010Prop37
 90
       50
102
RTVSPost2010PropOp37
 70
     1
102
RTVSPost2010Prop38
140
0.0
102
RTVSPost2010PropOp38
 70
     1
102
RTVSPost2010Prop39
140
1.0
102
RTVSPost2010PropOp39
 70
     1
102
RTVSPost2010Prop40
 90
        0
102
RTVSPost2010PropOp40
 70
     1
102
RTVSPost2010Prop41ColorIndex
 90
       18
102
RTVSPost2010Prop41ColorRGB
 90
        0
102
RTVSPost2010PropOp41
 70
     1
102
RTVSPost2010Prop42
 90
       50
102
RTVSPost2010PropOp42
 70
     1
102
RTVSPost2010Prop43
 90
        3
102
RTVSPost2010PropOp43
 70
     1
102
RTVSPost2010Prop44ColorIndex
 90
        5
102
RTVSPost2010Prop44ColorRGB
 90
      255
102
RTVSPost2010PropOp44
 70
     1
102
RTVSPost2010Prop45
280
     0
102
RTVSPost2010PropOp45
 70
     1
102
RTVSPost2010Prop46
 90
       50
102
RTVSPost2010PropOp46
 70
     1
102
RTVSPost2010Prop47
 90
       50
102
RTVSPost2010PropOp47
 70
     1
102
RTVSPost2010Prop48
 90
       50
102
RTVSPost2010PropOp48
 70
     1
102
RTVSPost2010Prop49
280
     0
102
RTVSPost2010PropOp49
 70
     1
102
RTVSPost2010Prop50
 90
       50
102
RTVSPost2010PropOp50
 70
     1
102
RTVSPost2010Prop51ColorIndex
 90
      256
102
RTVSPost2010Prop51ColorRGB
 90
-16777216
102
RTVSPost2010PropOp51
 70
     0
102
RTVSPost2010Prop52
140
1.0
102
RTVSPost2010PropOp52
 70
     0
102
RTVSPost2010Prop53
 90
        2
102
RTVSPost2010PropOp53
 70
     1
102
RTVSPost2010Prop54
  1
strokes_ogs.tif
102
RTVSPost2010PropOp54
 70
     1
102
RTVSPost2010Prop55
280
     0
102
RTVSPost2010PropOp55
 70
     1
102
RTVSPost2010Prop56
140
1.0
102
RTVSPost2010PropOp56
 70
     1
102
RTVSPost2010Prop57
140
1.0
102
RTVSPost2010PropOp57
 70
     1
  0
XRECORD
  5
91E
102
{ACAD_REACTORS
330
91D
102
}
330
91D
100
AcDbXrecord
280
     1
102
RTVSPost2010Prop28
280
     0
102
RTVSPost2010PropOp28
 70
     1
102
RTVSPost2010Prop29
280
     1
102
RTVSPost2010PropOp29
 70
     1
102
RTVSPost2010Prop30
280
     1
102
RTVSPost2010PropOp30
 70
     1
102
RTVSPost2010Prop31
280
     0
102
RTVSPost2010PropOp31
 70
     1
102
RTVSPost2010Prop32
280
     0
102
RTVSPost2010PropOp32
 70
     1
102
RTVSPost2010Prop33
280
     0
102
RTVSPost2010PropOp33
 70
     1
102
RTVSPost2010Prop34
280
     0
102
RTVSPost2010PropOp34
 70
     1
102
RTVSPost2010Prop35
280
     0
102
RTVSPost2010PropOp35
 70
     1
102
RTVSPost2010Prop36
280
     0
102
RTVSPost2010PropOp36
 70
     1
102
RTVSPost2010Prop37
 90
       50
102
RTVSPost2010PropOp37
 70
     0
102
RTVSPost2010Prop38
140
0.0
102
RTVSPost2010PropOp38
 70
     0
102
RTVSPost2010Prop39
140
1.0
102
RTVSPost2010PropOp39
 70
     0
102
RTVSPost2010Prop40
 90
        0
102
RTVSPost2010PropOp40
 70
     0
102
RTVSPost2010Prop41ColorIndex
 90
       18
102
RTVSPost2010Prop41ColorRGB
 90
        0
102
RTVSPost2010PropOp41
 70
     0
102
RTVSPost2010Prop42
 90
       50
102
RTVSPost2010PropOp42
 70
     0
102
RTVSPost2010Prop43
 90
        3
102
RTVSPost2010PropOp43
 70
     0
102
RTVSPost2010Prop44ColorIndex
 90
        5
102
RTVSPost2010Prop44ColorRGB
 90
      255
102
RTVSPost2010PropOp44
 70
     0
102
RTVSPost2010Prop45
280
     0
102
RTVSPost2010PropOp45
 70
     1
102
RTVSPost2010Prop46
 90
       50
102
RTVSPost2010PropOp46
 70
     0
102
RTVSPost2010Prop47
 90
       50
102
RTVSPost2010PropOp47
 70
     0
102
RTVSPost2010Prop48
 90
       50
102
RTVSPost2010PropOp48
 70
     0
102
RTVSPost2010Prop49
280
     0
102
RTVSPost2010PropOp49
 70
     1
102
RTVSPost2010Prop50
 90
       50
102
RTVSPost2010PropOp50
 70
     0
102
RTVSPost2010Prop51ColorIndex
 90
      256
102
RTVSPost2010Prop51ColorRGB
 90
-16777216
102
RTVSPost2010PropOp51
 70
     0
102
RTVSPost2010Prop52
140
1.0
102
RTVSPost2010PropOp52
 70
     0
102
RTVSPost2010Prop53
 90
        2
102
RTVSPost2010PropOp53
 70
     0
102
RTVSPost2010Prop54
  1
strokes_ogs.tif
102
RTVSPost2010PropOp54
 70
     0
102
RTVSPost2010Prop55
280
     0
102
RTVSPost2010PropOp55
 70
     1
102
RTVSPost2010Prop56
140
1.0
102
RTVSPost2010PropOp56
 70
     0
102
RTVSPost2010Prop57
140
1.0
102
RTVSPost2010PropOp57
 70
     0
  0
XRECORD
  5
90E
102
{ACAD_REACTORS
330
90D
102
}
330
90D
100
AcDbXrecord
280
     1
102
RTVSPost2010Prop28
280
     0
102
RTVSPost2010PropOp28
 70
     1
102
RTVSPost2010Prop29
280
     1
102
RTVSPost2010PropOp29
 70
     1
102
RTVSPost2010Prop30
280
     1
102
RTVSPost2010PropOp30
 70
     1
102
RTVSPost2010Prop31
280
     0
102
RTVSPost2010PropOp31
 70
     1
102
RTVSPost2010Prop32
280
     0
102
RTVSPost2010PropOp32
 70
     1
102
RTVSPost2010Prop33
280
     0
102
RTVSPost2010PropOp33
 70
     1
102
RTVSPost2010Prop34
280
     0
102
RTVSPost2010PropOp34
 70
     1
102
RTVSPost2010Prop35
280
     0
102
RTVSPost2010PropOp35
 70
     1
102
RTVSPost2010Prop36
280
     0
102
RTVSPost2010PropOp36
 70
     1
102
RTVSPost2010Prop37
 90
       50
102
RTVSPost2010PropOp37
 70
     1
102
RTVSPost2010Prop38
140
0.0
102
RTVSPost2010PropOp38
 70
     1
102
RTVSPost2010Prop39
140
1.0
102
RTVSPost2010PropOp39
 70
     1
102
RTVSPost2010Prop40
 90
        0
102
RTVSPost2010PropOp40
 70
     1
102
RTVSPost2010Prop41ColorIndex
 90
       18
102
RTVSPost2010Prop41ColorRGB
 90
        0
102
RTVSPost2010PropOp41
 70
     1
102
RTVSPost2010Prop42
 90
       50
102
RTVSPost2010PropOp42
 70
     1
102
RTVSPost2010Prop43
 90
        3
102
RTVSPost2010PropOp43
 70
     1
102
RTVSPost2010Prop44ColorIndex
 90
        5
102
RTVSPost2010Prop44ColorRGB
 90
      255
102
RTVSPost2010PropOp44
 70
     1
102
RTVSPost2010Prop45
280
     0
102
RTVSPost2010PropOp45
 70
     1
102
RTVSPost2010Prop46
 90
       50
102
RTVSPost2010PropOp46
 70
     1
102
RTVSPost2010Prop47
 90
       50
102
RTVSPost2010PropOp47
 70
     1
102
RTVSPost2010Prop48
 90
       50
102
RTVSPost2010PropOp48
 70
     1
102
RTVSPost2010Prop49
280
     0
102
RTVSPost2010PropOp49
 70
     1
102
RTVSPost2010Prop50
 90
       50
102
RTVSPost2010PropOp50
 70
     1
102
RTVSPost2010Prop51ColorIndex
 90
      256
102
RTVSPost2010Prop51ColorRGB
 90
-16777216
102
RTVSPost2010PropOp51
 70
     0
102
RTVSPost2010Prop52
140
1.0
102
RTVSPost2010PropOp52
 70
     0
102
RTVSPost2010Prop53
 90
        2
102
RTVSPost2010PropOp53
 70
     1
102
RTVSPost2010Prop54
  1
strokes_ogs.tif
102
RTVSPost2010PropOp54
 70
     1
102
RTVSPost2010Prop55
280
     0
102
RTVSPost2010PropOp55
 70
     1
102
RTVSPost2010Prop56
140
1.0
102
RTVSPost2010PropOp56
 70
     1
102
RTVSPost2010Prop57
140
1.0
102
RTVSPost2010PropOp57
 70
     1
  0
XRECORD
  5
920
102
{ACAD_REACTORS
330
91F
102
}
330
91F
100
AcDbXrecord
280
     1
102
RTVSPost2010Prop28
280
     0
102
RTVSPost2010PropOp28
 70
     1
102
RTVSPost2010Prop29
280
     1
102
RTVSPost2010PropOp29
 70
     1
102
RTVSPost2010Prop30
280
     1
102
RTVSPost2010PropOp30
 70
     1
102
RTVSPost2010Prop31
280
     0
102
RTVSPost2010PropOp31
 70
     1
102
RTVSPost2010Prop32
280
     0
102
RTVSPost2010PropOp32
 70
     1
102
RTVSPost2010Prop33
280
     0
102
RTVSPost2010PropOp33
 70
     1
102
RTVSPost2010Prop34
280
     0
102
RTVSPost2010PropOp34
 70
     1
102
RTVSPost2010Prop35
280
     0
102
RTVSPost2010PropOp35
 70
     1
102
RTVSPost2010Prop36
280
     0
102
RTVSPost2010PropOp36
 70
     1
102
RTVSPost2010Prop37
 90
       50
102
RTVSPost2010PropOp37
 70
     0
102
RTVSPost2010Prop38
140
0.0
102
RTVSPost2010PropOp38
 70
     0
102
RTVSPost2010Prop39
140
1.0
102
RTVSPost2010PropOp39
 70
     0
102
RTVSPost2010Prop40
 90
        0
102
RTVSPost2010PropOp40
 70
     0
102
RTVSPost2010Prop41ColorIndex
 90
       18
102
RTVSPost2010Prop41ColorRGB
 90
        0
102
RTVSPost2010PropOp41
 70
     0
102
RTVSPost2010Prop42
 90
       50
102
RTVSPost2010PropOp42
 70
     0
102
RTVSPost2010Prop43
 90
        3
102
RTVSPost2010PropOp43
 70
     0
102
RTVSPost2010Prop44ColorIndex
 90
        5
102
RTVSPost2010Prop44ColorRGB
 90
      255
102
RTVSPost2010PropOp44
 70
     0
102
RTVSPost2010Prop45
280
     0
102
RTVSPost2010PropOp45
 70
     1
102
RTVSPost2010Prop46
 90
       50
102
RTVSPost2010PropOp46
 70
     0
102
RTVSPost2010Prop47
 90
       50
102
RTVSPost2010PropOp47
 70
     0
102
RTVSPost2010Prop48
 90
       50
102
RTVSPost2010PropOp48
 70
     0
102
RTVSPost2010Prop49
280
     0
102
RTVSPost2010PropOp49
 70
     1
102
RTVSPost2010Prop50
 90
       50
102
RTVSPost2010PropOp50
 70
     0
102
RTVSPost2010Prop51ColorIndex
 90
      256
102
RTVSPost2010Prop51ColorRGB
 90
-16777216
102
RTVSPost2010PropOp51
 70
     0
102
RTVSPost2010Prop52
140
1.0
102
RTVSPost2010PropOp52
 70
     0
102
RTVSPost2010Prop53
 90
        2
102
RTVSPost2010PropOp53
 70
     0
102
RTVSPost2010Prop54
  1
strokes_ogs.tif
102
RTVSPost2010PropOp54
 70
     0
102
RTVSPost2010Prop55
280
     0
102
RTVSPost2010PropOp55
 70
     1
102
RTVSPost2010Prop56
140
1.0
102
RTVSPost2010PropOp56
 70
     0
102
RTVSPost2010Prop57
140
1.0
102
RTVSPost2010PropOp57
 70
     0
  0
XRECORD
  5
906
102
{ACAD_REACTORS
330
905
102
}
330
905
100
AcDbXrecord
280
     1
102
RTVSPost2010Prop28
280
     0
102
RTVSPost2010PropOp28
 70
     1
102
RTVSPost2010Prop29
280
     1
102
RTVSPost2010PropOp29
 70
     1
102
RTVSPost2010Prop30
280
     1
102
RTVSPost2010PropOp30
 70
     1
102
RTVSPost2010Prop31
280
     0
102
RTVSPost2010PropOp31
 70
     1
102
RTVSPost2010Prop32
280
     0
102
RTVSPost2010PropOp32
 70
     1
102
RTVSPost2010Prop33
280
     0
102
RTVSPost2010PropOp33
 70
     1
102
RTVSPost2010Prop34
280
     0
102
RTVSPost2010PropOp34
 70
     1
102
RTVSPost2010Prop35
280
     0
102
RTVSPost2010PropOp35
 70
     1
102
RTVSPost2010Prop36
280
     0
102
RTVSPost2010PropOp36
 70
     1
102
RTVSPost2010Prop37
 90
       50
102
RTVSPost2010PropOp37
 70
     1
102
RTVSPost2010Prop38
140
0.0
102
RTVSPost2010PropOp38
 70
     1
102
RTVSPost2010Prop39
140
1.0
102
RTVSPost2010PropOp39
 70
     1
102
RTVSPost2010Prop40
 90
        0
102
RTVSPost2010PropOp40
 70
     1
102
RTVSPost2010Prop41ColorIndex
 90
       18
102
RTVSPost2010Prop41ColorRGB
 90
        0
102
RTVSPost2010PropOp41
 70
     1
102
RTVSPost2010Prop42
 90
       50
102
RTVSPost2010PropOp42
 70
     1
102
RTVSPost2010Prop43
 90
        3
102
RTVSPost2010PropOp43
 70
     1
102
RTVSPost2010Prop44ColorIndex
 90
        5
102
RTVSPost2010Prop44ColorRGB
 90
      255
102
RTVSPost2010PropOp44
 70
     1
102
RTVSPost2010Prop45
280
     0
102
RTVSPost2010PropOp45
 70
     1
102
RTVSPost2010Prop46
 90
       50
102
RTVSPost2010PropOp46
 70
     1
102
RTVSPost2010Prop47
 90
       50
102
RTVSPost2010PropOp47
 70
     1
102
RTVSPost2010Prop48
 90
       50
102
RTVSPost2010PropOp48
 70
     1
102
RTVSPost2010Prop49
280
     0
102
RTVSPost2010PropOp49
 70
     1
102
RTVSPost2010Prop50
 90
       50
102
RTVSPost2010PropOp50
 70
     1
102
RTVSPost2010Prop51ColorIndex
 90
      256
102
RTVSPost2010Prop51ColorRGB
 90
-16777216
102
RTVSPost2010PropOp51
 70
     0
102
RTVSPost2010Prop52
140
1.0
102
RTVSPost2010PropOp52
 70
     0
102
RTVSPost2010Prop53
 90
        2
102
RTVSPost2010PropOp53
 70
     1
102
RTVSPost2010Prop54
  1
strokes_ogs.tif
102
RTVSPost2010PropOp54
 70
     1
102
RTVSPost2010Prop55
280
     0
102
RTVSPost2010PropOp55
 70
     1
102
RTVSPost2010Prop56
140
1.0
102
RTVSPost2010PropOp56
 70
     1
102
RTVSPost2010Prop57
140
1.0
102
RTVSPost2010PropOp57
 70
     1
  0
XRECORD
  5
91C
102
{ACAD_REACTORS
330
91B
102
}
330
91B
100
AcDbXrecord
280
     1
102
RTVSPost2010Prop28
280
     0
102
RTVSPost2010PropOp28
 70
     1
102
RTVSPost2010Prop29
280
     1
102
RTVSPost2010PropOp29
 70
     1
102
RTVSPost2010Prop30
280
     1
102
RTVSPost2010PropOp30
 70
     1
102
RTVSPost2010Prop31
280
     0
102
RTVSPost2010PropOp31
 70
     1
102
RTVSPost2010Prop32
280
     0
102
RTVSPost2010PropOp32
 70
     1
102
RTVSPost2010Prop33
280
     0
102
RTVSPost2010PropOp33
 70
     1
102
RTVSPost2010Prop34
280
     0
102
RTVSPost2010PropOp34
 70
     1
102
RTVSPost2010Prop35
280
     0
102
RTVSPost2010PropOp35
 70
     1
102
RTVSPost2010Prop36
280
     0
102
RTVSPost2010PropOp36
 70
     1
102
RTVSPost2010Prop37
 90
       50
102
RTVSPost2010PropOp37
 70
     1
102
RTVSPost2010Prop38
140
0.0
102
RTVSPost2010PropOp38
 70
     1
102
RTVSPost2010Prop39
140
1.0
102
RTVSPost2010PropOp39
 70
     1
102
RTVSPost2010Prop40
 90
        0
102
RTVSPost2010PropOp40
 70
     1
102
RTVSPost2010Prop41ColorIndex
 90
       18
102
RTVSPost2010Prop41ColorRGB
 90
        0
102
RTVSPost2010PropOp41
 70
     1
102
RTVSPost2010Prop42
 90
       50
102
RTVSPost2010PropOp42
 70
     1
102
RTVSPost2010Prop43
 90
        3
102
RTVSPost2010PropOp43
 70
     1
102
RTVSPost2010Prop44ColorIndex
 90
        5
102
RTVSPost2010Prop44ColorRGB
 90
      255
102
RTVSPost2010PropOp44
 70
     1
102
RTVSPost2010Prop45
280
     0
102
RTVSPost2010PropOp45
 70
     1
102
RTVSPost2010Prop46
 90
       50
102
RTVSPost2010PropOp46
 70
     1
102
RTVSPost2010Prop47
 90
       50
102
RTVSPost2010PropOp47
 70
     1
102
RTVSPost2010Prop48
 90
       50
102
RTVSPost2010PropOp48
 70
     1
102
RTVSPost2010Prop49
280
     0
102
RTVSPost2010PropOp49
 70
     1
102
RTVSPost2010Prop50
 90
       50
102
RTVSPost2010PropOp50
 70
     1
102
RTVSPost2010Prop51ColorIndex
 90
      256
102
RTVSPost2010Prop51ColorRGB
 90
-16777216
102
RTVSPost2010PropOp51
 70
     0
102
RTVSPost2010Prop52
140
1.0
102
RTVSPost2010PropOp52
 70
     0
102
RTVSPost2010Prop53
 90
        2
102
RTVSPost2010PropOp53
 70
     1
102
RTVSPost2010Prop54
  1
strokes_ogs.tif
102
RTVSPost2010PropOp54
 70
     1
102
RTVSPost2010Prop55
280
     0
102
RTVSPost2010PropOp55
 70
     1
102
RTVSPost2010Prop56
140
1.0
102
RTVSPost2010PropOp56
 70
     1
102
RTVSPost2010Prop57
140
1.0
102
RTVSPost2010PropOp57
 70
     1
  0
XRECORD
  5
91A
102
{ACAD_REACTORS
330
919
102
}
330
919
100
AcDbXrecord
280
     1
102
RTVSPost2010Prop28
280
     0
102
RTVSPost2010PropOp28
 70
     1
102
RTVSPost2010Prop29
280
     1
102
RTVSPost2010PropOp29
 70
     1
102
RTVSPost2010Prop30
280
     1
102
RTVSPost2010PropOp30
 70
     1
102
RTVSPost2010Prop31
280
     0
102
RTVSPost2010PropOp31
 70
     1
102
RTVSPost2010Prop32
280
     0
102
RTVSPost2010PropOp32
 70
     1
102
RTVSPost2010Prop33
280
     0
102
RTVSPost2010PropOp33
 70
     1
102
RTVSPost2010Prop34
280
     0
102
RTVSPost2010PropOp34
 70
     1
102
RTVSPost2010Prop35
280
     0
102
RTVSPost2010PropOp35
 70
     1
102
RTVSPost2010Prop36
280
     0
102
RTVSPost2010PropOp36
 70
     1
102
RTVSPost2010Prop37
 90
       50
102
RTVSPost2010PropOp37
 70
     1
102
RTVSPost2010Prop38
140
0.0
102
RTVSPost2010PropOp38
 70
     1
102
RTVSPost2010Prop39
140
1.0
102
RTVSPost2010PropOp39
 70
     1
102
RTVSPost2010Prop40
 90
        0
102
RTVSPost2010PropOp40
 70
     1
102
RTVSPost2010Prop41ColorIndex
 90
       18
102
RTVSPost2010Prop41ColorRGB
 90
        0
102
RTVSPost2010PropOp41
 70
     1
102
RTVSPost2010Prop42
 90
       50
102
RTVSPost2010PropOp42
 70
     1
102
RTVSPost2010Prop43
 90
        3
102
RTVSPost2010PropOp43
 70
     1
102
RTVSPost2010Prop44ColorIndex
 90
        5
102
RTVSPost2010Prop44ColorRGB
 90
      255
102
RTVSPost2010PropOp44
 70
     1
102
RTVSPost2010Prop45
280
     0
102
RTVSPost2010PropOp45
 70
     1
102
RTVSPost2010Prop46
 90
       50
102
RTVSPost2010PropOp46
 70
     1
102
RTVSPost2010Prop47
 90
       50
102
RTVSPost2010PropOp47
 70
     1
102
RTVSPost2010Prop48
 90
       50
102
RTVSPost2010PropOp48
 70
     1
102
RTVSPost2010Prop49
280
     0
102
RTVSPost2010PropOp49
 70
     1
102
RTVSPost2010Prop50
 90
       50
102
RTVSPost2010PropOp50
 70
     1
102
RTVSPost2010Prop51ColorIndex
 90
      256
102
RTVSPost2010Prop51ColorRGB
 90
-16777216
102
RTVSPost2010PropOp51
 70
     0
102
RTVSPost2010Prop52
140
1.0
102
RTVSPost2010PropOp52
 70
     0
102
RTVSPost2010Prop53
 90
        2
102
RTVSPost2010PropOp53
 70
     1
102
RTVSPost2010Prop54
  1
strokes_ogs.tif
102
RTVSPost2010PropOp54
 70
     1
102
RTVSPost2010Prop55
280
     0
102
RTVSPost2010PropOp55
 70
     1
102
RTVSPost2010Prop56
140
1.0
102
RTVSPost2010PropOp56
 70
     1
102
RTVSPost2010Prop57
140
1.0
102
RTVSPost2010PropOp57
 70
     1
  0
XRECORD
  5
914
102
{ACAD_REACTORS
330
913
102
}
330
913
100
AcDbXrecord
280
     1
102
RTVSPost2010Prop28
280
     0
102
RTVSPost2010PropOp28
 70
     1
102
RTVSPost2010Prop29
280
     1
102
RTVSPost2010PropOp29
 70
     1
102
RTVSPost2010Prop30
280
     1
102
RTVSPost2010PropOp30
 70
     1
102
RTVSPost2010Prop31
280
     0
102
RTVSPost2010PropOp31
 70
     1
102
RTVSPost2010Prop32
280
     0
102
RTVSPost2010PropOp32
 70
     1
102
RTVSPost2010Prop33
280
     0
102
RTVSPost2010PropOp33
 70
     1
102
RTVSPost2010Prop34
280
     0
102
RTVSPost2010PropOp34
 70
     1
102
RTVSPost2010Prop35
280
     0
102
RTVSPost2010PropOp35
 70
     1
102
RTVSPost2010Prop36
280
     0
102
RTVSPost2010PropOp36
 70
     1
102
RTVSPost2010Prop37
 90
       50
102
RTVSPost2010PropOp37
 70
     1
102
RTVSPost2010Prop38
140
0.0
102
RTVSPost2010PropOp38
 70
     1
102
RTVSPost2010Prop39
140
1.0
102
RTVSPost2010PropOp39
 70
     1
102
RTVSPost2010Prop40
 90
        0
102
RTVSPost2010PropOp40
 70
     1
102
RTVSPost2010Prop41ColorIndex
 90
       18
102
RTVSPost2010Prop41ColorRGB
 90
        0
102
RTVSPost2010PropOp41
 70
     1
102
RTVSPost2010Prop42
 90
       50
102
RTVSPost2010PropOp42
 70
     1
102
RTVSPost2010Prop43
 90
        3
102
RTVSPost2010PropOp43
 70
     1
102
RTVSPost2010Prop44ColorIndex
 90
        5
102
RTVSPost2010Prop44ColorRGB
 90
      255
102
RTVSPost2010PropOp44
 70
     1
102
RTVSPost2010Prop45
280
     0
102
RTVSPost2010PropOp45
 70
     1
102
RTVSPost2010Prop46
 90
       50
102
RTVSPost2010PropOp46
 70
     1
102
RTVSPost2010Prop47
 90
       50
102
RTVSPost2010PropOp47
 70
     1
102
RTVSPost2010Prop48
 90
       50
102
RTVSPost2010PropOp48
 70
     1
102
RTVSPost2010Prop49
280
     0
102
RTVSPost2010PropOp49
 70
     1
102
RTVSPost2010Prop50
 90
       50
102
RTVSPost2010PropOp50
 70
     1
102
RTVSPost2010Prop51ColorIndex
 90
      256
102
RTVSPost2010Prop51ColorRGB
 90
-16777216
102
RTVSPost2010PropOp51
 70
     0
102
RTVSPost2010Prop52
140
1.0
102
RTVSPost2010PropOp52
 70
     0
102
RTVSPost2010Prop53
 90
        2
102
RTVSPost2010PropOp53
 70
     1
102
RTVSPost2010Prop54
  1
strokes_ogs.tif
102
RTVSPost2010PropOp54
 70
     1
102
RTVSPost2010Prop55
280
     0
102
RTVSPost2010PropOp55
 70
     1
102
RTVSPost2010Prop56
140
1.0
102
RTVSPost2010PropOp56
 70
     1
102
RTVSPost2010Prop57
140
1.0
102
RTVSPost2010PropOp57
 70
     1
  0
XRECORD
  5
916
102
{ACAD_REACTORS
330
915
102
}
330
915
100
AcDbXrecord
280
     1
102
RTVSPost2010Prop28
280
     0
102
RTVSPost2010PropOp28
 70
     1
102
RTVSPost2010Prop29
280
     1
102
RTVSPost2010PropOp29
 70
     1
102
RTVSPost2010Prop30
280
     1
102
RTVSPost2010PropOp30
 70
     1
102
RTVSPost2010Prop31
280
     0
102
RTVSPost2010PropOp31
 70
     1
102
RTVSPost2010Prop32
280
     0
102
RTVSPost2010PropOp32
 70
     1
102
RTVSPost2010Prop33
280
     0
102
RTVSPost2010PropOp33
 70
     1
102
RTVSPost2010Prop34
280
     0
102
RTVSPost2010PropOp34
 70
     1
102
RTVSPost2010Prop35
280
     0
102
RTVSPost2010PropOp35
 70
     1
102
RTVSPost2010Prop36
280
     0
102
RTVSPost2010PropOp36
 70
     1
102
RTVSPost2010Prop37
 90
       50
102
RTVSPost2010PropOp37
 70
     1
102
RTVSPost2010Prop38
140
0.0
102
RTVSPost2010PropOp38
 70
     1
102
RTVSPost2010Prop39
140
1.0
102
RTVSPost2010PropOp39
 70
     1
102
RTVSPost2010Prop40
 90
        0
102
RTVSPost2010PropOp40
 70
     1
102
RTVSPost2010Prop41ColorIndex
 90
       18
102
RTVSPost2010Prop41ColorRGB
 90
        0
102
RTVSPost2010PropOp41
 70
     1
102
RTVSPost2010Prop42
 90
       50
102
RTVSPost2010PropOp42
 70
     1
102
RTVSPost2010Prop43
 90
        3
102
RTVSPost2010PropOp43
 70
     1
102
RTVSPost2010Prop44ColorIndex
 90
        5
102
RTVSPost2010Prop44ColorRGB
 90
      255
102
RTVSPost2010PropOp44
 70
     1
102
RTVSPost2010Prop45
280
     0
102
RTVSPost2010PropOp45
 70
     1
102
RTVSPost2010Prop46
 90
       50
102
RTVSPost2010PropOp46
 70
     1
102
RTVSPost2010Prop47
 90
       50
102
RTVSPost2010PropOp47
 70
     1
102
RTVSPost2010Prop48
 90
       50
102
RTVSPost2010PropOp48
 70
     1
102
RTVSPost2010Prop49
280
     0
102
RTVSPost2010PropOp49
 70
     1
102
RTVSPost2010Prop50
 90
       50
102
RTVSPost2010PropOp50
 70
     1
102
RTVSPost2010Prop51ColorIndex
 90
      256
102
RTVSPost2010Prop51ColorRGB
 90
-16777216
102
RTVSPost2010PropOp51
 70
     0
102
RTVSPost2010Prop52
140
1.0
102
RTVSPost2010PropOp52
 70
     0
102
RTVSPost2010Prop53
 90
        2
102
RTVSPost2010PropOp53
 70
     1
102
RTVSPost2010Prop54
  1
strokes_ogs.tif
102
RTVSPost2010PropOp54
 70
     1
102
RTVSPost2010Prop55
280
     0
102
RTVSPost2010PropOp55
 70
     1
102
RTVSPost2010Prop56
140
1.0
102
RTVSPost2010PropOp56
 70
     1
102
RTVSPost2010Prop57
140
1.0
102
RTVSPost2010PropOp57
 70
     1
  0
XRECORD
  5
90C
102
{ACAD_REACTORS
330
90B
102
}
330
90B
100
AcDbXrecord
280
     1
102
RTVSPost2010Prop28
280
     0
102
RTVSPost2010PropOp28
 70
     1
102
RTVSPost2010Prop29
280
     1
102
RTVSPost2010PropOp29
 70
     1
102
RTVSPost2010Prop30
280
     1
102
RTVSPost2010PropOp30
 70
     1
102
RTVSPost2010Prop31
280
     0
102
RTVSPost2010PropOp31
 70
     1
102
RTVSPost2010Prop32
280
     0
102
RTVSPost2010PropOp32
 70
     1
102
RTVSPost2010Prop33
280
     0
102
RTVSPost2010PropOp33
 70
     1
102
RTVSPost2010Prop34
280
     0
102
RTVSPost2010PropOp34
 70
     1
102
RTVSPost2010Prop35
280
     0
102
RTVSPost2010PropOp35
 70
     1
102
RTVSPost2010Prop36
280
     0
102
RTVSPost2010PropOp36
 70
     1
102
RTVSPost2010Prop37
 90
       50
102
RTVSPost2010PropOp37
 70
     1
102
RTVSPost2010Prop38
140
0.0
102
RTVSPost2010PropOp38
 70
     1
102
RTVSPost2010Prop39
140
1.0
102
RTVSPost2010PropOp39
 70
     1
102
RTVSPost2010Prop40
 90
        0
102
RTVSPost2010PropOp40
 70
     1
102
RTVSPost2010Prop41ColorIndex
 90
       18
102
RTVSPost2010Prop41ColorRGB
 90
        0
102
RTVSPost2010PropOp41
 70
     1
102
RTVSPost2010Prop42
 90
       50
102
RTVSPost2010PropOp42
 70
     1
102
RTVSPost2010Prop43
 90
        3
102
RTVSPost2010PropOp43
 70
     1
102
RTVSPost2010Prop44ColorIndex
 90
        5
102
RTVSPost2010Prop44ColorRGB
 90
      255
102
RTVSPost2010PropOp44
 70
     1
102
RTVSPost2010Prop45
280
     0
102
RTVSPost2010PropOp45
 70
     1
102
RTVSPost2010Prop46
 90
       50
102
RTVSPost2010PropOp46
 70
     1
102
RTVSPost2010Prop47
 90
       50
102
RTVSPost2010PropOp47
 70
     1
102
RTVSPost2010Prop48
 90
       50
102
RTVSPost2010PropOp48
 70
     1
102
RTVSPost2010Prop49
280
     0
102
RTVSPost2010PropOp49
 70
     1
102
RTVSPost2010Prop50
 90
       50
102
RTVSPost2010PropOp50
 70
     1
102
RTVSPost2010Prop51ColorIndex
 90
      256
102
RTVSPost2010Prop51ColorRGB
 90
-16777216
102
RTVSPost2010PropOp51
 70
     0
102
RTVSPost2010Prop52
140
1.0
102
RTVSPost2010PropOp52
 70
     0
102
RTVSPost2010Prop53
 90
        2
102
RTVSPost2010PropOp53
 70
     1
102
RTVSPost2010Prop54
  1
strokes_ogs.tif
102
RTVSPost2010PropOp54
 70
     1
102
RTVSPost2010Prop55
280
     0
102
RTVSPost2010PropOp55
 70
     1
102
RTVSPost2010Prop56
140
1.0
102
RTVSPost2010PropOp56
 70
     1
102
RTVSPost2010Prop57
140
1.0
102
RTVSPost2010PropOp57
 70
     1
  0
XRECORD
  5
900
102
{ACAD_REACTORS
330
8FF
102
}
330
8FF
100
AcDbXrecord
280
     1
102
RTVSPost2010Prop28
280
     0
102
RTVSPost2010PropOp28
 70
     1
102
RTVSPost2010Prop29
280
     1
102
RTVSPost2010PropOp29
 70
     1
102
RTVSPost2010Prop30
280
     1
102
RTVSPost2010PropOp30
 70
     1
102
RTVSPost2010Prop31
280
     0
102
RTVSPost2010PropOp31
 70
     1
102
RTVSPost2010Prop32
280
     0
102
RTVSPost2010PropOp32
 70
     1
102
RTVSPost2010Prop33
280
     0
102
RTVSPost2010PropOp33
 70
     1
102
RTVSPost2010Prop34
280
     0
102
RTVSPost2010PropOp34
 70
     1
102
RTVSPost2010Prop35
280
     0
102
RTVSPost2010PropOp35
 70
     1
102
RTVSPost2010Prop36
280
     0
102
RTVSPost2010PropOp36
 70
     1
102
RTVSPost2010Prop37
 90
       50
102
RTVSPost2010PropOp37
 70
     1
102
RTVSPost2010Prop38
140
0.0
102
RTVSPost2010PropOp38
 70
     1
102
RTVSPost2010Prop39
140
1.0
102
RTVSPost2010PropOp39
 70
     1
102
RTVSPost2010Prop40
 90
        0
102
RTVSPost2010PropOp40
 70
     1
102
RTVSPost2010Prop41ColorIndex
 90
       18
102
RTVSPost2010Prop41ColorRGB
 90
        0
102
RTVSPost2010PropOp41
 70
     1
102
RTVSPost2010Prop42
 90
       50
102
RTVSPost2010PropOp42
 70
     1
102
RTVSPost2010Prop43
 90
        3
102
RTVSPost2010PropOp43
 70
     1
102
RTVSPost2010Prop44ColorIndex
 90
        5
102
RTVSPost2010Prop44ColorRGB
 90
      255
102
RTVSPost2010PropOp44
 70
     1
102
RTVSPost2010Prop45
280
     0
102
RTVSPost2010PropOp45
 70
     1
102
RTVSPost2010Prop46
 90
       50
102
RTVSPost2010PropOp46
 70
     1
102
RTVSPost2010Prop47
 90
       50
102
RTVSPost2010PropOp47
 70
     1
102
RTVSPost2010Prop48
 90
       50
102
RTVSPost2010PropOp48
 70
     1
102
RTVSPost2010Prop49
280
     0
102
RTVSPost2010PropOp49
 70
     1
102
RTVSPost2010Prop50
 90
       50
102
RTVSPost2010PropOp50
 70
     1
102
RTVSPost2010Prop51ColorIndex
 90
      256
102
RTVSPost2010Prop51ColorRGB
 90
-16777216
102
RTVSPost2010PropOp51
 70
     0
102
RTVSPost2010Prop52
140
1.0
102
RTVSPost2010PropOp52
 70
     0
102
RTVSPost2010Prop53
 90
        2
102
RTVSPost2010PropOp53
 70
     1
102
RTVSPost2010Prop54
  1
strokes_ogs.tif
102
RTVSPost2010PropOp54
 70
     1
102
RTVSPost2010Prop55
280
     0
102
RTVSPost2010PropOp55
 70
     1
102
RTVSPost2010Prop56
140
1.0
102
RTVSPost2010PropOp56
 70
     1
102
RTVSPost2010Prop57
140
1.0
102
RTVSPost2010PropOp57
 70
     1
  0
XRECORD
  5
918
102
{ACAD_REACTORS
330
917
102
}
330
917
100
AcDbXrecord
280
     1
102
RTVSPost2010Prop28
280
     0
102
RTVSPost2010PropOp28
 70
     1
102
RTVSPost2010Prop29
280
     1
102
RTVSPost2010PropOp29
 70
     1
102
RTVSPost2010Prop30
280
     1
102
RTVSPost2010PropOp30
 70
     1
102
RTVSPost2010Prop31
280
     0
102
RTVSPost2010PropOp31
 70
     1
102
RTVSPost2010Prop32
280
     0
102
RTVSPost2010PropOp32
 70
     1
102
RTVSPost2010Prop33
280
     0
102
RTVSPost2010PropOp33
 70
     1
102
RTVSPost2010Prop34
280
     0
102
RTVSPost2010PropOp34
 70
     1
102
RTVSPost2010Prop35
280
     0
102
RTVSPost2010PropOp35
 70
     1
102
RTVSPost2010Prop36
280
     0
102
RTVSPost2010PropOp36
 70
     1
102
RTVSPost2010Prop37
 90
       50
102
RTVSPost2010PropOp37
 70
     1
102
RTVSPost2010Prop38
140
0.0
102
RTVSPost2010PropOp38
 70
     1
102
RTVSPost2010Prop39
140
1.0
102
RTVSPost2010PropOp39
 70
     1
102
RTVSPost2010Prop40
 90
        0
102
RTVSPost2010PropOp40
 70
     1
102
RTVSPost2010Prop41ColorIndex
 90
       18
102
RTVSPost2010Prop41ColorRGB
 90
        0
102
RTVSPost2010PropOp41
 70
     1
102
RTVSPost2010Prop42
 90
       50
102
RTVSPost2010PropOp42
 70
     1
102
RTVSPost2010Prop43
 90
        3
102
RTVSPost2010PropOp43
 70
     1
102
RTVSPost2010Prop44ColorIndex
 90
        5
102
RTVSPost2010Prop44ColorRGB
 90
      255
102
RTVSPost2010PropOp44
 70
     1
102
RTVSPost2010Prop45
280
     0
102
RTVSPost2010PropOp45
 70
     1
102
RTVSPost2010Prop46
 90
       50
102
RTVSPost2010PropOp46
 70
     1
102
RTVSPost2010Prop47
 90
       50
102
RTVSPost2010PropOp47
 70
     1
102
RTVSPost2010Prop48
 90
       50
102
RTVSPost2010PropOp48
 70
     1
102
RTVSPost2010Prop49
280
     0
102
RTVSPost2010PropOp49
 70
     1
102
RTVSPost2010Prop50
 90
       50
102
RTVSPost2010PropOp50
 70
     1
102
RTVSPost2010Prop51ColorIndex
 90
      256
102
RTVSPost2010Prop51ColorRGB
 90
-16777216
102
RTVSPost2010PropOp51
 70
     0
102
RTVSPost2010Prop52
140
1.0
102
RTVSPost2010PropOp52
 70
     0
102
RTVSPost2010Prop53
 90
        2
102
RTVSPost2010PropOp53
 70
     1
102
RTVSPost2010Prop54
  1
strokes_ogs.tif
102
RTVSPost2010PropOp54
 70
     1
102
RTVSPost2010Prop55
280
     0
102
RTVSPost2010PropOp55
 70
     1
102
RTVSPost2010Prop56
140
1.0
102
RTVSPost2010PropOp56
 70
     1
102
RTVSPost2010Prop57
140
1.0
102
RTVSPost2010PropOp57
 70
     1
  0
ENDSEC
  0
EOF
