  0
SECTION
  2
HEADER
  9
$ACADVER
  1
AC1032
  9
$ACADMAINTVER
 90
      174
  9
$DWGCODEPAGE
  3
ANSI_932
  9
$LASTSAVEDBY
  1
satoshi.ogura
  9
$REQUIREDVERSIONS
160
                 0
  9
$INSBASE
 10
268.4340021441085
 20
176.78614296069
 30
0.0
  9
$EXTMIN
 10
493.4239724498965
 20
56.21393904159162
 30
0.0
  9
$EXTMAX
 10
947.1657252052178
 20
462.2280990754675
 30
0.0000000000000107
  9
$LIMMIN
 10
0.0
 20
0.0
  9
$LIMMAX
 10
554.0
 20
395.0
  9
$ORTHOMODE
 70
     1
  9
$REGENMODE
 70
     1
  9
$FILLMODE
 70
     1
  9
$QTEXTMODE
 70
     0
  9
$MIRRTEXT
 70
     1
  9
$LTSCALE
 40
2.0
  9
$ATTMODE
 70
     1
  9
$TEXTSIZE
 40
10.0
  9
$TRACEWID
 40
0.2
  9
$TEXTSTYLE
  7
KANJI
  9
$CLAYER
  8
1外形線
  9
$CELTYPE
  6
BYLAYER
  9
$CECOLOR
 62
   256
  9
$CELTSCALE
 40
3.0
  9
$DISPSILH
 70
     0
  9
$DIMSCALE
 40
1.0
  9
$DIMASZ
 40
1.0
  9
$DIMEXO
 40
1.0
  9
$DIMDLI
 40
6.0
  9
$DIMRND
 40
0.0
  9
$DIMDLE
 40
0.0
  9
$DIMEXE
 40
1.0
  9
$DIMTP
 40
0.0
  9
$DIMTM
 40
0.0
  9
$DIMTXT
 40
2.5
  9
$DIMCEN
 40
0.0
  9
$DIMTSZ
 40
0.0
  9
$DIMTOL
 70
     0
  9
$DIMLIM
 70
     0
  9
$DIMTIH
 70
     0
  9
$DIMTOH
 70
     0
  9
$DIMSE1
 70
     0
  9
$DIMSE2
 70
     0
  9
$DIMTAD
 70
     1
  9
$DIMZIN
 70
     8
  9
$DIMBLK
  1

  9
$DIMASO
 70
     1
  9
$DIMSHO
 70
     1
  9
$DIMPOST
  1

  9
$DIMAPOST
  1

  9
$DIMALT
 70
     0
  9
$DIMALTD
 70
     2
  9
$DIMALTF
 40
25.4
  9
$DIMLFAC
 40
1.0
  9
$DIMTOFL
 70
     1
  9
$DIMTVP
 40
0.0
  9
$DIMTIX
 70
     0
  9
$DIMSOXD
 70
     0
  9
$DIMSAH
 70
     1
  9
$DIMBLK1
  1
1
  9
$DIMBLK2
  1
1
  9
$DIMSTYLE
  2
STANDARD
  9
$DIMCLRD
 70
     0
  9
$DIMCLRE
 70
     0
  9
$DIMCLRT
 70
     0
  9
$DIMTFAC
 40
1.0
  9
$DIMGAP
 40
0.5
  9
$DIMJUST
 70
     0
  9
$DIMSD1
 70
     0
  9
$DIMSD2
 70
     0
  9
$DIMTOLJ
 70
     1
  9
$DIMTZIN
 70
     8
  9
$DIMALTZ
 70
     8
  9
$DIMALTTZ
 70
     8
  9
$DIMUPT
 70
     0
  9
$DIMDEC
 70
     4
  9
$DIMTDEC
 70
     4
  9
$DIMALTU
 70
     2
  9
$DIMALTTD
 70
     2
  9
$DIMTXSTY
  7
KANJI
  9
$DIMAUNIT
 70
     0
  9
$DIMADEC
 70
     0
  9
$DIMALTRND
 40
0.0
  9
$DIMAZIN
 70
     0
  9
$DIMDSEP
 70
    46
  9
$DIMATFIT
 70
     3
  9
$DIMFRAC
 70
     0
  9
$DIMLDRBLK
  1

  9
$DIMLUNIT
 70
     2
  9
$DIMLWD
 70
    -2
  9
$DIMLWE
 70
    -2
  9
$DIMTMOVE
 70
     0
  9
$DIMFXL
 40
1.0
  9
$DIMFXLON
 70
     0
  9
$DIMJOGANG
 40
0.7853981633974483
  9
$DIMTFILL
 70
     0
  9
$DIMTFILLCLR
 70
     0
  9
$DIMARCSYM
 70
     0
  9
$DIMLTYPE
  6

  9
$DIMLTEX1
  6

  9
$DIMLTEX2
  6

  9
$DIMTXTDIRECTION
 70
     0
  9
$LUNITS
 70
     2
  9
$LUPREC
 70
     4
  9
$SKETCHINC
 40
0.1
  9
$FILLETRAD
 40
0.0
  9
$AUNITS
 70
     0
  9
$AUPREC
 70
     0
  9
$MENU
  1
tcad-s
  9
$ELEVATION
 40
0.0
  9
$PELEVATION
 40
0.0
  9
$THICKNESS
 40
0.0
  9
$LIMCHECK
 70
     0
  9
$CHAMFERA
 40
0.0
  9
$CHAMFERB
 40
0.0
  9
$CHAMFERC
 40
0.0
  9
$CHAMFERD
 40
0.0
  9
$SKPOLY
 70
     0
  9
$TDCREATE
 40
2452040.657719908
  9
$TDUCREATE
 40
2452040.282727292
  9
$TDUPDATE
 40
2459600.724907408
  9
$TDUUPDATE
 40
2459600.349907407
  9
$TDINDWG
 40
0.1923779630
  9
$TDUSRTIMER
 40
0.1923779630
  9
$USRTIMER
 70
     1
  9
$ANGBASE
 50
0.0
  9
$ANGDIR
 70
     0
  9
$PDMODE
 70
     0
  9
$PDSIZE
 40
2.399999999999999
  9
$PLINEWID
 40
0.0
  9
$SPLFRAME
 70
     0
  9
$SPLINETYPE
 70
     6
  9
$SPLINESEGS
 70
     8
  9
$HANDSEED
  5
15444
  9
$SURFTAB1
 70
     6
  9
$SURFTAB2
 70
     6
  9
$SURFTYPE
 70
     6
  9
$SURFU
 70
     6
  9
$SURFV
 70
     6
  9
$UCSBASE
  2

  9
$UCSNAME
  2

  9
$UCSORG
 10
0.0
 20
0.0
 30
0.0
  9
$UCSXDIR
 10
1.0
 20
0.0
 30
0.0
  9
$UCSYDIR
 10
0.0
 20
1.0
 30
0.0
  9
$UCSORTHOREF
  2

  9
$UCSORTHOVIEW
 70
     0
  9
$UCSORGTOP
 10
0.0
 20
0.0
 30
0.0
  9
$UCSORGBOTTOM
 10
0.0
 20
0.0
 30
0.0
  9
$UCSORGLEFT
 10
0.0
 20
0.0
 30
0.0
  9
$UCSORGRIGHT
 10
0.0
 20
0.0
 30
0.0
  9
$UCSORGFRONT
 10
0.0
 20
0.0
 30
0.0
  9
$UCSORGBACK
 10
0.0
 20
0.0
 30
0.0
  9
$PUCSBASE
  2

  9
$PUCSNAME
  2

  9
$PUCSORG
 10
0.0
 20
0.0
 30
0.0
  9
$PUCSXDIR
 10
1.0
 20
0.0
 30
0.0
  9
$PUCSYDIR
 10
0.0
 20
1.0
 30
0.0
  9
$PUCSORTHOREF
  2

  9
$PUCSORTHOVIEW
 70
     0
  9
$PUCSORGTOP
 10
0.0
 20
0.0
 30
0.0
  9
$PUCSORGBOTTOM
 10
0.0
 20
0.0
 30
0.0
  9
$PUCSORGLEFT
 10
0.0
 20
0.0
 30
0.0
  9
$PUCSORGRIGHT
 10
0.0
 20
0.0
 30
0.0
  9
$PUCSORGFRONT
 10
0.0
 20
0.0
 30
0.0
  9
$PUCSORGBACK
 10
0.0
 20
0.0
 30
0.0
  9
$USERI1
 70
     0
  9
$USERI2
 70
     0
  9
$USERI3
 70
     0
  9
$USERI4
 70
     0
  9
$USERI5
 70
     0
  9
$USERR1
 40
0.0
  9
$USERR2
 40
0.0
  9
$USERR3
 40
0.0
  9
$USERR4
 40
0.0
  9
$USERR5
 40
0.0
  9
$WORLDVIEW
 70
     1
  9
$SHADEDGE
 70
     3
  9
$SHADEDIF
 70
    70
  9
$TILEMODE
 70
     1
  9
$MAXACTVP
 70
    16
  9
$PINSBASE
 10
0.0
 20
0.0
 30
0.0
  9
$PLIMCHECK
 70
     0
  9
$PEXTMIN
 10
1.000000000000000E+20
 20
1.000000000000000E+20
 30
1.000000000000000E+20
  9
$PEXTMAX
 10
-1.000000000000000E+20
 20
-1.000000000000000E+20
 30
-1.000000000000000E+20
  9
$PLIMMIN
 10
0.0
 20
0.0
  9
$PLIMMAX
 10
12.0
 20
9.0
  9
$UNITMODE
 70
     0
  9
$VISRETAIN
 70
     0
  9
$PLINEGEN
 70
     0
  9
$PSLTSCALE
 70
     0
  9
$TREEDEPTH
 70
  3020
  9
$CMLSTYLE
  2
STANDARD
  9
$CMLJUST
 70
     0
  9
$CMLSCALE
 40
1.0
  9
$PROXYGRAPHICS
 70
     1
  9
$MEASUREMENT
 70
     1
  9
$CELWEIGHT
370
    -1
  9
$ENDCAPS
280
     0
  9
$JOINSTYLE
280
     0
  9
$LWDISPLAY
290
     0
  9
$INSUNITS
 70
     0
  9
$HYPERLINKBASE
  1

  9
$STYLESHEET
  1

  9
$XEDIT
290
     1
  9
$CEPSNTYPE
380
     0
  9
$PSTYLEMODE
290
     1
  9
$FINGERPRINTGUID
  2
{FA3C1835-F1C4-4CF6-8EF1-CCF541A7EB67}
  9
$VERSIONGUID
  2
{CEEFF01D-1677-E74B-8F0A-1F169C924A56}
  9
$EXTNAMES
290
     1
  9
$PSVPSCALE
 40
0.0
  9
$OLESTARTUP
290
     0
  9
$SORTENTS
280
    96
  9
$INDEXCTL
280
     0
  9
$HIDETEXT
280
     0
  9
$XCLIPFRAME
280
     2
  9
$HALOGAP
280
     0
  9
$OBSCOLOR
 70
   257
  9
$OBSLTYPE
280
     0
  9
$INTERSECTIONDISPLAY
280
     0
  9
$INTERSECTIONCOLOR
 70
   257
  9
$DIMASSOC
280
     1
  9
$PROJECTNAME
  1

  9
$CAMERADISPLAY
290
     0
  9
$LENSLENGTH
 40
50.0
  9
$CAMERAHEIGHT
 40
0.0
  9
$STEPSPERSEC
 40
2.0
  9
$STEPSIZE
 40
6.0
  9
$3DDWFPREC
 40
2.0
  9
$PSOLWIDTH
 40
0.25
  9
$PSOLHEIGHT
 40
4.0
  9
$LOFTANG1
 40
1.570796326794896
  9
$LOFTANG2
 40
1.570796326794896
  9
$LOFTMAG1
 40
0.0
  9
$LOFTMAG2
 40
0.0
  9
$LOFTPARAM
 70
     7
  9
$LOFTNORMALS
280
     1
  9
$LATITUDE
 40
37.795
  9
$LONGITUDE
 40
-122.394
  9
$NORTHDIRECTION
 40
0.0
  9
$TIMEZONE
 70
 -8000
  9
$LIGHTGLYPHDISPLAY
280
     1
  9
$TILEMODELIGHTSYNCH
280
     1
  9
$CMATERIAL
347
DD72
  9
$SOLIDHIST
280
     0
  9
$SHOWHIST
280
     1
  9
$DWFFRAME
280
     2
  9
$DGNFRAME
280
     0
  9
$REALWORLDSCALE
290
     1
  9
$INTERFERECOLOR
 62
     1
  9
$INTERFEREOBJVS
345
DD94
  9
$INTERFEREVPVS
346
DD91
  9
$CSHADOW
280
     0
  9
$SHADOWPLANELOCATION
 40
0.0
  0
ENDSEC
  0
SECTION
  2
CLASSES
  0
CLASS
  1
DICTIONARYVAR
  2
AcDbDictionaryVar
  3
ObjectDBX Classes
 90
        0
 91
       11
280
     0
281
     0
  0
CLASS
  1
ACDBDICTIONARYWDFLT
  2
AcDbDictionaryWithDefault
  3
ObjectDBX Classes
 90
        0
 91
        1
280
     0
281
     0
  0
CLASS
  1
MATERIAL
  2
AcDbMaterial
  3
ObjectDBX Classes
 90
     1153
 91
        3
280
     0
281
     0
  0
CLASS
  1
VISUALSTYLE
  2
AcDbVisualStyle
  3
ObjectDBX Classes
 90
     4095
 91
       24
280
     0
281
     0
  0
CLASS
  1
TABLESTYLE
  2
AcDbTableStyle
  3
ObjectDBX Classes
 90
     4095
 91
        1
280
     0
281
     0
  0
CLASS
  1
SCALE
  2
AcDbScale
  3
ObjectDBX Classes
 90
     1153
 91
       17
280
     0
281
     0
  0
CLASS
  1
MLEADERSTYLE
  2
AcDbMLeaderStyle
  3
ACDB_MLEADERSTYLE_CLASS
 90
     4095
 91
        1
280
     0
281
     0
  0
CLASS
  1
MULTILEADER
  2
AcDbMLeader
  3
ACDB_MLEADER_CLASS
 90
     1025
 91
        0
280
     0
281
     1
  0
CLASS
  1
SORTENTSTABLE
  2
AcDbSortentsTable
  3
ObjectDBX Classes
 90
        0
 91
        2
280
     0
281
     0
  0
CLASS
  1
ACDBSECTIONVIEWSTYLE
  2
AcDbSectionViewStyle
  3
ObjectDBX Classes
 90
     1025
 91
        1
280
     0
281
     0
  0
CLASS
  1
ACDBDETAILVIEWSTYLE
  2
AcDbDetailViewStyle
  3
ObjectDBX Classes
 90
     1025
 91
        1
280
     0
281
     0
  0
CLASS
  1
CELLSTYLEMAP
  2
AcDbCellStyleMap
  3
ObjectDBX Classes
 90
     1152
 91
        2
280
     0
281
     0
  0
ENDSEC
  0
SECTION
  2
TABLES
  0
TABLE
  2
VPORT
  5
8
330
0
100
AcDbSymbolTable
 70
     1
  0
VPORT
  5
DD6D
330
8
100
AcDbSymbolTableRecord
100
AcDbViewportTableRecord
  2
*ACTIVE
 70
     0
 10
0.0
 20
0.0
 11
1.0
 21
1.0
 12
664.2024234533285
 22
178.3858649109151
 13
0.0
 23
0.0
 14
1.0
 24
1.0
 15
0.0
 25
0.0
 16
0.0
 26
0.0
 36
1.0
 17
0.0
 27
0.0
 37
0.0
 40
383.053263316894
 41
2.476129032258064
 42
50.0
 43
0.0
 44
0.0
 50
0.0
 51
0.0
 71
     0
 72
  1000
 73
     1
 74
     1
 75
     0
 76
     0
 77
     0
 78
     1
281
     0
 65
     1
110
0.0
120
0.0
130
0.0
111
1.0
121
0.0
131
0.0
112
0.0
122
1.0
132
0.0
 79
     0
146
0.0
348
DD90
 60
     3
 61
     5
292
     1
282
     1
141
0.0
142
0.0
 63
   250
421
  3355443
1001
ACAD_NAV_VCDISPLAY
1070
     3
  0
ENDTAB
  0
TABLE
  2
LTYPE
  5
5
330
0
100
AcDbSymbolTable
 70
     5
  0
LTYPE
  5
11
330
5
100
AcDbSymbolTableRecord
100
AcDbLinetypeTableRecord
  2
BYBLOCK
 70
     0
  3

 72
    65
 73
     0
 40
0.0
  0
LTYPE
  5
12
330
5
100
AcDbSymbolTableRecord
100
AcDbLinetypeTableRecord
  2
BYLAYER
 70
     0
  3

 72
    65
 73
     0
 40
0.0
  0
LTYPE
  5
13
330
5
100
AcDbSymbolTableRecord
100
AcDbLinetypeTableRecord
  2
CONTINUOUS
 70
     0
  3
Solid line
 72
    65
 73
     0
 40
0.0
  0
LTYPE
  5
DEDE
330
5
100
AcDbSymbolTableRecord
100
AcDbLinetypeTableRecord
  2
CENTER
 70
     0
  3
____ _ ____ _ ____ _ ____ _ ____ _ ____ _ ____ 
 72
    65
 73
     4
 40
2.0
 49
1.25
 74
     0
 49
-0.25
 74
     0
 49
0.25
 74
     0
 49
-0.25
 74
     0
  0
LTYPE
  5
E394
330
5
100
AcDbSymbolTableRecord
100
AcDbLinetypeTableRecord
  2
PHANTOM2
 70
     0
  3
Phantom (.5x) ___ _ _ ___ _ _ ___ _ _ ___ _ _
 72
    65
 73
     6
 40
31.75
 49
15.875
 74
     0
 49
-3.174999999999999
 74
     0
 49
3.174999999999999
 74
     0
 49
-3.174999999999999
 74
     0
 49
3.174999999999999
 74
     0
 49
-3.174999999999999
 74
     0
  0
LTYPE
  5
E395
330
5
100
AcDbSymbolTableRecord
100
AcDbLinetypeTableRecord
  2
PHANTOM
 70
     0
  3
______  __  __  ______  __  __  ______  __  __ 
 72
    65
 73
     6
 40
2.5
 49
1.25
 74
     0
 49
-0.25
 74
     0
 49
0.25
 74
     0
 49
-0.25
 74
     0
 49
0.25
 74
     0
 49
-0.25
 74
     0
  0
LTYPE
  5
FAC0
330
5
100
AcDbSymbolTableRecord
100
AcDbLinetypeTableRecord
  2
中心線1
 70
     0
  3
___ _ ___ _ ___
 72
    65
 73
     4
 40
18.0
 49
12.0
 74
     0
 49
-2.0
 74
     0
 49
2.0
 74
     0
 49
-2.0
 74
     0
  0
ENDTAB
  0
TABLE
  2
LAYER
  5
2
102
{ACAD_XDICTIONARY
360
DEE4
102
}
330
0
100
AcDbSymbolTable
 70
    17
  0
LAYER
  5
E
102
{ACAD_XDICTIONARY
360
F85A
102
}
330
2
100
AcDbSymbolTableRecord
100
AcDbLayerTableRecord
  2
0
 70
     0
 62
     7
  6
CONTINUOUS
370
    -3
390
DD70
347
DD82
348
0
  0
LAYER
  5
40
102
{ACAD_XDICTIONARY
360
F85C
102
}
330
2
100
AcDbSymbolTableRecord
100
AcDbLayerTableRecord
  2
1外形線
 70
     0
 62
     3
  6
CONTINUOUS
370
    -3
390
DD70
347
DD82
348
0
  0
LAYER
  5
DEDF
102
{ACAD_XDICTIONARY
360
DEE0
102
}
330
2
100
AcDbSymbolTableRecord
100
AcDbLayerTableRecord
  2
2寸法線
 70
     0
 62
     2
  6
CONTINUOUS
370
    -3
390
DD70
347
DD82
348
0
  0
LAYER
  5
DEE1
330
2
100
AcDbSymbolTableRecord
100
AcDbLayerTableRecord
  2
DEFPOINTS
 70
     0
 62
     7
  6
CONTINUOUS
290
     0
370
    -3
390
DD70
347
DD82
348
0
  0
LAYER
  5
E396
102
{ACAD_XDICTIONARY
360
E397
102
}
330
2
100
AcDbSymbolTableRecord
100
AcDbLayerTableRecord
  2
6図枠
 70
     0
 62
     7
  6
CONTINUOUS
370
    -3
390
DD70
347
DD82
348
0
  0
LAYER
  5
E398
102
{ACAD_XDICTIONARY
360
E399
102
}
330
2
100
AcDbSymbolTableRecord
100
AcDbLayerTableRecord
  2
C4
 70
     0
 62
     3
  6
CONTINUOUS
370
    -3
390
DD70
347
DD82
348
0
  0
LAYER
  5
E39A
102
{ACAD_XDICTIONARY
360
E39B
102
}
330
2
100
AcDbSymbolTableRecord
100
AcDbLayerTableRecord
  2
SUNPOU
 70
     0
 62
     2
  6
CONTINUOUS
370
    -3
390
DD70
347
DD82
348
0
  0
LAYER
  5
E39C
102
{ACAD_XDICTIONARY
360
E39D
102
}
330
2
100
AcDbSymbolTableRecord
100
AcDbLayerTableRecord
  2
3補助線
 70
     0
 62
     4
  6
CONTINUOUS
370
     9
390
DD70
347
DD82
348
0
  0
LAYER
  5
FAC1
102
{ACAD_XDICTIONARY
360
FAC2
102
}
330
2
100
AcDbSymbolTableRecord
100
AcDbLayerTableRecord
  2
1ﾀﾞｸﾄｶﾊﾞｰ
 70
     0
 62
     3
  6
CONTINUOUS
370
    -3
390
DD70
347
DD82
348
0
  0
LAYER
  5
FAC3
102
{ACAD_XDICTIONARY
360
FAC4
102
}
330
2
100
AcDbSymbolTableRecord
100
AcDbLayerTableRecord
  2
4寸法線
 70
     0
 62
     2
  6
CONTINUOUS
370
    -3
390
DD70
347
DD82
348
0
  0
LAYER
  5
FAC5
102
{ACAD_XDICTIONARY
360
FAC6
102
}
330
2
100
AcDbSymbolTableRecord
100
AcDbLayerTableRecord
  2
5図枠
 70
     0
 62
     7
  6
CONTINUOUS
370
    -3
390
DD70
347
DD82
348
0
  0
LAYER
  5
FAC7
102
{ACAD_XDICTIONARY
360
FAC8
102
}
330
2
100
AcDbSymbolTableRecord
100
AcDbLayerTableRecord
  2
2ｶﾊﾞｰ
 70
     0
 62
     3
  6
CONTINUOUS
370
    -3
390
DD70
347
DD82
348
0
  0
LAYER
  5
FAC9
330
2
100
AcDbSymbolTableRecord
100
AcDbLayerTableRecord
  2
L6文字
 70
     0
 62
     2
  6
CONTINUOUS
370
     9
390
DD70
347
DD82
348
0
1001
AcAecLayerStandard
1000

1000

1001
ACCMTRANSPARENCY
1071
        0
  0
LAYER
  5
10E22
330
2
100
AcDbSymbolTableRecord
100
AcDbLayerTableRecord
  2
L7中心
 70
     0
 62
     4
  6
CENTER
370
     9
390
DD70
347
DD82
348
0
1001
AcAecLayerStandard
1000

1000

1001
ACCMTRANSPARENCY
1071
        0
  0
LAYER
  5
10E23
102
{ACAD_XDICTIONARY
360
10E24
102
}
330
2
100
AcDbSymbolTableRecord
100
AcDbLayerTableRecord
  2
5寸法線
 70
     0
 62
     2
  6
CONTINUOUS
370
    -3
390
DD70
347
DD82
348
0
  0
LAYER
  5
10E25
102
{ACAD_XDICTIONARY
360
10E26
102
}
330
2
100
AcDbSymbolTableRecord
100
AcDbLayerTableRecord
  2
キャップ
 70
     0
 62
     5
  6
CONTINUOUS
370
    -3
390
DD70
347
DD82
348
0
  0
LAYER
  5
10E27
102
{ACAD_XDICTIONARY
360
10E28
102
}
330
2
100
AcDbSymbolTableRecord
100
AcDbLayerTableRecord
  2
ｶﾊﾞｰ
 70
     0
 62
     3
  6
CONTINUOUS
370
    -3
390
DD70
347
DD82
348
0
  0
ENDTAB
  0
TABLE
  2
STYLE
  5
3
330
0
100
AcDbSymbolTable
 70
     5
  0
STYLE
  5
F
330
3
100
AcDbSymbolTableRecord
100
AcDbTextStyleTableRecord
  2
STANDARD
 70
     0
 40
0.0
 41
1.0
 50
0.0
 71
     0
 42
0.2
  3
txt
  4

  0
STYLE
  5
3B
330
3
100
AcDbSymbolTableRecord
100
AcDbTextStyleTableRecord
  2
KANJI
 70
     0
 40
0.0
 41
1.0
 50
0.0
 71
     0
 42
10.0
  3
simplex
  4
bigfont
  0
STYLE
  5
E39E
330
3
100
AcDbSymbolTableRecord
100
AcDbTextStyleTableRecord
  2
NAKAMUKI
 70
     0
 40
0.0
 41
1.0
 50
0.0
 71
     0
 42
4.0
  3
swissbo.ttf
  4

1001
ACAD
1000
Swis721 BdOul BT
1071
       82
  0
STYLE
  5
E39F
330
3
100
AcDbSymbolTableRecord
100
AcDbTextStyleTableRecord
  2
S_KANJI_M
 70
     0
 40
2.799999999999998
 41
0.8
 50
0.0
 71
     0
 42
2.799999999999998
  3
simplex.shx
  4
bigfont.shx
1001
ACADANNOTATIVE
1000
AnnotativeData
1002
{
1070
     1
1070
     1
1002
}
  0
STYLE
  5
FACA
330
3
100
AcDbSymbolTableRecord
100
AcDbTextStyleTableRecord
  2
ｺﾞｼｯｸ
 70
     0
 40
0.0
 41
1.0
 50
0.0
 71
     0
 42
2.5
  3

  4

1001
ACAD
1000
MS PGothic
1071
    32818
  0
ENDTAB
  0
TABLE
  2
VIEW
  5
6
330
0
100
AcDbSymbolTable
 70
     1
  0
ENDTAB
  0
TABLE
  2
UCS
  5
7
330
0
100
AcDbSymbolTable
 70
     0
  0
ENDTAB
  0
TABLE
  2
APPID
  5
9
330
0
100
AcDbSymbolTable
 70
    14
  0
APPID
  5
10
330
9
100
AcDbSymbolTableRecord
100
AcDbRegAppTableRecord
  2
ACAD
 70
     0
  0
APPID
  5
DE72
330
9
100
AcDbSymbolTableRecord
100
AcDbRegAppTableRecord
  2
ACAD_NAV_VCDISPLAY
 70
     0
  0
APPID
  5
DE7C
330
9
100
AcDbSymbolTableRecord
100
AcDbRegAppTableRecord
  2
ACAD_EXEMPT_FROM_CAD_STANDARDS
 70
     0
  0
APPID
  5
DEE2
330
9
100
AcDbSymbolTableRecord
100
AcDbRegAppTableRecord
  2
ACAD_DSTYLE_DIMRADIAL_EXTENSION
 70
     0
  0
APPID
  5
DEE3
330
9
100
AcDbSymbolTableRecord
100
AcDbRegAppTableRecord
  2
ACAD_PSEXT
 70
     0
  0
APPID
  5
E3A2
330
9
100
AcDbSymbolTableRecord
100
AcDbRegAppTableRecord
  2
ACAD_DSTYLE_DIMJAG
 70
     0
  0
APPID
  5
E3A3
330
9
100
AcDbSymbolTableRecord
100
AcDbRegAppTableRecord
  2
ACAD_DSTYLE_DIMBREAK
 70
     0
  0
APPID
  5
E3A4
330
9
100
AcDbSymbolTableRecord
100
AcDbRegAppTableRecord
  2
ACAD_DSTYLE_DIMTALN
 70
     0
  0
APPID
  5
E3A5
330
9
100
AcDbSymbolTableRecord
100
AcDbRegAppTableRecord
  2
ACADANNOTATIVE
 70
     0
  0
APPID
  5
EF75
330
9
100
AcDbSymbolTableRecord
100
AcDbRegAppTableRecord
  2
AcDbDynamicBlockGUID
 70
     0
  0
APPID
  5
EF76
330
9
100
AcDbSymbolTableRecord
100
AcDbRegAppTableRecord
  2
GradientColor1ACI
 70
     0
  0
APPID
  5
EF77
330
9
100
AcDbSymbolTableRecord
100
AcDbRegAppTableRecord
  2
GradientColor2ACI
 70
     0
  0
APPID
  5
FACC
330
9
100
AcDbSymbolTableRecord
100
AcDbRegAppTableRecord
  2
AcAecLayerStandard
 70
     0
  0
APPID
  5
FACD
330
9
100
AcDbSymbolTableRecord
100
AcDbRegAppTableRecord
  2
ACCMTRANSPARENCY
 70
     0
  0
ENDTAB
  0
TABLE
  2
DIMSTYLE
  5
A
330
0
100
AcDbSymbolTable
 70
     6
100
AcDbDimStyleTable
 71
     1
340
E11
  0
DIMSTYLE
105
E11
330
A
100
AcDbSymbolTableRecord
100
AcDbDimStyleTableRecord
  2
STANDARD
 70
     0
 41
1.0
 42
1.0
 43
6.0
 44
1.0
 73
     0
 74
     0
 77
     1
 78
     8
140
2.5
141
0.0
147
0.5
172
     1
173
     1
284
     8
285
     8
286
     8
340
3B
341
C7B3
343
C7B3
344
C7B3
  0
DIMSTYLE
105
E3A0
330
A
100
AcDbSymbolTableRecord
100
AcDbDimStyleTableRecord
  2
M
 70
     0
 40
0.0
 41
2.0
 42
1.0
 43
0.0
 44
1.0
 73
     0
 74
     0
 77
     1
 78
     8
140
2.5
141
0.0
147
0.5
172
     1
173
     1
284
     8
340
3B
341
E2C6
343
E2C6
344
E2C6
  0
DIMSTYLE
105
E3A1
330
A
100
AcDbSymbolTableRecord
100
AcDbDimStyleTableRecord
  2
M$4
 70
     0
 40
0.0
 41
2.0
 42
1.0
 43
0.0
 44
1.0
 73
     0
 77
     1
 78
     8
140
2.5
141
0.0
147
0.5
173
     1
284
     8
340
3B
341
E2C6
343
E2C6
344
E2C6
1001
ACAD_DSTYLE_DIMBREAK
1070
   391
1040
3.75
1001
ACAD_DSTYLE_DIMJAG
1070
   388
1040
1.5
1001
ACAD_DSTYLE_DIMTALN
1070
   392
1070
     0
  0
DIMSTYLE
105
EF74
330
A
100
AcDbSymbolTableRecord
100
AcDbDimStyleTableRecord
  2
SYS_STANDARD
 70
     0
  4
"
 41
1.0
 42
1.0
 43
7.0
 44
1.0
 47
0.1
 48
0.1
 73
     0
 74
     0
 77
     1
 78
     8
 79
     2
140
3.0
141
0.0
143
0.0393701
146
0.71
147
0.4999999999999992
172
     1
176
   256
177
   256
178
     2
271
     2
272
     2
283
     0
284
     8
340
F
341
EDA8
342
EDAE
371
    -1
372
    -1
  0
DIMSTYLE
105
FACB
330
A
100
AcDbSymbolTableRecord
100
AcDbDimStyleTableRecord
  2
STANDARD$4
 70
     0
 41
1.0
 42
1.0
 43
6.0
 44
1.0
 73
     0
 77
     1
 78
     8
140
2.5
141
0.0
147
0.5
173
     1
284
     8
285
     8
286
     8
340
3B
341
E2C2
343
E2C2
344
E2C2
  0
DIMSTYLE
105
15038
330
A
100
AcDbSymbolTableRecord
100
AcDbDimStyleTableRecord
  2
M図面用
 70
     0
 40
0.0
 41
2.0
 42
1.0
 43
0.0
 44
1.0
 73
     0
 75
     1
 76
     1
 77
     1
 78
     8
140
3.0
141
0.0
147
0.5
173
     1
176
     2
178
   256
284
     8
340
3B
341
E2C6
343
E2C6
344
E2C6
1001
ACAD_DSTYLE_DIMBREAK
1070
   391
1040
3.75
1001
ACAD_DSTYLE_DIMJAG
1070
   388
1040
1.5
1001
ACAD_DSTYLE_DIMTALN
1070
   392
1070
     0
  0
ENDTAB
  0
TABLE
  2
BLOCK_RECORD
  5
1
330
0
100
AcDbSymbolTable
 70
    30
  0
BLOCK_RECORD
  5
17
330
1
100
AcDbSymbolTableRecord
100
AcDbBlockTableRecord
  2
*MODEL_SPACE
340
DDBC
 70
     0
280
     1
281
     0
  0
BLOCK_RECORD
  5
14
330
1
100
AcDbSymbolTableRecord
100
AcDbBlockTableRecord
  2
*PAPER_SPACE
340
DDBD
 70
     0
280
     1
281
     0
  0
BLOCK_RECORD
  5
C7B3
330
1
100
AcDbSymbolTableRecord
100
AcDbBlockTableRecord
  2
1
340
0
102
{BLKREFS
331
14FDD
331
14FDE
331
14FE9
331
14FEA
331
14FF5
331
14FF6
331
15001
331
15002
331
1500D
331
1500E
331
15019
331
1501A
331
15025
331
15026
331
15031
331
15032
331
15416
331
15417
331
1541F
331
15420
331
15428
331
15429
331
15431
331
15432
331
153F2
331
153F3
331
153FB
331
153FC
331
15404
331
15405
331
1540D
331
1540E
102
}
 70
     0
280
     1
281
     0
  0
BLOCK_RECORD
  5
E2BD
330
1
100
AcDbSymbolTableRecord
100
AcDbBlockTableRecord
  2
Y1
340
0
 70
     0
280
     1
281
     0
  0
BLOCK_RECORD
  5
E2C2
330
1
100
AcDbSymbolTableRecord
100
AcDbBlockTableRecord
  2
Y2
340
0
 70
     0
280
     1
281
     0
  0
BLOCK_RECORD
  5
E2C6
330
1
100
AcDbSymbolTableRecord
100
AcDbBlockTableRecord
  2
2
340
0
 70
     0
280
     1
281
     0
  0
BLOCK_RECORD
  5
EDA8
330
1
100
AcDbSymbolTableRecord
100
AcDbBlockTableRecord
  2
_OPEN30
340
0
 70
     0
280
     1
281
     0
  0
BLOCK_RECORD
  5
EDAE
330
1
100
AcDbSymbolTableRecord
100
AcDbBlockTableRecord
  2
_Dot
340
0
 70
     0
280
     1
281
     0
  0
BLOCK_RECORD
  5
EDB3
330
1
100
AcDbSymbolTableRecord
100
AcDbBlockTableRecord
  2
SW_CENTERMARKSYMBOL_0
340
0
 70
     0
280
     1
281
     0
  0
BLOCK_RECORD
  5
EDBE
330
1
100
AcDbSymbolTableRecord
100
AcDbBlockTableRecord
  2
SW_CENTERMARKSYMBOL_1
340
0
 70
     0
280
     1
281
     0
  0
BLOCK_RECORD
  5
EDC9
330
1
100
AcDbSymbolTableRecord
100
AcDbBlockTableRecord
  2
SW_CENTERMARKSYMBOL_2
340
0
 70
     0
280
     1
281
     0
  0
BLOCK_RECORD
  5
EDD4
102
{ACAD_XDICTIONARY
360
EDD5
102
}
330
1
100
AcDbSymbolTableRecord
100
AcDbBlockTableRecord
  2
1259
340
0
310
2800000020000000200000000100080000000000000400000000000000000000000000000000000000000000000080000080000000808000800000008000800080800000C0C0C000C0DCC000F0CAA6000020400000206000002080000020A0000020C0000020E00000400000004020000040400000406000004080000040A0
310
000040C0000040E00000600000006020000060400000606000006080000060A0000060C0000060E00000800000008020000080400000806000008080000080A0000080C0000080E00000A0000000A0200000A0400000A0600000A0800000A0A00000A0C00000A0E00000C0000000C0200000C0400000C0600000C0800000C0
310
A00000C0C00000C0E00000E0000000E0200000E0400000E0600000E0800000E0A00000E0C00000E0E00040000000400020004000400040006000400080004000A0004000C0004000E00040200000402020004020400040206000402080004020A0004020C0004020E000404000004040200040404000404060004040800040
310
40A0004040C0004040E00040600000406020004060400040606000406080004060A0004060C0004060E00040800000408020004080400040806000408080004080A0004080C0004080E00040A0000040A0200040A0400040A0600040A0800040A0A00040A0C00040A0E00040C0000040C0200040C0400040C0600040C08000
310
40C0A00040C0C00040C0E00040E0000040E0200040E0400040E0600040E0800040E0A00040E0C00040E0E00080000000800020008000400080006000800080008000A0008000C0008000E00080200000802020008020400080206000802080008020A0008020C0008020E00080400000804020008040400080406000804080
310
008040A0008040C0008040E00080600000806020008060400080606000806080008060A0008060C0008060E00080800000808020008080400080806000808080008080A0008080C0008080E00080A0000080A0200080A0400080A0600080A0800080A0A00080A0C00080A0E00080C0000080C0200080C0400080C0600080C0
310
800080C0A00080C0C00080C0E00080E0000080E0200080E0400080E0600080E0800080E0A00080E0C00080E0E000C0000000C0002000C0004000C0006000C0008000C000A000C000C000C000E000C0200000C0202000C0204000C0206000C0208000C020A000C020C000C020E000C0400000C0402000C0404000C0406000C0
310
408000C040A000C040C000C040E000C0600000C0602000C0604000C0606000C0608000C060A000C060C000C060E000C0800000C0802000C0804000C0806000C0808000C080A000C080C000C080E000C0A00000C0A02000C0A04000C0A06000C0A08000C0A0A000C0A0C000C0A0E000C0C00000C0C02000C0C04000C0C06000
310
C0C08000C0C0A000F0FBFF00A4A0A000808080000000FF0000FF000000FFFF00FF000000FF00FF00FFFF0000FFFFFF0000000000000000000000000000000000000000000000000000000000000000000000000000FAFAFAFAFAFAFAFAFAFAFAFAFAFAFAFAFAFAFAFAFAFAFAFAFA000000FAFAFAFAFAFA0000FA0000000000
310
0000000000000000000000000000FAFA0000FAFAFAFAFAFA00FA000000000000000000000000000000000000000000FA000000000000FAFAFAFAFAFAFAFAFAFAFAFAFAFAFAFAFAFAFAFAFAFAFAFAFAFA000000000000FAFAFAFAFAFAFAFAFAFAFAFAFAFAFAFAFAFAFAFAFA00000000FA000000000000000000000000000000
310
0000000000000000000000FAFA000000FA000000000000000000000000000000000000000000000000000000FA000000FA000000000000000000000000000000000000000000000000000000FA000000FA000000000000000000000000000000000000000000000000000000FA000000FA0000000000000000000000000000
310
00000000000000000000000000FA000000FA000000000000000000000000000000000000000000000000000000FA000000FA000000000000000000000000000000000000000000000000000000FA000000FA000000000000000000000000000000000000000000000000000000FA000000FA00000000000000000000000000
310
0000000000000000000000000000FA0000FAFA000000000000000000000000000000000000000000000000000000FA00FA00FA000000000000000000000000000000000000000000000000000000FAFA0000FA000000000000000000000000000000000000000000000000000000FAFA0000FA000000000000000000000000
310
000000000000000000000000000000FAFA0000FA000000000000000000000000000000000000000000000000000000FAFA0000FA000000000000000000000000000000000000000000000000000000FAFA0000FA000000000000000000000000000000000000000000000000000000FAFA0000FA0000000000000000000000
310
00000000000000000000000000000000FAFA00FAFA000000000000000000000000000000000000000000000000000000FAFAFA00FA000000000000000000000000000000000000000000000000000000FAFA0000FA000000000000000000000000000000000000000000000000000000FAFAFAFAFA00000000000000000000
310
0000000000000000000000000000000000FAFAFAFAFA0000000000000000000000000000000000000000000000000000000000FAFA000000000000000000000000000000000000000000000000000000000000FAFA000000000000000000000000000000000000000000000000000000000000FAFA00000000000000000000
310
0000000000000000000000000000000000000000FAFA00000000000000000000000000000000000000000000000000000000000000000000
 70
     0
280
     1
281
     1
1001
AcDbDynamicBlockGUID
1000
{E70C141A-DF6A-4307-90FA-AE875971D1BB}
  0
BLOCK_RECORD
  5
F8A8
102
{ACAD_XDICTIONARY
360
F8A9
102
}
330
1
100
AcDbSymbolTableRecord
100
AcDbBlockTableRecord
  2
A$C4FFE3C00
340
0
 70
     0
280
     1
281
     0
1001
AcDbDynamicBlockGUID
1000
{F9C93A90-A83F-4247-AB95-5338C370B6E9}
  0
BLOCK_RECORD
  5
F8B3
330
1
100
AcDbSymbolTableRecord
100
AcDbBlockTableRecord
  2
_DotSmall
340
0
 70
     0
280
     1
281
     0
  0
BLOCK_RECORD
  5
F8B7
330
1
100
AcDbSymbolTableRecord
100
AcDbBlockTableRecord
  2
_None
340
0
 70
     0
280
     1
281
     0
  0
BLOCK_RECORD
  5
14FD8
330
1
100
AcDbSymbolTableRecord
100
AcDbBlockTableRecord
  2
*D13
340
0
 70
     0
280
     1
281
     0
  0
BLOCK_RECORD
  5
14FE4
330
1
100
AcDbSymbolTableRecord
100
AcDbBlockTableRecord
  2
*D14
340
0
 70
     0
280
     1
281
     0
  0
BLOCK_RECORD
  5
14FF0
330
1
100
AcDbSymbolTableRecord
100
AcDbBlockTableRecord
  2
*D15
340
0
 70
     0
280
     1
281
     0
  0
BLOCK_RECORD
  5
14FFC
330
1
100
AcDbSymbolTableRecord
100
AcDbBlockTableRecord
  2
*D16
340
0
 70
     0
280
     1
281
     0
  0
BLOCK_RECORD
  5
15008
330
1
100
AcDbSymbolTableRecord
100
AcDbBlockTableRecord
  2
*D17
340
0
 70
     0
280
     1
281
     0
  0
BLOCK_RECORD
  5
15014
330
1
100
AcDbSymbolTableRecord
100
AcDbBlockTableRecord
  2
*D18
340
0
 70
     0
280
     1
281
     0
  0
BLOCK_RECORD
  5
15020
330
1
100
AcDbSymbolTableRecord
100
AcDbBlockTableRecord
  2
*D19
340
0
 70
     0
280
     1
281
     0
  0
BLOCK_RECORD
  5
1502C
330
1
100
AcDbSymbolTableRecord
100
AcDbBlockTableRecord
  2
*D20
340
0
 70
     0
280
     1
281
     0
  0
BLOCK_RECORD
  5
15347
330
1
100
AcDbSymbolTableRecord
100
AcDbBlockTableRecord
  2
*D22
340
0
 70
     0
280
     1
281
     0
  0
BLOCK_RECORD
  5
15353
330
1
100
AcDbSymbolTableRecord
100
AcDbBlockTableRecord
  2
*D23
340
0
 70
     0
280
     1
281
     0
  0
BLOCK_RECORD
  5
1535F
330
1
100
AcDbSymbolTableRecord
100
AcDbBlockTableRecord
  2
*D24
340
0
 70
     0
280
     1
281
     0
  0
BLOCK_RECORD
  5
1536B
330
1
100
AcDbSymbolTableRecord
100
AcDbBlockTableRecord
  2
*D25
340
0
 70
     0
280
     1
281
     0
  0
BLOCK_RECORD
  5
15377
330
1
100
AcDbSymbolTableRecord
100
AcDbBlockTableRecord
  2
*D26
340
0
 70
     0
280
     1
281
     0
  0
BLOCK_RECORD
  5
15383
330
1
100
AcDbSymbolTableRecord
100
AcDbBlockTableRecord
  2
*D27
340
0
 70
     0
280
     1
281
     0
  0
BLOCK_RECORD
  5
1538F
330
1
100
AcDbSymbolTableRecord
100
AcDbBlockTableRecord
  2
*D28
340
0
 70
     0
280
     1
281
     0
  0
BLOCK_RECORD
  5
1539B
330
1
100
AcDbSymbolTableRecord
100
AcDbBlockTableRecord
  2
*D29
340
0
 70
     0
280
     1
281
     0
  0
ENDTAB
  0
ENDSEC
  0
SECTION
  2
BLOCKS
  0
BLOCK
  5
4F
330
17
100
AcDbEntity
  8
0
100
AcDbBlockBegin
  2
*MODEL_SPACE
 70
     0
 10
0.0
 20
0.0
 30
0.0
  3
*MODEL_SPACE
  1

  0
ENDBLK
  5
50
330
17
100
AcDbEntity
  8
0
100
AcDbBlockEnd
  0
BLOCK
  5
4D
330
14
100
AcDbEntity
 67
     1
  8
0
100
AcDbBlockBegin
  2
*PAPER_SPACE
 70
     0
 10
0.0
 20
0.0
 30
0.0
  3
*PAPER_SPACE
  1

  0
ENDBLK
  5
4E
330
14
100
AcDbEntity
 67
     1
  8
0
100
AcDbBlockEnd
  0
BLOCK
  5
C7B4
330
C7B3
100
AcDbEntity
  8
0
 48
2.0
100
AcDbBlockBegin
  2
1
 70
     0
 10
0.0
 20
0.0
 30
0.0
  3
1
  1

  0
SOLID
  5
C7B5
330
C7B3
100
AcDbEntity
  8
0
  6
ByBlock
 62
     0
100
AcDbTrace
 10
-1.811110924292052
 20
0.4852857095671653
 30
0.0
 11
-1.811110924292052
 21
-0.4852857095673642
 31
0.0
 12
0.0
 22
0.0
 32
0.0
 13
0.0
 23
0.0
 33
0.0
  0
ENDBLK
  5
C7B6
330
C7B3
100
AcDbEntity
  8
0
 48
2.0
100
AcDbBlockEnd
  0
BLOCK
  5
E2BE
330
E2BD
100
AcDbEntity
  8
0
 48
2.0
100
AcDbBlockBegin
  2
Y1
 70
     0
 10
0.0
 20
0.0
 30
0.0
  3
Y1
  1

  0
LINE
  5
E2BF
330
E2BD
100
AcDbEntity
  8
0
  6
ByBlock
 62
     0
 48
2.0
100
AcDbLine
 10
-4.000000000000056
 20
-0.0000000000000142
 30
0.0
 11
-0.0000000000000568
 21
0.0
 31
0.0
  0
SOLID
  5
E2C0
330
E2BD
100
AcDbEntity
  8
0
  6
ByBlock
 62
     0
100
AcDbTrace
 10
-1.811110924292108
 20
0.485285709567151
 30
0.0
 11
-1.811110924292108
 21
-0.4852857095673784
 31
0.0
 12
-0.0000000000000568
 22
-0.0000000000000142
 32
0.0
 13
-0.0000000000000568
 23
-0.0000000000000142
 33
0.0
  0
ENDBLK
  5
E2C1
330
E2BD
100
AcDbEntity
  8
0
 48
2.0
100
AcDbBlockEnd
  0
BLOCK
  5
E2C3
330
E2C2
100
AcDbEntity
  8
0
 48
2.0
100
AcDbBlockBegin
  2
Y2
 70
     0
 10
0.0
 20
0.0
 30
0.0
  3
Y2
  1

  0
SOLID
  5
E2C4
330
E2C2
100
AcDbEntity
  8
0
  6
ByBlock
 62
     0
100
AcDbTrace
 10
-1.811110924292108
 20
0.485285709567151
 30
0.0
 11
-1.811110924292108
 21
-0.4852857095673784
 31
0.0
 12
-0.0000000000000568
 22
-0.0000000000000142
 32
0.0
 13
-0.0000000000000568
 23
-0.0000000000000142
 33
0.0
  0
ENDBLK
  5
E2C5
330
E2C2
100
AcDbEntity
  8
0
 48
2.0
100
AcDbBlockEnd
  0
BLOCK
  5
E2C7
330
E2C6
100
AcDbEntity
  8
0
 48
3.0
100
AcDbBlockBegin
  2
2
 70
     0
 10
0.0
 20
0.0
 30
0.0
  3
2
  1

  0
HATCH
  5
E2C8
330
E2C6
100
AcDbEntity
  8
0
  6
ByBlock
 62
     0
 48
3.0
100
AcDbHatch
 10
0.0
 20
0.0
 30
0.0
210
0.0
220
0.0
230
1.0
  2
SOLID
 70
     1
 71
     0
 91
        1
 92
        1
 93
        3
 72
     1
 10
-0.9999999999983517
 20
0.2679491924306774
 11
0.0
 21
0.0
 72
     1
 10
0.0
 20
0.0
 11
-0.9999999999983517
 21
-0.2679491924306765
 72
     1
 10
-0.9999999999983524
 20
-0.267949192430676
 11
-0.9999999999983524
 21
0.2679491924306774
 97
        0
 75
     0
 76
     1
 98
        1
 10
2.995745117231336
 20
-4.124946096263201
450
        0
451
        0
460
0.0
461
0.0
452
        0
462
0.0
453
        0
470

  0
ENDBLK
  5
E2C9
330
E2C6
100
AcDbEntity
  8
0
 48
3.0
100
AcDbBlockEnd
  0
BLOCK
  5
EDA9
330
EDA8
100
AcDbEntity
  8
0
100
AcDbBlockBegin
  2
_OPEN30
 70
     0
 10
0.0
 20
0.0
 30
0.0
  3
_OPEN30
  1

  0
LINE
  5
EDAA
330
EDA8
100
AcDbEntity
  8
0
  6
ByBlock
 62
     0
100
AcDbLine
 10
-1.0
 20
0.26794919
 30
0.0
 11
0.0
 21
0.0
 31
0.0
  0
LINE
  5
EDAB
330
EDA8
100
AcDbEntity
  8
0
  6
ByBlock
 62
     0
100
AcDbLine
 10
0.0
 20
0.0
 30
0.0
 11
-1.0
 21
-0.26794919
 31
0.0
  0
LINE
  5
EDAC
330
EDA8
100
AcDbEntity
  8
0
  6
ByBlock
 62
     0
100
AcDbLine
 10
0.0
 20
0.0
 30
0.0
 11
-1.0
 21
0.0
 31
0.0
  0
ENDBLK
  5
EDAD
330
EDA8
100
AcDbEntity
  8
0
100
AcDbBlockEnd
  0
BLOCK
  5
EDAF
330
EDAE
100
AcDbEntity
  8
0
100
AcDbBlockBegin
  2
_Dot
 70
     0
 10
0.0
 20
0.0
 30
0.0
  3
_Dot
  1

  0
LWPOLYLINE
  5
EDB0
330
EDAE
100
AcDbEntity
  8
0
  6
ByBlock
 62
     0
100
AcDbPolyline
 90
        2
 70
     1
 43
0.5
 10
-0.25
 20
0.0
 42
1.0
 10
0.25
 20
0.0
 42
1.0
  0
LINE
  5
EDB1
330
EDAE
100
AcDbEntity
  8
0
  6
ByBlock
 62
     0
370
    -2
100
AcDbLine
 10
-0.5
 20
0.0
 30
0.0
 11
-1.0
 21
0.0
 31
0.0
  0
ENDBLK
  5
EDB2
330
EDAE
100
AcDbEntity
  8
0
100
AcDbBlockEnd
  0
BLOCK
  5
EDB4
330
EDB3
100
AcDbEntity
  8
0
100
AcDbBlockBegin
  2
SW_CENTERMARKSYMBOL_0
 70
     0
 10
0.0
 20
0.0
 30
0.0
  3
SW_CENTERMARKSYMBOL_0
  1

  0
LINE
  5
EDB5
330
EDB3
100
AcDbEntity
  8
0
  6
Continuous
 62
     0
370
     0
100
AcDbLine
 10
0.0
 20
0.0
 30
0.0
 11
0.0
 21
2.500000000000002
 31
0.0
  0
LINE
  5
EDB6
330
EDB3
100
AcDbEntity
  8
0
  6
Continuous
 62
     0
370
     0
100
AcDbLine
 10
0.0
 20
0.0
 30
0.0
 11
-2.500000000000002
 21
0.0
 31
0.0
  0
LINE
  5
EDB7
330
EDB3
100
AcDbEntity
  8
0
  6
Continuous
 62
     0
370
     0
100
AcDbLine
 10
0.0
 20
0.0
 30
0.0
 11
0.0
 21
-2.500000000000002
 31
0.0
  0
LINE
  5
EDB8
330
EDB3
100
AcDbEntity
  8
0
  6
Continuous
 62
     0
370
     0
100
AcDbLine
 10
0.0
 20
0.0
 30
0.0
 11
2.500000000000002
 21
0.0
 31
0.0
  0
LINE
  5
EDB9
330
EDB3
100
AcDbEntity
  8
0
  6
Continuous
 62
     0
370
     0
100
AcDbLine
 10
0.0
 20
5.000000000000004
 30
0.0
 11
0.0
 21
6.600000000000022
 31
0.0
  0
LINE
  5
EDBA
330
EDB3
100
AcDbEntity
  8
0
  6
Continuous
 62
     0
370
     0
100
AcDbLine
 10
-5.000000000000004
 20
0.0
 30
0.0
 11
-6.599999999999994
 21
0.0
 31
0.0
  0
LINE
  5
EDBB
330
EDB3
100
AcDbEntity
  8
0
  6
Continuous
 62
     0
370
     0
100
AcDbLine
 10
0.0
 20
-5.000000000000004
 30
0.0
 11
0.0
 21
-6.599999999999994
 31
0.0
  0
LINE
  5
EDBC
330
EDB3
100
AcDbEntity
  8
0
  6
Continuous
 62
     0
370
     0
100
AcDbLine
 10
5.000000000000004
 20
0.0
 30
0.0
 11
6.600000000000022
 21
0.0
 31
0.0
  0
ENDBLK
  5
EDBD
330
EDB3
100
AcDbEntity
  8
0
100
AcDbBlockEnd
  0
BLOCK
  5
EDBF
330
EDBE
100
AcDbEntity
  8
0
100
AcDbBlockBegin
  2
SW_CENTERMARKSYMBOL_1
 70
     0
 10
0.0
 20
0.0
 30
0.0
  3
SW_CENTERMARKSYMBOL_1
  1

  0
LINE
  5
EDC0
330
EDBE
100
AcDbEntity
  8
0
  6
Continuous
 62
     0
370
     0
100
AcDbLine
 10
0.0
 20
0.0
 30
0.0
 11
0.0
 21
2.500000000000002
 31
0.0
  0
LINE
  5
EDC1
330
EDBE
100
AcDbEntity
  8
0
  6
Continuous
 62
     0
370
     0
100
AcDbLine
 10
0.0
 20
0.0
 30
0.0
 11
-2.50000000000003
 21
0.0
 31
0.0
  0
LINE
  5
EDC2
330
EDBE
100
AcDbEntity
  8
0
  6
Continuous
 62
     0
370
     0
100
AcDbLine
 10
0.0
 20
0.0
 30
0.0
 11
0.0
 21
-2.500000000000002
 31
0.0
  0
LINE
  5
EDC3
330
EDBE
100
AcDbEntity
  8
0
  6
Continuous
 62
     0
370
     0
100
AcDbLine
 10
0.0
 20
0.0
 30
0.0
 11
2.500000000000002
 21
0.0
 31
0.0
  0
LINE
  5
EDC4
330
EDBE
100
AcDbEntity
  8
0
  6
Continuous
 62
     0
370
     0
100
AcDbLine
 10
0.0
 20
5.000000000000004
 30
0.0
 11
0.0
 21
6.599999999999994
 31
0.0
  0
LINE
  5
EDC5
330
EDBE
100
AcDbEntity
  8
0
  6
Continuous
 62
     0
370
     0
100
AcDbLine
 10
-5.000000000000031
 20
0.0
 30
0.0
 11
-6.600000000000022
 21
0.0
 31
0.0
  0
LINE
  5
EDC6
330
EDBE
100
AcDbEntity
  8
0
  6
Continuous
 62
     0
370
     0
100
AcDbLine
 10
0.0
 20
-5.000000000000004
 30
0.0
 11
0.0
 21
-6.599999999999994
 31
0.0
  0
LINE
  5
EDC7
330
EDBE
100
AcDbEntity
  8
0
  6
Continuous
 62
     0
370
     0
100
AcDbLine
 10
5.000000000000004
 20
0.0
 30
0.0
 11
6.599999999999994
 21
0.0
 31
0.0
  0
ENDBLK
  5
EDC8
330
EDBE
100
AcDbEntity
  8
0
100
AcDbBlockEnd
  0
BLOCK
  5
EDCA
330
EDC9
100
AcDbEntity
  8
0
100
AcDbBlockBegin
  2
SW_CENTERMARKSYMBOL_2
 70
     0
 10
0.0
 20
0.0
 30
0.0
  3
SW_CENTERMARKSYMBOL_2
  1

  0
LINE
  5
EDCB
330
EDC9
100
AcDbEntity
  8
0
  6
Continuous
 62
     0
370
     0
100
AcDbLine
 10
0.0
 20
0.0
 30
0.0
 11
0.0
 21
2.500000000000002
 31
0.0
  0
LINE
  5
EDCC
330
EDC9
100
AcDbEntity
  8
0
  6
Continuous
 62
     0
370
     0
100
AcDbLine
 10
0.0
 20
0.0
 30
0.0
 11
-2.50000000000003
 21
0.0
 31
0.0
  0
LINE
  5
EDCD
330
EDC9
100
AcDbEntity
  8
0
  6
Continuous
 62
     0
370
     0
100
AcDbLine
 10
0.0
 20
0.0
 30
0.0
 11
0.0
 21
-2.500000000000002
 31
0.0
  0
LINE
  5
EDCE
330
EDC9
100
AcDbEntity
  8
0
  6
Continuous
 62
     0
370
     0
100
AcDbLine
 10
0.0
 20
0.0
 30
0.0
 11
2.500000000000002
 21
0.0
 31
0.0
  0
LINE
  5
EDCF
330
EDC9
100
AcDbEntity
  8
0
  6
Continuous
 62
     0
370
     0
100
AcDbLine
 10
0.0
 20
4.99999999999999
 30
0.0
 11
0.0
 21
6.600000000000008
 31
0.0
  0
LINE
  5
EDD0
330
EDC9
100
AcDbEntity
  8
0
  6
Continuous
 62
     0
370
     0
100
AcDbLine
 10
-5.000000000000031
 20
0.0
 30
0.0
 11
-6.600000000000022
 21
0.0
 31
0.0
  0
LINE
  5
EDD1
330
EDC9
100
AcDbEntity
  8
0
  6
Continuous
 62
     0
370
     0
100
AcDbLine
 10
0.0
 20
-5.000000000000004
 30
0.0
 11
0.0
 21
-6.600000000000008
 31
0.0
  0
LINE
  5
EDD2
330
EDC9
100
AcDbEntity
  8
0
  6
Continuous
 62
     0
370
     0
100
AcDbLine
 10
5.000000000000004
 20
0.0
 30
0.0
 11
6.599999999999994
 21
0.0
 31
0.0
  0
ENDBLK
  5
EDD3
330
EDC9
100
AcDbEntity
  8
0
100
AcDbBlockEnd
  0
BLOCK
  5
EDD7
330
EDD4
100
AcDbEntity
  8
0
 48
2.0
100
AcDbBlockBegin
  2
1259
 70
     0
 10
0.0
 20
0.0
 30
0.0
  3
1259
  1

  0
LINE
  5
EDD8
330
EDD4
100
AcDbEntity
  8
1外形線
100
AcDbLine
 10
0.0000000000002274
 20
64.49999660253524
 30
0.0
 11
-9.499999776482582
 21
64.49999660253524
 31
0.0
  0
LINE
  5
EDD9
330
EDD4
100
AcDbEntity
  8
1外形線
100
AcDbLine
 10
0.0000000000002274
 20
63.00000101327896
 30
0.0
 11
0.0000000000002274
 21
64.49999660253524
 31
0.0
  0
LINE
  5
EDDA
330
EDD4
100
AcDbEntity
  8
1外形線
100
AcDbLine
 10
0.0000000000002274
 20
63.00000101327896
 30
0.0
 11
-7.499999832361936
 21
63.00000101327896
 31
0.0
  0
LINE
  5
EDDB
330
EDD4
100
AcDbEntity
  8
1外形線
100
AcDbLine
 10
-7.499999832361936
 20
63.00000101327896
 30
0.0
 11
-7.499999832361936
 21
59.99999865889549
 31
0.0
  0
LINE
  5
EDDC
330
EDD4
100
AcDbEntity
  8
1外形線
100
AcDbLine
 10
-7.499999832361936
 20
38.49999979138374
 30
0.0
 11
-7.499999832361936
 21
59.99999865889549
 31
0.0
  0
LINE
  5
EDDD
330
EDD4
100
AcDbEntity
  8
1外形線
100
AcDbLine
 10
-7.499999832361936
 20
38.49999979138374
 30
0.0
 11
0.0
 21
30.99999949336052
 31
0.0
  0
LINE
  5
EDDE
330
EDD4
100
AcDbEntity
  8
1外形線
100
AcDbLine
 10
0.0
 20
30.99999949336052
 30
0.0
 11
0.0
 21
7.999999832361936
 31
0.0
  0
LINE
  5
EDDF
330
EDD4
100
AcDbEntity
  8
1外形線
100
AcDbLine
 10
-59.99999865889549
 20
7.499999832361936
 30
0.0
 11
-0.5
 21
7.499999832361936
 31
0.0
  0
LINE
  5
EDE0
330
EDD4
100
AcDbEntity
  8
1外形線
100
AcDbLine
 10
-63.00000101327896
 20
7.499999832361936
 30
0.0
 11
-59.99999865889549
 21
7.499999832361936
 31
0.0
  0
LINE
  5
EDE1
330
EDD4
100
AcDbEntity
  8
1外形線
100
AcDbLine
 10
-63.00000101327896
 20
0.0
 30
0.0
 11
-63.00000101327896
 21
7.499999832361936
 31
0.0
  0
LINE
  5
EDE2
330
EDD4
100
AcDbEntity
  8
1外形線
100
AcDbLine
 10
-63.00000101327896
 20
0.0
 30
0.0
 11
-64.49999660253524
 21
0.0
 31
0.0
  0
LINE
  5
EDE3
330
EDD4
100
AcDbEntity
  8
1外形線
100
AcDbLine
 10
-64.49999660253524
 20
0.0
 30
0.0
 11
-64.49999660253524
 21
8.500000461935997
 31
0.0
  0
LINE
  5
EDE4
330
EDD4
100
AcDbEntity
  8
1外形線
100
AcDbLine
 10
-17.00000092387199
 20
8.500000461935997
 30
0.0
 11
-64.49999660253524
 21
8.500000461935997
 31
0.0
  0
ARC
  5
EDE5
330
EDD4
100
AcDbEntity
  8
1外形線
100
AcDbCircle
 10
-16.99999999999988
 20
17.0
 30
0.0
 40
8.5
100
AcDbArc
 50
270.0
 51
0.0
  0
LINE
  5
EDE6
330
EDD4
100
AcDbEntity
  8
1外形線
100
AcDbLine
 10
-8.500000461935997
 20
17.00000092387199
 30
0.0
 11
-8.500000461935997
 21
64.49999660253524
 31
0.0
  0
LINE
  5
EDE7
330
EDD4
100
AcDbEntity
  8
1外形線
100
AcDbLine
 10
-9.999999776482582
 20
39.08578628401455
 30
0.0
 11
-9.999999776482582
 21
63.99999660253524
 31
0.0
  0
LINE
  5
EDE8
330
EDD4
100
AcDbEntity
  8
1外形線
100
AcDbLine
 10
-9.399999864399433
 20
17.00000092387199
 30
0.0
 11
-9.399999864399433
 21
38.27868029475212
 31
0.0
  0
LINE
  5
EDE9
330
EDD4
100
AcDbEntity
  8
1外形線
100
AcDbLine
 10
-9.399999864399433
 20
38.27868029475212
 30
0.0
 11
-9.853552892681952
 21
38.73223261902758
 31
0.0
  0
ARC
  5
EDEA
330
EDD4
100
AcDbEntity
  8
1外形線
100
AcDbCircle
 10
-16.99999999999988
 20
17.0
 30
0.0
 40
7.600000000000008
100
AcDbArc
 50
292.9195421515707
 51
0.0
  0
SPLINE
  5
EDEB
330
EDD4
100
AcDbEntity
  8
1外形線
100
AcDbSpline
210
0.0
220
0.0
230
1.0
 70
    24
 71
     3
 72
    12
 73
     8
 74
     0
 42
0.000000001
 43
0.0000000001
 40
0.0
 40
0.0
 40
0.0
 40
0.0
 40
0.4999999999999984
 40
0.4999999999999984
 40
0.7499999999999992
 40
0.7499999999999992
 40
1.0
 40
1.0
 40
1.0
 40
1.0
 10
-14.04027028261009
 20
10.0
 30
0.0
 10
-14.48448038190702
 20
10.0
 30
0.0
 10
-14.95147591234922
 20
10.0
 30
0.0
 10
-15.69642998062613
 20
10.0
 30
0.0
 10
-15.95497674714625
 20
10.0
 30
0.0
 10
-16.47404326400305
 20
10.0
 30
0.0
 10
-16.73581744524506
 20
10.0
 30
0.0
 10
-16.99999999999988
 20
10.0
 30
0.0
  0
LINE
  5
EDEC
330
EDD4
100
AcDbEntity
  8
1外形線
100
AcDbLine
 10
-17.00000092387199
 20
9.999999776482582
 30
0.0
 11
-63.99999660253524
 21
9.999999776482582
 31
0.0
  0
LINE
  5
EDED
330
EDD4
100
AcDbEntity
  8
1外形線
100
AcDbLine
 10
-64.49999660253524
 20
8.500000461935997
 30
0.0
 11
-64.49999660253524
 21
9.499999776482582
 31
0.0
  0
ARC
  5
EDEE
330
EDD4
100
AcDbEntity
  8
1外形線
100
AcDbCircle
 10
-0.4999999999998864
 20
53.70710678118644
 30
0.0
 40
0.5
100
AcDbArc
 50
225.0000000000046
 51
0.0
  0
LINE
  5
EDEF
330
EDD4
100
AcDbEntity
  8
1外形線
100
AcDbLine
 10
-7.499999832361936
 20
59.99999865889549
 30
0.0
 11
-0.8535534143447875
 21
53.35355177521705
 31
0.0
  0
LINE
  5
EDF0
330
EDD4
100
AcDbEntity
  8
1外形線
100
AcDbLine
 10
0.0000000000001137
 20
53.70710790157318
 30
0.0
 11
0.0000000000002274
 21
63.00000101327896
 31
0.0
  0
LINE
  5
EDF1
330
EDD4
100
AcDbEntity
  8
1外形線
100
AcDbLine
 10
-59.99999865889549
 20
7.499999832361936
 30
0.0
 11
-53.35355177521705
 21
0.8535534143447875
 31
0.0
  0
ARC
  5
EDF2
330
EDD4
100
AcDbEntity
  8
1外形線
100
AcDbCircle
 10
-53.70710678118644
 20
0.5
 30
0.0
 40
0.5
100
AcDbArc
 50
270.0
 51
44.99999999999539
  0
LINE
  5
EDF3
330
EDD4
100
AcDbEntity
  8
1外形線
100
AcDbLine
 10
-53.70710790157318
 20
0.0
 30
0.0
 11
-63.00000101327896
 21
0.0
 31
0.0
  0
LINE
  5
EDF4
330
EDD4
100
AcDbEntity
  8
1外形線
100
AcDbLine
 10
0.0000000000001137
 20
30.99999949336052
 30
0.0
 11
0.0000000000001137
 21
53.70710790157318
 31
0.0
  0
ARC
  5
EDF5
330
EDD4
100
AcDbEntity
  8
1外形線
100
AcDbCircle
 10
-2.0
 20
2.0
 30
0.0
 40
2.000000000000028
100
AcDbArc
 50
270.0
 51
0.0
  0
LINE
  5
EDF6
330
EDD4
100
AcDbEntity
  8
1外形線
100
AcDbLine
 10
-2.000000094994902
 20
0.0
 30
0.0
 11
-53.70710790157318
 21
0.0
 31
0.0
  0
LINE
  5
EDF7
330
EDD4
100
AcDbEntity
  8
1外形線
100
AcDbLine
 10
0.0
 20
2.000000094994902
 30
0.0
 11
0.0
 21
7.999999832361936
 31
0.0
  0
LINE
  5
EDF8
330
EDD4
100
AcDbEntity
  8
1外形線
100
AcDbLine
 10
-5.499999970197677
 20
73.49999994039535
 30
0.0
 11
-5.499999970197677
 21
74.50000196695327
 31
0.0
  0
LINE
  5
EDF9
330
EDD4
100
AcDbEntity
  8
1外形線
100
AcDbLine
 10
-5.499999970197677
 20
74.50000196695327
 30
0.0
 11
-2.499999944120645
 21
74.50000196695327
 31
0.0
  0
LINE
  5
EDFA
330
EDD4
100
AcDbEntity
  8
1外形線
100
AcDbLine
 10
-2.499999944120645
 20
74.50000196695327
 30
0.0
 11
-2.499999944120645
 21
73.49999994039535
 31
0.0
  0
LINE
  5
EDFB
330
EDD4
100
AcDbEntity
  8
1外形線
100
AcDbLine
 10
-5.499999970197677
 20
73.49999994039535
 30
0.0
 11
-5.499999970197676
 21
64.99999660253525
 31
0.0
  0
LINE
  5
EDFC
330
EDD4
100
AcDbEntity
  8
1外形線
100
AcDbLine
 10
-2.499999944120645
 20
73.49999994039535
 30
0.0
 11
-2.499999944120645
 21
64.49999660253524
 31
0.0
  0
LINE
  5
EDFD
330
EDD4
100
AcDbEntity
  8
1外形線
100
AcDbLine
 10
-73.49999994039535
 20
2.499999944120645
 30
0.0
 11
-64.49999660253524
 21
2.499999944120645
 31
0.0
  0
LINE
  5
EDFE
330
EDD4
100
AcDbEntity
  8
1外形線
100
AcDbLine
 10
-73.49999994039535
 20
5.499999970197677
 30
0.0
 11
-64.99507278203964
 21
5.499999970197677
 31
0.0
  0
LINE
  5
EDFF
330
EDD4
100
AcDbEntity
  8
1外形線
100
AcDbLine
 10
-64.49999660253524
 20
5.0014303997159
 30
0.0
 11
-64.99507278203964
 21
5.499999970197677
 31
0.0
  0
LINE
  5
EE00
330
EDD4
100
AcDbEntity
  8
1外形線
100
AcDbLine
 10
-74.50000196695327
 20
2.499999944120645
 30
0.0
 11
-74.50000196695327
 21
5.499999970197677
 31
0.0
  0
LINE
  5
EE01
330
EDD4
100
AcDbEntity
  8
1外形線
100
AcDbLine
 10
-74.50000196695327
 20
5.499999970197677
 30
0.0
 11
-73.49999994039535
 21
5.499999970197677
 31
0.0
  0
LINE
  5
EE02
330
EDD4
100
AcDbEntity
  8
1外形線
100
AcDbLine
 10
-73.49999994039535
 20
2.499999944120645
 30
0.0
 11
-74.50000196695327
 21
2.499999944120645
 31
0.0
  0
ARC
  5
EE03
330
EDD4
100
AcDbEntity
  8
1外形線
100
AcDbCircle
 10
-9.499999776482582
 20
39.08578628401455
 30
0.0
 40
0.5
100
AcDbArc
 50
180.0
 51
225.0000444674185
  0
ARC
  5
EE04
330
EDD4
100
AcDbEntity
  8
1外形線
100
AcDbCircle
 10
-0.5
 20
7.999999832361936
 30
0.0
 40
0.5
100
AcDbArc
 50
270.0
 51
0.0
  0
LINE
  5
EE05
330
EDD4
100
AcDbEntity
  8
1外形線
100
AcDbLine
 10
-5.499999970197676
 20
64.99999660253525
 30
0.0
 11
-4.999999970197676
 21
64.49999660253524
 31
0.0
  0
ARC
  5
EE06
330
EDD4
100
AcDbEntity
  8
1外形線
100
AcDbCircle
 10
-63.99999660253524
 20
9.499999776482582
 30
0.0
 40
0.5
100
AcDbArc
 50
90.0
 51
180.0
  0
ARC
  5
EE07
330
EDD4
100
AcDbEntity
  8
1外形線
100
AcDbCircle
 10
-9.499999776482582
 20
63.99999660253524
 30
0.0
 40
0.5
100
AcDbArc
 50
90.0
 51
180.0
  0
ENDBLK
  5
EE08
330
EDD4
100
AcDbEntity
  8
0
 48
2.0
100
AcDbBlockEnd
  0
BLOCK
  5
F8AA
330
F8A8
100
AcDbEntity
  8
0
 48
2.0
100
AcDbBlockBegin
  2
A$C4FFE3C00
 70
     0
 10
0.0
 20
0.0
 30
0.0
  3
A$C4FFE3C00
  1

  0
TEXT
  5
F8AB
330
F8A8
100
AcDbEntity
  8
SUNPOU
 48
2.0
100
AcDbText
 10
0.9989589034928441
 20
0.0000002688717586
 30
0.0
 40
2.5
  1
B-16
  7
KANJI
 72
     1
 11
5.522768427302366
 21
0.0000002688717586
 31
0.0
100
AcDbText
  0
LINE
  5
F8AC
330
F8A8
100
AcDbEntity
  8
2寸法線
 48
2.0
100
AcDbLine
 10
-0.0000000047239155
 20
0.0043600932849586
 30
0.0
 11
0.4999999952760846
 21
0.0043600932849586
 31
0.0
  0
LINE
  5
F8AD
330
F8A8
100
AcDbEntity
  8
2寸法線
 48
2.0
100
AcDbLine
 10
-0.0000000047239155
 20
2.49799043967323
 30
0.0
 11
0.4999999952760846
 21
2.49799043967323
 31
0.0
  0
LINE
  5
F8AE
330
F8A8
100
AcDbEntity
  8
2寸法線
 48
2.0
100
AcDbLine
 10
0.2499999952760845
 20
0.0043600932849586
 30
0.0
 11
0.2499999952760845
 21
2.49799043967323
 31
0.0
  0
LINE
  5
F8AF
330
F8A8
100
AcDbEntity
  8
2寸法線
 48
2.0
100
AcDbLine
 10
10.82274956841655
 20
0.0043600932849586
 30
0.0
 11
11.32274956841655
 21
0.0043600932849586
 31
0.0
  0
LINE
  5
F8B0
330
F8A8
100
AcDbEntity
  8
2寸法線
 48
2.0
100
AcDbLine
 10
11.07274956841655
 20
0.0043600932849586
 30
0.0
 11
11.07274956841655
 21
2.49799043967323
 31
0.0
  0
LINE
  5
F8B1
330
F8A8
100
AcDbEntity
  8
2寸法線
 48
2.0
100
AcDbLine
 10
10.82274956841655
 20
2.49799043967323
 30
0.0
 11
11.32274956841655
 21
2.49799043967323
 31
0.0
  0
ENDBLK
  5
F8B2
330
F8A8
100
AcDbEntity
  8
0
 48
2.0
100
AcDbBlockEnd
  0
BLOCK
  5
F8B4
330
F8B3
100
AcDbEntity
  8
0
 48
3.0
100
AcDbBlockBegin
  2
_DotSmall
 70
     0
 10
0.0
 20
0.0
 30
0.0
  3
_DotSmall
  1

  0
LWPOLYLINE
  5
F8B5
330
F8B3
100
AcDbEntity
  8
0
  6
ByBlock
 62
     0
100
AcDbPolyline
 90
        2
 70
     1
 43
0.5
 10
-0.0625
 20
0.0
 42
1.0
 10
0.0625
 20
0.0
 42
1.0
  0
ENDBLK
  5
F8B6
330
F8B3
100
AcDbEntity
  8
0
 48
3.0
100
AcDbBlockEnd
  0
BLOCK
  5
F8B8
330
F8B7
100
AcDbEntity
  8
0
 62
     0
 48
3.0
100
AcDbBlockBegin
  2
_None
 70
     0
 10
0.0
 20
0.0
 30
0.0
  3
_None
  1

  0
ENDBLK
  5
F8B9
330
F8B7
100
AcDbEntity
  8
0
 62
     0
 48
3.0
100
AcDbBlockEnd
  0
BLOCK
  5
14FD9
330
14FD8
100
AcDbEntity
  8
0
 48
3.0
100
AcDbBlockBegin
  2
*D13
 70
     1
 10
0.0
 20
0.0
 30
0.0
  3
*D13
  1

  0
LINE
  5
14FDA
330
14FD8
100
AcDbEntity
  8
2寸法線
 62
     0
440
 16777216
 48
3.0
370
    -2
100
AcDbLine
 10
2783.208710689682
 20
8.18678514480382
 30
0.0
 11
2783.208710689682
 21
-0.9753205682430916
 31
0.0
  0
LINE
  5
14FDB
330
14FD8
100
AcDbEntity
  8
2寸法線
 62
     0
440
 16777216
 48
3.0
370
    -2
100
AcDbLine
 10
2871.708710689682
 20
8.186785144803792
 30
0.0
 11
2871.708710689682
 21
-0.9753205682430916
 31
0.0
  0
LINE
  5
14FDC
330
14FD8
100
AcDbEntity
  8
2寸法線
 62
     0
440
 16777216
 48
3.0
370
    -2
100
AcDbLine
 10
2784.708710689682
 20
0.0246794317569084
 30
0.0
 11
2870.208710689682
 21
0.0246794317569084
 31
0.0
  0
INSERT
  5
14FDD
330
14FD8
100
AcDbEntity
  8
2寸法線
 62
     0
440
 16777216
 48
3.0
370
    -2
100
AcDbBlockReference
  2
1
 10
2783.208710689682
 20
0.0246794317569084
 30
0.0
 41
1.5
 42
1.5
 43
1.5
 50
180.0
  0
INSERT
  5
14FDE
330
14FD8
100
AcDbEntity
  8
2寸法線
 62
     0
440
 16777216
 48
3.0
370
    -2
100
AcDbBlockReference
  2
1
 10
2871.708710689682
 20
0.0246794317569084
 30
0.0
 41
1.5
 42
1.5
 43
1.5
  0
MTEXT
  5
14FDF
330
14FD8
100
AcDbEntity
  8
2寸法線
 62
     1
440
 16777216
 48
3.0
100
AcDbMText
 10
2827.458710689682
 20
2.774679431756908
 30
0.0
 40
3.5
 41
0.0
 46
0.0
 71
     5
 72
     1
  1
\A1;88.5
  7
KANJI
 73
     1
 44
1.0
  0
POINT
  5
14FE0
330
14FD8
100
AcDbEntity
  8
DEFPOINTS
 62
     0
440
 16777216
 48
3.0
100
AcDbPoint
 10
2783.208710689682
 20
10.18678514480382
 30
0.0
  0
POINT
  5
14FE1
330
14FD8
100
AcDbEntity
  8
DEFPOINTS
 62
     0
440
 16777216
 48
3.0
100
AcDbPoint
 10
2871.708710689682
 20
10.18678514480379
 30
0.0
  0
POINT
  5
14FE2
330
14FD8
100
AcDbEntity
  8
DEFPOINTS
 62
     0
440
 16777216
 48
3.0
100
AcDbPoint
 10
2871.708710689682
 20
0.0246794317569084
 30
0.0
  0
ENDBLK
  5
14FE3
330
14FD8
100
AcDbEntity
  8
0
 48
3.0
100
AcDbBlockEnd
  0
BLOCK
  5
14FE5
330
14FE4
100
AcDbEntity
  8
0
 48
3.0
100
AcDbBlockBegin
  2
*D14
 70
     1
 10
0.0
 20
0.0
 30
0.0
  3
*D14
  1

  0
LINE
  5
14FE6
330
14FE4
100
AcDbEntity
  8
2寸法線
 62
     0
440
 16777216
 48
3.0
370
    -2
100
AcDbLine
 10
2829.458710690573
 20
55.28678514480498
 30
0.0
 11
2883.698186484449
 21
55.28678514480496
 31
0.0
  0
LINE
  5
14FE7
330
14FE4
100
AcDbEntity
  8
2寸法線
 62
     0
440
 16777216
 48
3.0
370
    -2
100
AcDbLine
 10
2873.708710689682
 20
10.18678514480382
 30
0.0
 11
2883.698186484449
 21
10.18678514480382
 31
0.0
  0
LINE
  5
14FE8
330
14FE4
100
AcDbEntity
  8
2寸法線
 62
     0
440
 16777216
 48
3.0
370
    -2
100
AcDbLine
 10
2882.698186484449
 20
53.78678514480497
 30
0.0
 11
2882.698186484449
 21
11.68678514480382
 31
0.0
  0
INSERT
  5
14FE9
330
14FE4
100
AcDbEntity
  8
2寸法線
 62
     0
440
 16777216
 48
3.0
370
    -2
100
AcDbBlockReference
  2
1
 10
2882.698186484449
 20
55.28678514480496
 30
0.0
 41
1.5
 42
1.5
 43
1.5
 50
90.0
  0
INSERT
  5
14FEA
330
14FE4
100
AcDbEntity
  8
2寸法線
 62
     0
440
 16777216
 48
3.0
370
    -2
100
AcDbBlockReference
  2
1
 10
2882.698186484449
 20
10.18678514480382
 30
0.0
 41
1.5
 42
1.5
 43
1.5
 50
270.0
  0
MTEXT
  5
14FEB
330
14FE4
100
AcDbEntity
  8
2寸法線
 62
     1
440
 16777216
 48
3.0
100
AcDbMText
 10
2879.948186484448
 20
32.73678514480486
 30
0.0
 40
3.5
 41
0.0
 46
0.0
 71
     5
 72
     1
  1
\A1;45
  7
KANJI
 11
0.0000000000000001
 21
1.0
 31
0.0
 73
     1
 44
1.0
  0
POINT
  5
14FEC
330
14FE4
100
AcDbEntity
  8
DEFPOINTS
 62
     0
440
 16777216
 48
3.0
100
AcDbPoint
 10
2827.458710690573
 20
55.28678514480498
 30
0.0
  0
POINT
  5
14FED
330
14FE4
100
AcDbEntity
  8
DEFPOINTS
 62
     0
440
 16777216
 48
3.0
100
AcDbPoint
 10
2871.708710689682
 20
10.18678514480382
 30
0.0
  0
POINT
  5
14FEE
330
14FE4
100
AcDbEntity
  8
DEFPOINTS
 62
     0
440
 16777216
 48
3.0
100
AcDbPoint
 10
2882.698186484449
 20
10.18678514480382
 30
0.0
  0
ENDBLK
  5
14FEF
330
14FE4
100
AcDbEntity
  8
0
 48
3.0
100
AcDbBlockEnd
  0
BLOCK
  5
14FF1
330
14FF0
100
AcDbEntity
  8
0
 48
3.0
100
AcDbBlockBegin
  2
*D15
 70
     1
 10
0.0
 20
0.0
 30
0.0
  3
*D15
  1

  0
LINE
  5
14FF2
330
14FF0
100
AcDbEntity
  8
2寸法線
 62
     0
440
 16777216
 48
3.0
370
    -2
100
AcDbLine
 10
2906.958240032181
 20
9.720488469720407
 30
0.0
 11
2906.958240032181
 21
-0.9753205682430916
 31
0.0
  0
LINE
  5
14FF3
330
14FF0
100
AcDbEntity
  8
2寸法線
 62
     0
440
 16777216
 48
3.0
370
    -2
100
AcDbLine
 10
2995.458245218902
 20
10.72048846973132
 30
0.0
 11
2995.458245218902
 21
-0.9753205682430916
 31
0.0
  0
LINE
  5
14FF4
330
14FF0
100
AcDbEntity
  8
2寸法線
 62
     0
440
 16777216
 48
3.0
370
    -2
100
AcDbLine
 10
2908.458240032181
 20
0.0246794317569084
 30
0.0
 11
2993.958245218902
 21
0.0246794317569084
 31
0.0
  0
INSERT
  5
14FF5
330
14FF0
100
AcDbEntity
  8
2寸法線
 62
     0
440
 16777216
 48
3.0
370
    -2
100
AcDbBlockReference
  2
1
 10
2906.958240032181
 20
0.0246794317569084
 30
0.0
 41
1.5
 42
1.5
 43
1.5
 50
180.0
  0
INSERT
  5
14FF6
330
14FF0
100
AcDbEntity
  8
2寸法線
 62
     0
440
 16777216
 48
3.0
370
    -2
100
AcDbBlockReference
  2
1
 10
2995.458245218902
 20
0.0246794317569084
 30
0.0
 41
1.5
 42
1.5
 43
1.5
  0
MTEXT
  5
14FF7
330
14FF0
100
AcDbEntity
  8
2寸法線
 62
     1
440
 16777216
 48
3.0
100
AcDbMText
 10
2951.208242625541
 20
2.774679431756908
 30
0.0
 40
3.5
 41
0.0
 46
0.0
 71
     5
 72
     1
  1
\A1;88.5
  7
KANJI
 73
     1
 44
1.0
  0
POINT
  5
14FF8
330
14FF0
100
AcDbEntity
  8
DEFPOINTS
 62
     0
440
 16777216
 48
3.0
100
AcDbPoint
 10
2906.958240032181
 20
11.72048846972041
 30
0.0
  0
POINT
  5
14FF9
330
14FF0
100
AcDbEntity
  8
DEFPOINTS
 62
     0
440
 16777216
 48
3.0
100
AcDbPoint
 10
2995.458245218902
 20
12.72048846973132
 30
0.0
  0
POINT
  5
14FFA
330
14FF0
100
AcDbEntity
  8
DEFPOINTS
 62
     0
440
 16777216
 48
3.0
100
AcDbPoint
 10
2995.458245218902
 20
0.0246794317569084
 30
0.0
  0
ENDBLK
  5
14FFB
330
14FF0
100
AcDbEntity
  8
0
 48
3.0
100
AcDbBlockEnd
  0
BLOCK
  5
14FFD
330
14FFC
100
AcDbEntity
  8
0
 48
3.0
100
AcDbBlockBegin
  2
*D16
 70
     1
 10
0.0
 20
0.0
 30
0.0
  3
*D16
  1

  0
LINE
  5
14FFE
330
14FFC
100
AcDbEntity
  8
2寸法線
 62
     0
440
 16777216
 48
3.0
370
    -2
100
AcDbLine
 10
2997.458245218902
 20
100.2204936564413
 30
0.0
 11
3010.071884414386
 21
100.2204936564413
 31
0.0
  0
LINE
  5
14FFF
330
14FFC
100
AcDbEntity
  8
2寸法線
 62
     0
440
 16777216
 48
3.0
370
    -2
100
AcDbLine
 10
2996.458245218902
 20
11.72048846973132
 30
0.0
 11
3010.071884414386
 21
11.72048846973131
 31
0.0
  0
LINE
  5
15000
330
14FFC
100
AcDbEntity
  8
2寸法線
 62
     0
440
 16777216
 48
3.0
370
    -2
100
AcDbLine
 10
3009.071884414386
 20
98.72049365644137
 30
0.0
 11
3009.071884414386
 21
13.22048846973131
 31
0.0
  0
INSERT
  5
15001
330
14FFC
100
AcDbEntity
  8
2寸法線
 62
     0
440
 16777216
 48
3.0
370
    -2
100
AcDbBlockReference
  2
1
 10
3009.071884414386
 20
100.2204936564413
 30
0.0
 41
1.5
 42
1.5
 43
1.5
 50
90.0
  0
INSERT
  5
15002
330
14FFC
100
AcDbEntity
  8
2寸法線
 62
     0
440
 16777216
 48
3.0
370
    -2
100
AcDbBlockReference
  2
1
 10
3009.071884414386
 20
11.72048846973131
 30
0.0
 41
1.5
 42
1.5
 43
1.5
 50
270.0
  0
MTEXT
  5
15003
330
14FFC
100
AcDbEntity
  8
2寸法線
 62
     1
440
 16777216
 48
3.0
100
AcDbMText
 10
3006.321884414386
 20
55.97049106308682
 30
0.0
 40
3.5
 41
0.0
 46
0.0
 71
     5
 72
     1
  1
\A1;88.5
  7
KANJI
 11
0.0000000000000001
 21
1.0
 31
0.0
 73
     1
 44
1.0
  0
POINT
  5
15004
330
14FFC
100
AcDbEntity
  8
DEFPOINTS
 62
     0
440
 16777216
 48
3.0
100
AcDbPoint
 10
2995.458245218902
 20
100.2204936564413
 30
0.0
  0
POINT
  5
15005
330
14FFC
100
AcDbEntity
  8
DEFPOINTS
 62
     0
440
 16777216
 48
3.0
100
AcDbPoint
 10
2994.458245218902
 20
11.72048846973132
 30
0.0
  0
POINT
  5
15006
330
14FFC
100
AcDbEntity
  8
DEFPOINTS
 62
     0
440
 16777216
 48
3.0
100
AcDbPoint
 10
3009.071884414386
 20
11.72048846973131
 30
0.0
  0
ENDBLK
  5
15007
330
14FFC
100
AcDbEntity
  8
0
 48
3.0
100
AcDbBlockEnd
  0
BLOCK
  5
15009
330
15008
100
AcDbEntity
  8
0
 48
3.0
100
AcDbBlockBegin
  2
*D17
 70
     1
 10
0.0
 20
0.0
 30
0.0
  3
*D17
  1

  0
LINE
  5
1500A
330
15008
100
AcDbEntity
  8
2寸法線
 62
     0
440
 16777216
 48
3.0
370
    -2
100
AcDbLine
 10
3065.959124824813
 20
56.72048785878371
 30
0.0
 11
3034.476362093815
 21
56.72048785878372
 31
0.0
  0
LINE
  5
1500B
330
15008
100
AcDbEntity
  8
2寸法線
 62
     0
440
 16777216
 48
3.0
370
    -2
100
AcDbLine
 10
3065.959124824813
 20
13.72048957241724
 30
0.0
 11
3034.476362093815
 21
13.72048957241725
 31
0.0
  0
LINE
  5
1500C
330
15008
100
AcDbEntity
  8
2寸法線
 62
     0
440
 16777216
 48
3.0
370
    -2
100
AcDbLine
 10
3035.476362093815
 20
55.22048785878372
 30
0.0
 11
3035.476362093815
 21
15.22048957241725
 31
0.0
  0
INSERT
  5
1500D
330
15008
100
AcDbEntity
  8
2寸法線
 62
     0
440
 16777216
 48
3.0
370
    -2
100
AcDbBlockReference
  2
1
 10
3035.476362093815
 20
56.72048785878372
 30
0.0
 41
1.5
 42
1.5
 43
1.5
 50
90.0
  0
INSERT
  5
1500E
330
15008
100
AcDbEntity
  8
2寸法線
 62
     0
440
 16777216
 48
3.0
370
    -2
100
AcDbBlockReference
  2
1
 10
3035.476362093815
 20
13.72048957241725
 30
0.0
 41
1.5
 42
1.5
 43
1.5
 50
270.0
  0
MTEXT
  5
1500F
330
15008
100
AcDbEntity
  8
2寸法線
 62
     1
440
 16777216
 48
3.0
100
AcDbMText
 10
3032.726362093815
 20
35.22048871560098
 30
0.0
 40
3.5
 41
0.0
 46
0.0
 71
     5
 72
     1
  1
\A1;43（開口）
  7
KANJI
 11
0.0000000000000001
 21
1.0
 31
0.0
 73
     1
 44
1.0
  0
POINT
  5
15010
330
15008
100
AcDbEntity
  8
DEFPOINTS
 62
     0
440
 16777216
 48
3.0
100
AcDbPoint
 10
3067.959124824813
 20
56.72048785878371
 30
0.0
  0
POINT
  5
15011
330
15008
100
AcDbEntity
  8
DEFPOINTS
 62
     0
440
 16777216
 48
3.0
100
AcDbPoint
 10
3067.959124824813
 20
13.72048957241724
 30
0.0
  0
POINT
  5
15012
330
15008
100
AcDbEntity
  8
DEFPOINTS
 62
     0
440
 16777216
 48
3.0
100
AcDbPoint
 10
3035.476362093815
 20
13.72048957241725
 30
0.0
  0
ENDBLK
  5
15013
330
15008
100
AcDbEntity
  8
0
 48
3.0
100
AcDbBlockEnd
  0
BLOCK
  5
15015
330
15014
100
AcDbEntity
  8
0
 48
3.0
100
AcDbBlockBegin
  2
*D18
 70
     1
 10
0.0
 20
0.0
 30
0.0
  3
*D18
  1

  0
LINE
  5
15016
330
15014
100
AcDbEntity
  8
2寸法線
 62
     0
440
 16777216
 48
3.0
370
    -2
100
AcDbLine
 10
3047.959125271848
 20
30.62048866344606
 30
0.0
 11
3047.959125271848
 21
-2.566376930332353
 31
0.0
  0
LINE
  5
15017
330
15014
100
AcDbEntity
  8
2寸法線
 62
     0
440
 16777216
 48
3.0
370
    -2
100
AcDbLine
 10
3128.459124496988
 20
30.62048866344606
 30
0.0
 11
3128.459124496988
 21
-2.566376930332353
 31
0.0
  0
LINE
  5
15018
330
15014
100
AcDbEntity
  8
2寸法線
 62
     0
440
 16777216
 48
3.0
370
    -2
100
AcDbLine
 10
3049.459125271848
 20
-1.566376930332353
 30
0.0
 11
3126.959124496988
 21
-1.566376930332353
 31
0.0
  0
INSERT
  5
15019
330
15014
100
AcDbEntity
  8
2寸法線
 62
     0
440
 16777216
 48
3.0
370
    -2
100
AcDbBlockReference
  2
1
 10
3047.959125271848
 20
-1.566376930332353
 30
0.0
 41
1.5
 42
1.5
 43
1.5
 50
180.0
  0
INSERT
  5
1501A
330
15014
100
AcDbEntity
  8
2寸法線
 62
     0
440
 16777216
 48
3.0
370
    -2
100
AcDbBlockReference
  2
1
 10
3128.459124496988
 20
-1.566376930332353
 30
0.0
 41
1.5
 42
1.5
 43
1.5
  0
MTEXT
  5
1501B
330
15014
100
AcDbEntity
  8
2寸法線
 62
     1
440
 16777216
 48
3.0
100
AcDbMText
 10
3088.209124884418
 20
1.183623069667647
 30
0.0
 40
3.5
 41
0.0
 46
0.0
 71
     5
 72
     1
  1
\A1;80.5（開口）
  7
KANJI
 73
     1
 44
1.0
  0
POINT
  5
1501C
330
15014
100
AcDbEntity
  8
DEFPOINTS
 62
     0
440
 16777216
 48
3.0
100
AcDbPoint
 10
3047.959125271848
 20
32.62048866344605
 30
0.0
  0
POINT
  5
1501D
330
15014
100
AcDbEntity
  8
DEFPOINTS
 62
     0
440
 16777216
 48
3.0
100
AcDbPoint
 10
3128.459124496988
 20
32.62048866344605
 30
0.0
  0
POINT
  5
1501E
330
15014
100
AcDbEntity
  8
DEFPOINTS
 62
     0
440
 16777216
 48
3.0
100
AcDbPoint
 10
3128.459124496988
 20
-1.566376930332353
 30
0.0
  0
ENDBLK
  5
1501F
330
15014
100
AcDbEntity
  8
0
 48
3.0
100
AcDbBlockEnd
  0
BLOCK
  5
15021
330
15020
100
AcDbEntity
  8
0
 48
3.0
100
AcDbBlockBegin
  2
*D19
 70
     1
 10
0.0
 20
0.0
 30
0.0
  3
*D19
  1

  0
LINE
  5
15022
330
15020
100
AcDbEntity
  8
2寸法線
 62
     0
440
 16777216
 48
3.0
370
    -2
100
AcDbLine
 10
3065.959123900941
 20
90.2204892445917
 30
0.0
 11
3034.476362093815
 21
90.22048924459172
 31
0.0
  0
LINE
  5
15023
330
15020
100
AcDbEntity
  8
2寸法線
 62
     0
440
 16777216
 48
3.0
370
    -2
100
AcDbLine
 10
3043.959124884418
 20
100.2204884697313
 30
0.0
 11
3034.476362093815
 21
100.2204884697313
 31
0.0
  0
LINE
  5
15024
330
15020
100
AcDbEntity
  8
2寸法線
 62
     0
440
 16777216
 48
3.0
370
    -2
100
AcDbLine
 10
3035.476362093815
 20
91.72048924459172
 30
0.0
 11
3035.476362093815
 21
98.72048846973134
 31
0.0
  0
INSERT
  5
15025
330
15020
100
AcDbEntity
  8
2寸法線
 62
     0
440
 16777216
 48
3.0
370
    -2
100
AcDbBlockReference
  2
1
 10
3035.476362093815
 20
90.22048924459172
 30
0.0
 41
1.5
 42
1.5
 43
1.5
 50
270.0
  0
INSERT
  5
15026
330
15020
100
AcDbEntity
  8
2寸法線
 62
     0
440
 16777216
 48
3.0
370
    -2
100
AcDbBlockReference
  2
1
 10
3035.476362093815
 20
100.2204884697313
 30
0.0
 41
1.5
 42
1.5
 43
1.5
 50
90.0
  0
MTEXT
  5
15027
330
15020
100
AcDbEntity
  8
2寸法線
 62
     1
440
 16777216
 48
3.0
100
AcDbMText
 10
3032.726362093815
 20
95.220488857162
 30
0.0
 40
3.5
 41
0.0
 46
0.0
 71
     5
 72
     1
  1
\A1;10
  7
KANJI
 11
0.0000000000000001
 21
1.0
 31
0.0
 73
     1
 44
1.0
  0
POINT
  5
15028
330
15020
100
AcDbEntity
  8
DEFPOINTS
 62
     0
440
 16777216
 48
3.0
100
AcDbPoint
 10
3067.959123900941
 20
90.2204892445917
 30
0.0
  0
POINT
  5
15029
330
15020
100
AcDbEntity
  8
DEFPOINTS
 62
     0
440
 16777216
 48
3.0
100
AcDbPoint
 10
3045.959124884418
 20
100.2204884697313
 30
0.0
  0
POINT
  5
1502A
330
15020
100
AcDbEntity
  8
DEFPOINTS
 62
     0
440
 16777216
 48
3.0
100
AcDbPoint
 10
3035.476362093815
 20
100.2204884697313
 30
0.0
  0
ENDBLK
  5
1502B
330
15020
100
AcDbEntity
  8
0
 48
3.0
100
AcDbBlockEnd
  0
BLOCK
  5
1502D
330
1502C
100
AcDbEntity
  8
0
 48
3.0
100
AcDbBlockBegin
  2
*D20
 70
     1
 10
0.0
 20
0.0
 30
0.0
  3
*D20
  1

  0
LINE
  5
1502E
330
1502C
100
AcDbEntity
  8
2寸法線
 62
     0
440
 16777216
 48
3.0
370
    -2
100
AcDbLine
 10
3052.033172719661
 20
71.2204892445917
 30
0.0
 11
3025.921995935993
 21
71.22048924459171
 31
0.0
  0
LINE
  5
1502F
330
1502C
100
AcDbEntity
  8
2寸法線
 62
     0
440
 16777216
 48
3.0
370
    -2
100
AcDbLine
 10
3043.959124884418
 20
100.2204884697313
 30
0.0
 11
3025.921995935993
 21
100.2204884697313
 31
0.0
  0
LINE
  5
15030
330
1502C
100
AcDbEntity
  8
2寸法線
 62
     0
440
 16777216
 48
3.0
370
    -2
100
AcDbLine
 10
3026.921995935993
 20
72.72048924459172
 30
0.0
 11
3026.921995935993
 21
98.72048846973134
 31
0.0
  0
INSERT
  5
15031
330
1502C
100
AcDbEntity
  8
2寸法線
 62
     0
440
 16777216
 48
3.0
370
    -2
100
AcDbBlockReference
  2
1
 10
3026.921995935993
 20
71.22048924459171
 30
0.0
 41
1.5
 42
1.5
 43
1.5
 50
270.0
  0
INSERT
  5
15032
330
1502C
100
AcDbEntity
  8
2寸法線
 62
     0
440
 16777216
 48
3.0
370
    -2
100
AcDbBlockReference
  2
1
 10
3026.921995935993
 20
100.2204884697313
 30
0.0
 41
1.5
 42
1.5
 43
1.5
 50
90.0
  0
MTEXT
  5
15033
330
1502C
100
AcDbEntity
  8
2寸法線
 62
     1
440
 16777216
 48
3.0
100
AcDbMText
 10
3024.171995935994
 20
85.72048885716201
 30
0.0
 40
3.5
 41
0.0
 46
0.0
 71
     5
 72
     1
  1
\A1;29
  7
KANJI
 11
0.0000000000000001
 21
1.0
 31
0.0
 73
     1
 44
1.0
  0
POINT
  5
15034
330
1502C
100
AcDbEntity
  8
DEFPOINTS
 62
     0
440
 16777216
 48
3.0
100
AcDbPoint
 10
3054.033172719661
 20
71.2204892445917
 30
0.0
  0
POINT
  5
15035
330
1502C
100
AcDbEntity
  8
DEFPOINTS
 62
     0
440
 16777216
 48
3.0
100
AcDbPoint
 10
3045.959124884418
 20
100.2204884697313
 30
0.0
  0
POINT
  5
15036
330
1502C
100
AcDbEntity
  8
DEFPOINTS
 62
     0
440
 16777216
 48
3.0
100
AcDbPoint
 10
3026.921995935993
 20
100.2204884697313
 30
0.0
  0
ENDBLK
  5
15037
330
1502C
100
AcDbEntity
  8
0
 48
3.0
100
AcDbBlockEnd
  0
BLOCK
  5
15348
330
15347
100
AcDbEntity
  8
0
 48
3.0
100
AcDbBlockBegin
  2
*D22
 70
     1
 10
0.0
 20
0.0
 30
0.0
  3
*D22
  1

  0
LINE
  5
1541C
330
15347
100
AcDbEntity
  8
2寸法線
 62
     0
440
 16777216
 48
3.0
370
    -2
100
AcDbLine
 10
808.3758466399531
 20
161.0893153675303
 30
0.0
 11
808.3758466399531
 21
127.9024497737518
 31
0.0
  0
LINE
  5
1541D
330
15347
100
AcDbEntity
  8
2寸法線
 62
     0
440
 16777216
 48
3.0
370
    -2
100
AcDbLine
 10
888.8758458650928
 20
161.0893153675303
 30
0.0
 11
888.8758458650928
 21
127.9024497737518
 31
0.0
  0
LINE
  5
1541E
330
15347
100
AcDbEntity
  8
2寸法線
 62
     0
440
 16777216
 48
3.0
370
    -2
100
AcDbLine
 10
809.875846639953
 20
128.9024497737518
 30
0.0
 11
887.3758458650927
 21
128.9024497737518
 31
0.0
  0
INSERT
  5
1541F
330
15347
100
AcDbEntity
  8
2寸法線
 62
     0
440
 16777216
 48
3.0
370
    -2
100
AcDbBlockReference
  2
1
 10
808.3758466399531
 20
128.9024497737518
 30
0.0
 41
1.5
 42
1.5
 43
1.5
 50
180.0
  0
INSERT
  5
15420
330
15347
100
AcDbEntity
  8
2寸法線
 62
     0
440
 16777216
 48
3.0
370
    -2
100
AcDbBlockReference
  2
1
 10
888.8758458650928
 20
128.9024497737518
 30
0.0
 41
1.5
 42
1.5
 43
1.5
  0
MTEXT
  5
15421
330
15347
100
AcDbEntity
  8
2寸法線
 62
     1
440
 16777216
 48
3.0
100
AcDbMText
 10
848.6258462525229
 20
131.6524497737519
 30
0.0
 40
3.5
 41
0.0
 46
0.0
 71
     5
 72
     1
  1
\A1;80.5（開口）
  7
KANJI
 73
     1
 44
1.0
  0
POINT
  5
15422
330
15347
100
AcDbEntity
  8
DEFPOINTS
 62
     0
440
 16777216
 48
3.0
100
AcDbPoint
 10
808.3758466399531
 20
163.0893153675303
 30
0.0
  0
POINT
  5
15423
330
15347
100
AcDbEntity
  8
DEFPOINTS
 62
     0
440
 16777216
 48
3.0
100
AcDbPoint
 10
888.8758458650928
 20
163.0893153675303
 30
0.0
  0
POINT
  5
15424
330
15347
100
AcDbEntity
  8
DEFPOINTS
 62
     0
440
 16777216
 48
3.0
100
AcDbPoint
 10
888.8758458650928
 20
128.9024497737518
 30
0.0
  0
ENDBLK
  5
15349
330
15347
100
AcDbEntity
  8
0
 48
3.0
100
AcDbBlockEnd
  0
BLOCK
  5
15354
330
15353
100
AcDbEntity
  8
0
 48
3.0
100
AcDbBlockBegin
  2
*D23
 70
     1
 10
0.0
 20
0.0
 30
0.0
  3
*D23
  1

  0
LINE
  5
15425
330
15353
100
AcDbEntity
  8
2寸法線
 62
     0
440
 16777216
 48
3.0
370
    -2
100
AcDbLine
 10
826.3758452690467
 20
220.689315948676
 30
0.0
 11
794.8930834619202
 21
220.689315948676
 31
0.0
  0
LINE
  5
15426
330
15353
100
AcDbEntity
  8
2寸法線
 62
     0
440
 16777216
 48
3.0
370
    -2
100
AcDbLine
 10
804.3758462525234
 20
230.6893151738157
 30
0.0
 11
794.8930834619202
 21
230.6893151738157
 31
0.0
  0
LINE
  5
15427
330
15353
100
AcDbEntity
  8
2寸法線
 62
     0
440
 16777216
 48
3.0
370
    -2
100
AcDbLine
 10
795.8930834619202
 20
222.189315948676
 30
0.0
 11
795.8930834619202
 21
229.1893151738157
 31
0.0
  0
INSERT
  5
15428
330
15353
100
AcDbEntity
  8
2寸法線
 62
     0
440
 16777216
 48
3.0
370
    -2
100
AcDbBlockReference
  2
1
 10
795.8930834619202
 20
220.689315948676
 30
0.0
 41
1.5
 42
1.5
 43
1.5
 50
270.0
  0
INSERT
  5
15429
330
15353
100
AcDbEntity
  8
2寸法線
 62
     0
440
 16777216
 48
3.0
370
    -2
100
AcDbBlockReference
  2
1
 10
795.8930834619202
 20
230.6893151738157
 30
0.0
 41
1.5
 42
1.5
 43
1.5
 50
90.0
  0
MTEXT
  5
1542A
330
15353
100
AcDbEntity
  8
2寸法線
 62
     1
440
 16777216
 48
3.0
100
AcDbMText
 10
793.14308346192
 20
225.6893155612463
 30
0.0
 40
3.5
 41
0.0
 46
0.0
 71
     5
 72
     1
  1
\A1;10
  7
KANJI
 11
0.0000000000000001
 21
1.0
 31
0.0
 73
     1
 44
1.0
  0
POINT
  5
1542B
330
15353
100
AcDbEntity
  8
DEFPOINTS
 62
     0
440
 16777216
 48
3.0
100
AcDbPoint
 10
828.3758452690467
 20
220.689315948676
 30
0.0
  0
POINT
  5
1542C
330
15353
100
AcDbEntity
  8
DEFPOINTS
 62
     0
440
 16777216
 48
3.0
100
AcDbPoint
 10
806.3758462525234
 20
230.6893151738157
 30
0.0
  0
POINT
  5
1542D
330
15353
100
AcDbEntity
  8
DEFPOINTS
 62
     0
440
 16777216
 48
3.0
100
AcDbPoint
 10
795.8930834619202
 20
230.6893151738157
 30
0.0
  0
ENDBLK
  5
15355
330
15353
100
AcDbEntity
  8
0
 48
3.0
100
AcDbBlockEnd
  0
BLOCK
  5
15360
330
1535F
100
AcDbEntity
  8
0
 48
3.0
100
AcDbBlockBegin
  2
*D24
 70
     1
 10
0.0
 20
0.0
 30
0.0
  3
*D24
  1

  0
LINE
  5
1542E
330
1535F
100
AcDbEntity
  8
2寸法線
 62
     0
440
 16777216
 48
3.0
370
    -2
100
AcDbLine
 10
812.4498940877669
 20
201.689315948676
 30
0.0
 11
786.3387173040989
 21
201.689315948676
 31
0.0
  0
LINE
  5
1542F
330
1535F
100
AcDbEntity
  8
2寸法線
 62
     0
440
 16777216
 48
3.0
370
    -2
100
AcDbLine
 10
804.3758462525234
 20
230.6893151738157
 30
0.0
 11
786.3387173040989
 21
230.6893151738157
 31
0.0
  0
LINE
  5
15430
330
1535F
100
AcDbEntity
  8
2寸法線
 62
     0
440
 16777216
 48
3.0
370
    -2
100
AcDbLine
 10
787.3387173040989
 20
203.189315948676
 30
0.0
 11
787.3387173040989
 21
229.1893151738157
 31
0.0
  0
INSERT
  5
15431
330
1535F
100
AcDbEntity
  8
2寸法線
 62
     0
440
 16777216
 48
3.0
370
    -2
100
AcDbBlockReference
  2
1
 10
787.3387173040989
 20
201.689315948676
 30
0.0
 41
1.5
 42
1.5
 43
1.5
 50
270.0
  0
INSERT
  5
15432
330
1535F
100
AcDbEntity
  8
2寸法線
 62
     0
440
 16777216
 48
3.0
370
    -2
100
AcDbBlockReference
  2
1
 10
787.3387173040989
 20
230.6893151738157
 30
0.0
 41
1.5
 42
1.5
 43
1.5
 50
90.0
  0
MTEXT
  5
15433
330
1535F
100
AcDbEntity
  8
2寸法線
 62
     1
440
 16777216
 48
3.0
100
AcDbMText
 10
784.5887173040987
 20
216.1893155612462
 30
0.0
 40
3.5
 41
0.0
 46
0.0
 71
     5
 72
     1
  1
\A1;29
  7
KANJI
 11
0.0000000000000001
 21
1.0
 31
0.0
 73
     1
 44
1.0
  0
POINT
  5
15434
330
1535F
100
AcDbEntity
  8
DEFPOINTS
 62
     0
440
 16777216
 48
3.0
100
AcDbPoint
 10
814.4498940877669
 20
201.689315948676
 30
0.0
  0
POINT
  5
15435
330
1535F
100
AcDbEntity
  8
DEFPOINTS
 62
     0
440
 16777216
 48
3.0
100
AcDbPoint
 10
806.3758462525234
 20
230.6893151738157
 30
0.0
  0
POINT
  5
15436
330
1535F
100
AcDbEntity
  8
DEFPOINTS
 62
     0
440
 16777216
 48
3.0
100
AcDbPoint
 10
787.3387173040989
 20
230.6893151738157
 30
0.0
  0
ENDBLK
  5
15361
330
1535F
100
AcDbEntity
  8
0
 48
3.0
100
AcDbBlockEnd
  0
BLOCK
  5
1536C
330
1536B
100
AcDbEntity
  8
0
 48
3.0
100
AcDbBlockBegin
  2
*D25
 70
     1
 10
0.0
 20
0.0
 30
0.0
  3
*D25
  1

  0
LINE
  5
153EF
330
1536B
100
AcDbEntity
  8
2寸法線
 62
     0
440
 16777216
 48
3.0
370
    -2
100
AcDbLine
 10
543.6254320577872
 20
138.655611848888
 30
0.0
 11
543.6254320577872
 21
129.4935061358411
 31
0.0
  0
LINE
  5
153F0
330
1536B
100
AcDbEntity
  8
2寸法線
 62
     0
440
 16777216
 48
3.0
370
    -2
100
AcDbLine
 10
632.1254320577873
 20
138.655611848888
 30
0.0
 11
632.1254320577873
 21
129.4935061358411
 31
0.0
  0
LINE
  5
153F1
330
1536B
100
AcDbEntity
  8
2寸法線
 62
     0
440
 16777216
 48
3.0
370
    -2
100
AcDbLine
 10
545.1254320577873
 20
130.4935061358411
 30
0.0
 11
630.6254320577872
 21
130.4935061358411
 31
0.0
  0
INSERT
  5
153F2
330
1536B
100
AcDbEntity
  8
2寸法線
 62
     0
440
 16777216
 48
3.0
370
    -2
100
AcDbBlockReference
  2
1
 10
543.6254320577872
 20
130.4935061358411
 30
0.0
 41
1.5
 42
1.5
 43
1.5
 50
180.0
  0
INSERT
  5
153F3
330
1536B
100
AcDbEntity
  8
2寸法線
 62
     0
440
 16777216
 48
3.0
370
    -2
100
AcDbBlockReference
  2
1
 10
632.1254320577873
 20
130.4935061358411
 30
0.0
 41
1.5
 42
1.5
 43
1.5
  0
MTEXT
  5
153F4
330
1536B
100
AcDbEntity
  8
2寸法線
 62
     1
440
 16777216
 48
3.0
100
AcDbMText
 10
587.8754320577873
 20
133.2435061358411
 30
0.0
 40
3.5
 41
0.0
 46
0.0
 71
     5
 72
     1
  1
\A1;88.5
  7
KANJI
 73
     1
 44
1.0
  0
POINT
  5
153F5
330
1536B
100
AcDbEntity
  8
DEFPOINTS
 62
     0
440
 16777216
 48
3.0
100
AcDbPoint
 10
543.6254320577872
 20
140.655611848888
 30
0.0
  0
POINT
  5
153F6
330
1536B
100
AcDbEntity
  8
DEFPOINTS
 62
     0
440
 16777216
 48
3.0
100
AcDbPoint
 10
632.1254320577873
 20
140.655611848888
 30
0.0
  0
POINT
  5
153F7
330
1536B
100
AcDbEntity
  8
DEFPOINTS
 62
     0
440
 16777216
 48
3.0
100
AcDbPoint
 10
632.1254320577873
 20
130.4935061358411
 30
0.0
  0
ENDBLK
  5
1536D
330
1536B
100
AcDbEntity
  8
0
 48
3.0
100
AcDbBlockEnd
  0
BLOCK
  5
15378
330
15377
100
AcDbEntity
  8
0
 48
3.0
100
AcDbBlockBegin
  2
*D26
 70
     1
 10
0.0
 20
0.0
 30
0.0
  3
*D26
  1

  0
LINE
  5
153F8
330
15377
100
AcDbEntity
  8
2寸法線
 62
     0
440
 16777216
 48
3.0
370
    -2
100
AcDbLine
 10
589.8754320586784
 20
185.7556118488892
 30
0.0
 11
644.114907852554
 21
185.7556118488892
 31
0.0
  0
LINE
  5
153F9
330
15377
100
AcDbEntity
  8
2寸法線
 62
     0
440
 16777216
 48
3.0
370
    -2
100
AcDbLine
 10
634.1254320577875
 20
140.6556118488881
 30
0.0
 11
644.114907852554
 21
140.6556118488881
 31
0.0
  0
LINE
  5
153FA
330
15377
100
AcDbEntity
  8
2寸法線
 62
     0
440
 16777216
 48
3.0
370
    -2
100
AcDbLine
 10
643.1149078525541
 20
184.2556118488892
 30
0.0
 11
643.1149078525541
 21
142.1556118488881
 31
0.0
  0
INSERT
  5
153FB
330
15377
100
AcDbEntity
  8
2寸法線
 62
     0
440
 16777216
 48
3.0
370
    -2
100
AcDbBlockReference
  2
1
 10
643.1149078525541
 20
185.7556118488892
 30
0.0
 41
1.5
 42
1.5
 43
1.5
 50
90.0
  0
INSERT
  5
153FC
330
15377
100
AcDbEntity
  8
2寸法線
 62
     0
440
 16777216
 48
3.0
370
    -2
100
AcDbBlockReference
  2
1
 10
643.1149078525541
 20
140.6556118488881
 30
0.0
 41
1.5
 42
1.5
 43
1.5
 50
270.0
  0
MTEXT
  5
153FD
330
15377
100
AcDbEntity
  8
2寸法線
 62
     1
440
 16777216
 48
3.0
100
AcDbMText
 10
640.3649078525539
 20
163.2056118488885
 30
0.0
 40
3.5
 41
0.0
 46
0.0
 71
     5
 72
     1
  1
\A1;45
  7
KANJI
 11
0.0000000000000001
 21
1.0
 31
0.0
 73
     1
 44
1.0
  0
POINT
  5
153FE
330
15377
100
AcDbEntity
  8
DEFPOINTS
 62
     0
440
 16777216
 48
3.0
100
AcDbPoint
 10
587.8754320586783
 20
185.7556118488892
 30
0.0
  0
POINT
  5
153FF
330
15377
100
AcDbEntity
  8
DEFPOINTS
 62
     0
440
 16777216
 48
3.0
100
AcDbPoint
 10
632.1254320577875
 20
140.6556118488881
 30
0.0
  0
POINT
  5
15400
330
15377
100
AcDbEntity
  8
DEFPOINTS
 62
     0
440
 16777216
 48
3.0
100
AcDbPoint
 10
643.1149078525541
 20
140.6556118488881
 30
0.0
  0
ENDBLK
  5
15379
330
15377
100
AcDbEntity
  8
0
 48
3.0
100
AcDbBlockEnd
  0
BLOCK
  5
15384
330
15383
100
AcDbEntity
  8
0
 48
3.0
100
AcDbBlockBegin
  2
*D27
 70
     1
 10
0.0
 20
0.0
 30
0.0
  3
*D27
  1

  0
LINE
  5
15401
330
15383
100
AcDbEntity
  8
2寸法線
 62
     0
440
 16777216
 48
3.0
370
    -2
100
AcDbLine
 10
667.3749614002859
 20
140.1893151738046
 30
0.0
 11
667.3749614002859
 21
129.4935061358411
 31
0.0
  0
LINE
  5
15402
330
15383
100
AcDbEntity
  8
2寸法線
 62
     0
440
 16777216
 48
3.0
370
    -2
100
AcDbLine
 10
755.8749665870068
 20
141.1893151738155
 30
0.0
 11
755.8749665870068
 21
129.4935061358411
 31
0.0
  0
LINE
  5
15403
330
15383
100
AcDbEntity
  8
2寸法線
 62
     0
440
 16777216
 48
3.0
370
    -2
100
AcDbLine
 10
668.8749614002858
 20
130.4935061358411
 30
0.0
 11
754.3749665870068
 21
130.4935061358411
 31
0.0
  0
INSERT
  5
15404
330
15383
100
AcDbEntity
  8
2寸法線
 62
     0
440
 16777216
 48
3.0
370
    -2
100
AcDbBlockReference
  2
1
 10
667.3749614002859
 20
130.4935061358411
 30
0.0
 41
1.5
 42
1.5
 43
1.5
 50
180.0
  0
INSERT
  5
15405
330
15383
100
AcDbEntity
  8
2寸法線
 62
     0
440
 16777216
 48
3.0
370
    -2
100
AcDbBlockReference
  2
1
 10
755.8749665870068
 20
130.4935061358411
 30
0.0
 41
1.5
 42
1.5
 43
1.5
  0
MTEXT
  5
15406
330
15383
100
AcDbEntity
  8
2寸法線
 62
     1
440
 16777216
 48
3.0
100
AcDbMText
 10
711.6249639936463
 20
133.2435061358411
 30
0.0
 40
3.5
 41
0.0
 46
0.0
 71
     5
 72
     1
  1
\A1;88.5
  7
KANJI
 73
     1
 44
1.0
  0
POINT
  5
15407
330
15383
100
AcDbEntity
  8
DEFPOINTS
 62
     0
440
 16777216
 48
3.0
100
AcDbPoint
 10
667.3749614002859
 20
142.1893151738046
 30
0.0
  0
POINT
  5
15408
330
15383
100
AcDbEntity
  8
DEFPOINTS
 62
     0
440
 16777216
 48
3.0
100
AcDbPoint
 10
755.8749665870068
 20
143.1893151738155
 30
0.0
  0
POINT
  5
15409
330
15383
100
AcDbEntity
  8
DEFPOINTS
 62
     0
440
 16777216
 48
3.0
100
AcDbPoint
 10
755.8749665870068
 20
130.4935061358411
 30
0.0
  0
ENDBLK
  5
15385
330
15383
100
AcDbEntity
  8
0
 48
3.0
100
AcDbBlockEnd
  0
BLOCK
  5
15390
330
1538F
100
AcDbEntity
  8
0
 48
3.0
100
AcDbBlockBegin
  2
*D28
 70
     1
 10
0.0
 20
0.0
 30
0.0
  3
*D28
  1

  0
LINE
  5
1540A
330
1538F
100
AcDbEntity
  8
2寸法線
 62
     0
440
 16777216
 48
3.0
370
    -2
100
AcDbLine
 10
757.874966587007
 20
230.6893203605257
 30
0.0
 11
770.4886057824912
 21
230.6893203605257
 31
0.0
  0
LINE
  5
1540B
330
1538F
100
AcDbEntity
  8
2寸法線
 62
     0
440
 16777216
 48
3.0
370
    -2
100
AcDbLine
 10
756.874966587007
 20
142.1893151738156
 30
0.0
 11
770.4886057824912
 21
142.1893151738156
 31
0.0
  0
LINE
  5
1540C
330
1538F
100
AcDbEntity
  8
2寸法線
 62
     0
440
 16777216
 48
3.0
370
    -2
100
AcDbLine
 10
769.4886057824913
 20
229.1893203605257
 30
0.0
 11
769.4886057824913
 21
143.6893151738156
 31
0.0
  0
INSERT
  5
1540D
330
1538F
100
AcDbEntity
  8
2寸法線
 62
     0
440
 16777216
 48
3.0
370
    -2
100
AcDbBlockReference
  2
1
 10
769.4886057824913
 20
230.6893203605257
 30
0.0
 41
1.5
 42
1.5
 43
1.5
 50
90.0
  0
INSERT
  5
1540E
330
1538F
100
AcDbEntity
  8
2寸法線
 62
     0
440
 16777216
 48
3.0
370
    -2
100
AcDbBlockReference
  2
1
 10
769.4886057824913
 20
142.1893151738156
 30
0.0
 41
1.5
 42
1.5
 43
1.5
 50
270.0
  0
MTEXT
  5
1540F
330
1538F
100
AcDbEntity
  8
2寸法線
 62
     1
440
 16777216
 48
3.0
100
AcDbMText
 10
766.738605782491
 20
186.439317767171
 30
0.0
 40
3.5
 41
0.0
 46
0.0
 71
     5
 72
     1
  1
\A1;88.5
  7
KANJI
 11
0.0000000000000001
 21
1.0
 31
0.0
 73
     1
 44
1.0
  0
POINT
  5
15410
330
1538F
100
AcDbEntity
  8
DEFPOINTS
 62
     0
440
 16777216
 48
3.0
100
AcDbPoint
 10
755.874966587007
 20
230.6893203605257
 30
0.0
  0
POINT
  5
15411
330
1538F
100
AcDbEntity
  8
DEFPOINTS
 62
     0
440
 16777216
 48
3.0
100
AcDbPoint
 10
754.8749665870071
 20
142.1893151738156
 30
0.0
  0
POINT
  5
15412
330
1538F
100
AcDbEntity
  8
DEFPOINTS
 62
     0
440
 16777216
 48
3.0
100
AcDbPoint
 10
769.4886057824913
 20
142.1893151738156
 30
0.0
  0
ENDBLK
  5
15391
330
1538F
100
AcDbEntity
  8
0
 48
3.0
100
AcDbBlockEnd
  0
BLOCK
  5
1539C
330
1539B
100
AcDbEntity
  8
0
 48
3.0
100
AcDbBlockBegin
  2
*D29
 70
     1
 10
0.0
 20
0.0
 30
0.0
  3
*D29
  1

  0
LINE
  5
15413
330
1539B
100
AcDbEntity
  8
2寸法線
 62
     0
440
 16777216
 48
3.0
370
    -2
100
AcDbLine
 10
826.3758461929187
 20
187.189314562868
 30
0.0
 11
794.8930834619202
 21
187.189314562868
 31
0.0
  0
LINE
  5
15414
330
1539B
100
AcDbEntity
  8
2寸法線
 62
     0
440
 16777216
 48
3.0
370
    -2
100
AcDbLine
 10
826.3758461929187
 20
144.1893162765015
 30
0.0
 11
794.8930834619202
 21
144.1893162765015
 31
0.0
  0
LINE
  5
15415
330
1539B
100
AcDbEntity
  8
2寸法線
 62
     0
440
 16777216
 48
3.0
370
    -2
100
AcDbLine
 10
795.8930834619202
 20
185.689314562868
 30
0.0
 11
795.8930834619202
 21
145.6893162765015
 31
0.0
  0
INSERT
  5
15416
330
1539B
100
AcDbEntity
  8
2寸法線
 62
     0
440
 16777216
 48
3.0
370
    -2
100
AcDbBlockReference
  2
1
 10
795.8930834619202
 20
187.189314562868
 30
0.0
 41
1.5
 42
1.5
 43
1.5
 50
90.0
  0
INSERT
  5
15417
330
1539B
100
AcDbEntity
  8
2寸法線
 62
     0
440
 16777216
 48
3.0
370
    -2
100
AcDbBlockReference
  2
1
 10
795.8930834619202
 20
144.1893162765015
 30
0.0
 41
1.5
 42
1.5
 43
1.5
 50
270.0
  0
MTEXT
  5
15418
330
1539B
100
AcDbEntity
  8
2寸法線
 62
     1
440
 16777216
 48
3.0
100
AcDbMText
 10
793.14308346192
 20
165.6893154196852
 30
0.0
 40
3.5
 41
0.0
 46
0.0
 71
     5
 72
     1
  1
\A1;43（開口）
  7
KANJI
 11
0.0000000000000001
 21
1.0
 31
0.0
 73
     1
 44
1.0
  0
POINT
  5
15419
330
1539B
100
AcDbEntity
  8
DEFPOINTS
 62
     0
440
 16777216
 48
3.0
100
AcDbPoint
 10
828.3758461929187
 20
187.189314562868
 30
0.0
  0
POINT
  5
1541A
330
1539B
100
AcDbEntity
  8
DEFPOINTS
 62
     0
440
 16777216
 48
3.0
100
AcDbPoint
 10
828.3758461929187
 20
144.1893162765015
 30
0.0
  0
POINT
  5
1541B
330
1539B
100
AcDbEntity
  8
DEFPOINTS
 62
     0
440
 16777216
 48
3.0
100
AcDbPoint
 10
795.8930834619202
 20
144.1893162765015
 30
0.0
  0
ENDBLK
  5
1539D
330
1539B
100
AcDbEntity
  8
0
 48
3.0
100
AcDbBlockEnd
  0
ENDSEC
  0
SECTION
  2
ENTITIES
  0
LINE
  5
151C3
330
17
100
AcDbEntity
  8
1外形線
100
AcDbLine
 10
892.8758462525228
 20
143.1893151738155
 30
0.0
 11
892.8758462525228
 21
142.1893151738155
 31
0.0
  0
LINE
  5
151C4
330
17
100
AcDbEntity
  8
1外形線
100
AcDbLine
 10
892.8758462525228
 20
142.1893151738155
 30
0.0
 11
890.8758462525229
 21
142.1893151738155
 31
0.0
  0
LINE
  5
151C5
330
17
100
AcDbEntity
  8
1外形線
100
AcDbLine
 10
890.8758462525229
 20
143.1893151738155
 30
0.0
 11
890.8758462525229
 21
142.1893151738155
 31
0.0
  0
LINE
  5
151C6
330
17
100
AcDbEntity
  8
1外形線
100
AcDbLine
 10
892.8758462525228
 20
219.4912290542876
 30
0.0
 11
892.8758462525228
 21
143.1893151738155
 31
0.0
  0
LINE
  5
151C7
330
17
100
AcDbEntity
  8
1外形線
100
AcDbLine
 10
890.8758462525229
 20
230.6893151738155
 30
0.0
 11
890.8758462525229
 21
143.1893151738155
 31
0.0
  0
LINE
  5
151CB
330
17
100
AcDbEntity
  8
1外形線
100
AcDbLine
 10
890.8758462525229
 20
202.5894675508685
 30
0.0
 11
890.8757385485332
 21
201.1752539925971
 31
0.0
  0
LINE
  5
151CD
330
17
100
AcDbEntity
  8
1外形線
100
AcDbLine
 10
890.8758462525229
 20
195.3894675508696
 30
0.0
 11
890.8757385485332
 21
193.9752539925972
 31
0.0
  0
LINE
  5
151D0
330
17
100
AcDbEntity
  8
1外形線
100
AcDbLine
 10
890.8758462525229
 20
209.7894675508693
 30
0.0
 11
890.8757385485332
 21
208.3752539925978
 31
0.0
  0
LINE
  5
151DB
330
17
100
AcDbEntity
  8
1外形線
100
AcDbLine
 10
890.8758462525229
 20
188.1894675508689
 30
0.0
 11
890.8757385485332
 21
186.7752539925974
 31
0.0
  0
LINE
  5
151DD
330
17
100
AcDbEntity
  8
1外形線
100
AcDbLine
 10
890.8757385485332
 20
201.1752539925971
 30
0.0
 11
890.8758462525229
 21
201.1752539925971
 31
0.0
  0
LINE
  5
151DE
330
17
100
AcDbEntity
  8
1外形線
100
AcDbLine
 10
890.8757385485332
 20
186.7752539925974
 30
0.0
 11
890.8758462525229
 21
186.7752539925974
 31
0.0
  0
LINE
  5
151DF
330
17
100
AcDbEntity
  8
1外形線
100
AcDbLine
 10
890.8757385485332
 20
208.3752539925978
 30
0.0
 11
890.8758462525229
 21
208.3752539925978
 31
0.0
  0
LINE
  5
151E0
330
17
100
AcDbEntity
  8
1外形線
100
AcDbLine
 10
890.8757385485332
 20
193.9752539925972
 30
0.0
 11
890.8758462525229
 21
193.9752539925972
 31
0.0
  0
LINE
  5
151ED
330
17
100
AcDbEntity
  8
1外形線
100
AcDbLine
 10
890.8758462525229
 20
230.6893151738155
 30
0.0
 11
869.1061606407101
 21
230.6893151738155
 31
0.0
  0
LINE
  5
151EE
330
17
100
AcDbEntity
  8
1外形線
100
AcDbLine
 10
869.1061606407101
 20
230.6893151738155
 30
0.0
 11
848.6258462525229
 21
230.6893151738155
 31
0.0
  0
ARC
  5
151EF
330
17
100
AcDbEntity
  8
1外形線
100
AcDbCircle
 10
862.875846252523
 20
219.4912290542876
 30
0.0
 40
30.0
100
AcDbArc
 50
0.0
 51
4.573921259924027
  0
ARC
  5
151F0
330
17
100
AcDbEntity
  8
1外形線
100
AcDbCircle
 10
891.1526513562044
 20
229.6893151738164
 30
0.0
 40
1.0
100
AcDbArc
 50
4.573921259924027
 51
90.0
  0
LINE
  5
151F1
330
17
100
AcDbEntity
  8
1外形線
100
AcDbLine
 10
890.8636480218302
 20
230.6893151738165
 30
0.0
 11
891.1526513562044
 21
230.6893151738165
 31
0.0
  0
LINE
  5
151F2
330
17
100
AcDbEntity
  8
1外形線
 48
3.0
100
AcDbLine
 10
892.1494666347403
 20
229.7690603960988
 30
0.0
 11
892.7803046086065
 21
221.8835857227765
 31
0.0
  0
LINE
  5
151F3
330
17
100
AcDbEntity
  8
1外形線
100
AcDbLine
 10
804.3758462525229
 20
143.1893151738155
 30
0.0
 11
804.3758462525229
 21
142.1893151738155
 31
0.0
  0
LINE
  5
151F4
330
17
100
AcDbEntity
  8
1外形線
100
AcDbLine
 10
804.3758462525229
 20
142.1893151738155
 30
0.0
 11
806.3758462525228
 21
142.1893151738155
 31
0.0
  0
LINE
  5
151F5
330
17
100
AcDbEntity
  8
1外形線
100
AcDbLine
 10
806.3758462525228
 20
143.1893151738155
 30
0.0
 11
806.3758462525228
 21
142.1893151738155
 31
0.0
  0
LINE
  5
151F6
330
17
100
AcDbEntity
  8
1外形線
100
AcDbLine
 10
804.3758462525229
 20
219.4912290542876
 30
0.0
 11
804.3758462525229
 21
143.1893151738155
 31
0.0
  0
LINE
  5
151F7
330
17
100
AcDbEntity
  8
1外形線
100
AcDbLine
 10
806.3758462525228
 20
230.6893151738155
 30
0.0
 11
806.3758462525228
 21
143.1893151738155
 31
0.0
  0
LINE
  5
151FB
330
17
100
AcDbEntity
  8
1外形線
100
AcDbLine
 10
806.3758462525228
 20
202.5894675508685
 30
0.0
 11
806.3759539565126
 21
201.1752539925971
 31
0.0
  0
LINE
  5
151FD
330
17
100
AcDbEntity
  8
1外形線
100
AcDbLine
 10
806.3758462525228
 20
195.3894675508696
 30
0.0
 11
806.3759539565126
 21
193.9752539925972
 31
0.0
  0
LINE
  5
15200
330
17
100
AcDbEntity
  8
1外形線
100
AcDbLine
 10
806.3758462525228
 20
209.7894675508693
 30
0.0
 11
806.3759539565126
 21
208.3752539925978
 31
0.0
  0
LINE
  5
1520B
330
17
100
AcDbEntity
  8
1外形線
100
AcDbLine
 10
806.3758462525228
 20
188.1894675508689
 30
0.0
 11
806.3759539565126
 21
186.7752539925974
 31
0.0
  0
LINE
  5
1520D
330
17
100
AcDbEntity
  8
1外形線
100
AcDbLine
 10
806.3759539565126
 20
201.1752539925971
 30
0.0
 11
806.3758462525228
 21
201.1752539925971
 31
0.0
  0
LINE
  5
1520E
330
17
100
AcDbEntity
  8
1外形線
100
AcDbLine
 10
806.3759539565126
 20
186.7752539925974
 30
0.0
 11
806.3758462525228
 21
186.7752539925974
 31
0.0
  0
LINE
  5
1520F
330
17
100
AcDbEntity
  8
1外形線
100
AcDbLine
 10
806.3759539565126
 20
208.3752539925978
 30
0.0
 11
806.3758462525228
 21
208.3752539925978
 31
0.0
  0
LINE
  5
15210
330
17
100
AcDbEntity
  8
1外形線
100
AcDbLine
 10
806.3759539565126
 20
193.9752539925972
 30
0.0
 11
806.3758462525228
 21
193.9752539925972
 31
0.0
  0
LINE
  5
1521D
330
17
100
AcDbEntity
  8
1外形線
100
AcDbLine
 10
806.3758462525228
 20
230.6893151738155
 30
0.0
 11
828.1455318643356
 21
230.6893151738155
 31
0.0
  0
LINE
  5
1521E
330
17
100
AcDbEntity
  8
1外形線
100
AcDbLine
 10
828.1455318643356
 20
230.6893151738155
 30
0.0
 11
848.6258462525229
 21
230.6893151738155
 31
0.0
  0
ARC
  5
1521F
330
17
100
AcDbEntity
  8
1外形線
100
AcDbCircle
 10
834.3758462525229
 20
219.4912290542876
 30
0.0
 40
30.0
100
AcDbArc
 50
175.426078740076
 51
180.0
  0
ARC
  5
15220
330
17
100
AcDbEntity
  8
1外形線
100
AcDbCircle
 10
806.0990411488418
 20
229.6893151738164
 30
0.0
 40
1.0
100
AcDbArc
 50
90.0
 51
175.426078740076
  0
LINE
  5
15221
330
17
100
AcDbEntity
  8
1外形線
100
AcDbLine
 10
806.3880444832157
 20
230.6893151738165
 30
0.0
 11
806.0990411488418
 21
230.6893151738165
 31
0.0
  0
LINE
  5
15222
330
17
100
AcDbEntity
  8
1外形線
 48
3.0
100
AcDbLine
 10
805.102225870306
 20
229.7690603960988
 30
0.0
 11
804.4713878964394
 21
221.8835857227765
 31
0.0
  0
LINE
  5
15223
330
17
100
AcDbEntity
  8
1外形線
100
AcDbLine
 10
886.3758445239882
 20
149.7893166281689
 30
0.0
 11
886.3758445239882
 21
144.1893149651993
 31
0.0
  0
LINE
  5
15224
330
17
100
AcDbEntity
  8
1外形線
100
AcDbLine
 10
890.8758461929183
 20
182.0177430538866
 30
0.0
 11
890.8758461929183
 21
150.7893167920816
 31
0.0
  0
LINE
  5
15225
330
17
100
AcDbEntity
  8
1外形線
100
AcDbLine
 10
886.3758445239882
 20
182.0177430538866
 30
0.0
 11
890.8758461929183
 21
182.0177430538866
 31
0.0
  0
LINE
  5
15226
330
17
100
AcDbEntity
  8
1外形線
100
AcDbLine
 10
886.3758445239882
 20
217.189317617606
 30
0.0
 11
886.3758445239882
 21
182.0177430538866
 31
0.0
  0
LINE
  5
15227
330
17
100
AcDbEntity
  8
1外形線
100
AcDbLine
 10
886.3758445239882
 20
217.189317617606
 30
0.0
 11
890.8758461929183
 21
217.189317617606
 31
0.0
  0
LINE
  5
15228
330
17
100
AcDbEntity
  8
1外形線
100
AcDbLine
 10
890.8758461929183
 20
219.1893142201412
 30
0.0
 11
890.8758461929183
 21
217.189317617606
 31
0.0
  0
ARC
  5
15229
330
17
100
AcDbEntity
  8
1外形線
100
AcDbCircle
 10
890.375846252523
 20
219.1893159486759
 30
0.0
 40
0.5
100
AcDbArc
 50
0.0
 51
90.0
  0
LINE
  5
1522A
330
17
100
AcDbEntity
  8
1外形線
100
AcDbLine
 10
884.8758452094417
 20
219.6893152334202
 30
0.0
 11
890.3758451796393
 21
219.6893152334202
 31
0.0
  0
LINE
  5
1522B
330
17
100
AcDbEntity
  8
1外形線
100
AcDbLine
 10
884.8758452094417
 20
219.6893152334202
 30
0.0
 11
884.8758452094417
 21
214.1893152632225
 31
0.0
  0
LINE
  5
1522C
330
17
100
AcDbEntity
  8
1外形線
100
AcDbLine
 10
850.6258463475178
 20
214.1893152632225
 30
0.0
 11
867.8758472359996
 21
214.1893152632216
 31
0.0
  0
LINE
  5
1522D
330
17
100
AcDbEntity
  8
1外形線
100
AcDbLine
 10
869.8758472359996
 20
214.1893152632216
 30
0.0
 11
884.8758452094417
 21
214.1893152632225
 31
0.0
  0
ELLIPSE
  5
1522E
330
17
100
AcDbEntity
  8
1外形線
100
AcDbEllipse
 10
850.6258462525229
 20
215.6035295110484
 30
0.0
 11
-0.0000000000000003
 21
-1.414213562372879
 31
0.0
210
0.0
220
0.0
230
-1.0
 40
0.7071067811866555
 41
0.0
 42
1.570796326794896
  0
ELLIPSE
  5
1522F
330
17
100
AcDbEntity
  8
1外形線
100
AcDbEllipse
 10
846.6258462525228
 20
215.6035295110484
 30
0.0
 11
0.0000000000000003
 21
1.414213562373106
 31
0.0
210
0.0
220
0.0
230
-1.0
 40
0.7071067811865418
 41
1.570796326794896
 42
3.141592653589793
  0
LINE
  5
15230
330
17
100
AcDbEntity
  8
1外形線
100
AcDbLine
 10
812.3758472956042
 20
214.1893152632225
 30
0.0
 11
827.3758452690463
 21
214.1893152632216
 31
0.0
  0
LINE
  5
15231
330
17
100
AcDbEntity
  8
1外形線
100
AcDbLine
 10
829.3758452690463
 20
214.1893152632216
 30
0.0
 11
846.625846157528
 21
214.1893152632225
 31
0.0
  0
LINE
  5
15232
330
17
100
AcDbEntity
  8
1外形線
100
AcDbLine
 10
812.3758472956042
 20
214.1893152632225
 30
0.0
 11
812.3758472956042
 21
219.6893152334202
 31
0.0
  0
LINE
  5
15233
330
17
100
AcDbEntity
  8
1外形線
100
AcDbLine
 10
806.8758473254066
 20
219.6893152334202
 30
0.0
 11
812.3758472956042
 21
219.6893152334202
 31
0.0
  0
ARC
  5
15234
330
17
100
AcDbEntity
  8
1外形線
100
AcDbCircle
 10
806.8758462525229
 20
219.1893159486759
 30
0.0
 40
0.5
100
AcDbArc
 50
90.0
 51
180.0
  0
LINE
  5
15235
330
17
100
AcDbEntity
  8
1外形線
100
AcDbLine
 10
806.3758463121276
 20
219.1893142201412
 30
0.0
 11
806.3758463121276
 21
217.189317617606
 31
0.0
  0
LINE
  5
15236
330
17
100
AcDbEntity
  8
1外形線
100
AcDbLine
 10
810.8758479810576
 20
217.189317617606
 30
0.0
 11
806.3758463121276
 21
217.189317617606
 31
0.0
  0
LINE
  5
15237
330
17
100
AcDbEntity
  8
1外形線
100
AcDbLine
 10
810.8758479810576
 20
217.189317617606
 30
0.0
 11
810.8758479810576
 21
182.0177430538866
 31
0.0
  0
LINE
  5
15238
330
17
100
AcDbEntity
  8
1外形線
100
AcDbLine
 10
810.8758479810576
 20
182.0177430538866
 30
0.0
 11
806.3758463121276
 21
182.0177430538866
 31
0.0
  0
LINE
  5
15239
330
17
100
AcDbEntity
  8
1外形線
100
AcDbLine
 10
806.3758463121276
 20
182.0177430538866
 30
0.0
 11
806.3758463121276
 21
150.7893167920816
 31
0.0
  0
LINE
  5
1523A
330
17
100
AcDbEntity
  8
1外形線
100
AcDbLine
 10
810.8758479810576
 20
149.7893166281689
 30
0.0
 11
810.8758479810576
 21
144.1893149651993
 31
0.0
  0
LINE
  5
1523D
330
17
100
AcDbEntity
  8
1外形線
100
AcDbLine
 10
812.3758472956042
 20
219.6893152334202
 30
0.0
 11
815.030299172483
 21
219.6893152334202
 31
0.0
  0
LINE
  5
1523E
330
17
100
AcDbEntity
  8
1外形線
100
AcDbLine
 10
882.2213933325629
 20
219.6893152334202
 30
0.0
 11
884.8758452094417
 21
219.6893152334202
 31
0.0
  0
LINE
  5
15241
330
17
100
AcDbEntity
  8
1外形線
100
AcDbLine
 10
806.3758463121276
 20
189.6177428327906
 30
0.0
 11
806.3758463121276
 21
182.0177430538866
 31
0.0
  0
LINE
  5
15242
330
17
100
AcDbEntity
  8
1外形線
100
AcDbLine
 10
806.3758463121276
 20
149.7893166281689
 30
0.0
 11
810.8758479810576
 21
149.7893166281689
 31
0.0
  0
LINE
  5
15243
330
17
100
AcDbEntity
  8
1外形線
100
AcDbLine
 10
806.3758463121276
 20
150.7893167920816
 30
0.0
 11
806.3758463121276
 21
149.7893166281689
 31
0.0
  0
LINE
  5
15244
330
17
100
AcDbEntity
  8
1外形線
100
AcDbLine
 10
890.8758461929183
 20
189.6177428327906
 30
0.0
 11
890.8758461929183
 21
182.0177430538866
 31
0.0
  0
LINE
  5
15245
330
17
100
AcDbEntity
  8
1外形線
100
AcDbLine
 10
810.8758479810576
 20
142.1893146373737
 30
0.0
 11
886.3758445239882
 21
142.1893146373737
 31
0.0
  0
LINE
  5
15246
330
17
100
AcDbEntity
  8
1外形線
100
AcDbLine
 10
886.3758445239882
 20
142.1893146373737
 30
0.0
 11
886.3758445239882
 21
144.1893149651993
 31
0.0
  0
LINE
  5
15247
330
17
100
AcDbEntity
  8
1外形線
100
AcDbLine
 10
810.8758479810576
 20
144.1893149651993
 30
0.0
 11
810.8758479810576
 21
142.1893146373737
 31
0.0
  0
LINE
  5
15248
330
17
100
AcDbEntity
  8
1外形線
100
AcDbLine
 10
886.3758445239882
 20
149.7893166281689
 30
0.0
 11
890.8758461929183
 21
149.7893166281689
 31
0.0
  0
LINE
  5
15249
330
17
100
AcDbEntity
  8
1外形線
100
AcDbLine
 10
890.8758461929183
 20
149.7893166281689
 30
0.0
 11
890.8758461929183
 21
150.7893167920816
 31
0.0
  0
SPLINE
  5
1524A
330
17
100
AcDbEntity
  8
1外形線
100
AcDbSpline
210
0.0
220
0.0
230
1.0
 70
     8
 71
     3
 72
    10
 73
     6
 74
     0
 42
0.000000001
 43
0.0000000001
 40
0.0
 40
0.0
 40
0.0
 40
0.0
 40
0.5
 40
0.5
 40
1.0
 40
1.0
 40
1.0
 40
1.0
 10
846.3857427661723
 20
214.8135800173874
 30
0.0
 10
846.3186175510472
 20
214.7709203756063
 30
0.0
 10
846.2512719503846
 20
214.7316087156074
 30
0.0
 10
846.1148382452975
 20
214.6604159685864
 30
0.0
 10
846.0445744094004
 20
214.6280660564322
 30
0.0
 10
845.9758462525233
 20
214.6014479830316
 30
0.0
  0
ELLIPSE
  5
1524B
330
17
100
AcDbEntity
  8
1外形線
100
AcDbEllipse
 10
845.9758462525233
 20
216.1035295110492
 30
0.0
 11
-0.0000000000000003
 21
-1.414213562373333
 31
0.0
210
0.0
220
0.0
230
-1.0
 40
0.7071067811864281
 41
4.712388980384699
 42
5.860844703336123
  0
SPLINE
  5
1524D
330
17
100
AcDbEntity
  8
1外形線
100
AcDbSpline
210
0.0
220
0.0
230
1.0
 70
     8
 71
     3
 72
    10
 73
     6
 74
     0
 42
0.000000001
 43
0.0000000001
 40
0.0
 40
0.0
 40
0.0
 40
0.0
 40
0.5
 40
0.5
 40
1.0
 40
1.0
 40
1.0
 40
1.0
 10
850.8659497388745
 20
214.8135800173874
 30
0.0
 10
850.9330749539994
 20
214.7709203756063
 30
0.0
 10
851.0004205546611
 20
214.7316087156074
 30
0.0
 10
851.1368542597484
 20
214.6604159685864
 30
0.0
 10
851.2071180956409
 20
214.6280660564249
 30
0.0
 10
851.2758462525235
 20
214.6014479830316
 30
0.0
  0
ELLIPSE
  5
1524F
330
17
100
AcDbEntity
  8
1外形線
100
AcDbEllipse
 10
851.2758462525235
 20
216.1035295110492
 30
0.0
 11
0.0000000000000003
 21
1.414213562372879
 31
0.0
210
0.0
220
0.0
230
-1.0
 40
0.7071067811866555
 41
3.563933257433171
 42
4.712388980384699
  0
LINE
  5
15250
330
17
100
AcDbEntity
  8
1外形線
100
AcDbLine
 10
846.9758462614636
 20
216.1035296060551
 30
0.0
 11
846.9758462614636
 21
229.6893168725479
 31
0.0
  0
LINE
  5
15251
330
17
100
AcDbEntity
  8
1外形線
100
AcDbLine
 10
850.2758462435823
 20
216.1035296060551
 30
0.0
 11
850.2758462435823
 21
229.6893168725479
 31
0.0
  0
LINE
  5
15252
330
17
100
AcDbEntity
  8
1外形線
100
AcDbLine
 10
827.3758452690463
 20
219.6893152334202
 30
0.0
 11
815.030299172483
 21
219.6893152334202
 31
0.0
  0
LINE
  5
15253
330
17
100
AcDbEntity
  8
1外形線
100
AcDbLine
 10
815.030299172483
 20
219.6889687814224
 30
0.0
 11
815.030299172483
 21
219.6893152334202
 31
0.0
  0
LINE
  5
15254
330
17
100
AcDbEntity
  8
1外形線
100
AcDbLine
 10
846.9758462614636
 20
219.6893152334202
 30
0.0
 11
829.3758452690463
 21
219.6893152334202
 31
0.0
  0
LINE
  5
15255
330
17
100
AcDbEntity
  8
1外形線
100
AcDbLine
 10
867.8758472359996
 20
219.6893152334202
 30
0.0
 11
850.2758462435823
 21
219.6893152334202
 31
0.0
  0
LINE
  5
15256
330
17
100
AcDbEntity
  8
1外形線
100
AcDbLine
 10
882.2213933325629
 20
219.6889687814224
 30
0.0
 11
882.2213933325629
 21
219.6893152334202
 31
0.0
  0
LINE
  5
15257
330
17
100
AcDbEntity
  8
1外形線
100
AcDbLine
 10
882.2213933325629
 20
219.6893152334202
 30
0.0
 11
869.8758472359996
 21
219.6893152334202
 31
0.0
  0
LINE
  5
15258
330
17
100
AcDbEntity
  8
1外形線
100
AcDbLine
 10
806.3758463121276
 20
217.189317617606
 30
0.0
 11
806.3758463121276
 21
189.6177428327906
 31
0.0
  0
LINE
  5
15259
330
17
100
AcDbEntity
  8
1外形線
100
AcDbLine
 10
890.8758461929183
 20
217.189317617606
 30
0.0
 11
890.8758461929183
 21
189.6177428327906
 31
0.0
  0
LINE
  5
1525A
330
17
100
AcDbEntity
  8
1外形線
100
AcDbLine
 10
810.8758479810576
 20
142.1893146373737
 30
0.0
 11
806.3758463121276
 21
142.1893146373737
 31
0.0
  0
LINE
  5
1525B
330
17
100
AcDbEntity
  8
1外形線
100
AcDbLine
 10
806.3758463121276
 20
142.1893146373737
 30
0.0
 11
806.3758463121276
 21
149.7893166281689
 31
0.0
  0
LINE
  5
1525C
330
17
100
AcDbEntity
  8
1外形線
100
AcDbLine
 10
886.3758445239882
 20
142.1893146373737
 30
0.0
 11
890.8758461929183
 21
142.1893146373737
 31
0.0
  0
LINE
  5
1525D
330
17
100
AcDbEntity
  8
1外形線
100
AcDbLine
 10
890.8758461929183
 20
142.1893146373737
 30
0.0
 11
890.8758461929183
 21
149.7893166281689
 31
0.0
  0
ARC
  5
1525F
330
17
100
AcDbEntity
  8
1外形線
100
AcDbCircle
 10
819.6258462898468
 20
199.2893159486754
 30
0.0
 40
2.100000000000022
100
AcDbArc
 50
180.0
 51
0.0
  0
LINE
  5
15260
330
17
100
AcDbEntity
  8
1外形線
100
AcDbLine
 10
817.5258463647251
 20
199.289316359948
 30
0.0
 11
817.5258463647251
 21
204.0893156566132
 31
0.0
  0
ARC
  5
15261
330
17
100
AcDbEntity
  8
1外形線
100
AcDbCircle
 10
819.6258462898468
 20
204.0893159486756
 30
0.0
 40
2.100000000000022
100
AcDbArc
 50
0.0
 51
180.0
  0
LINE
  5
15262
330
17
100
AcDbEntity
  8
1外形線
100
AcDbLine
 10
821.7258462149684
 20
204.0893156566132
 30
0.0
 11
821.7258462149684
 21
199.289316359948
 31
0.0
  0
ARC
  5
15263
330
17
100
AcDbEntity
  8
1外形線
100
AcDbCircle
 10
819.6258462898468
 20
199.2893159486754
 30
0.0
 40
2.100000000000022
100
AcDbArc
 50
180.0
 51
0.0
  0
LINE
  5
15264
330
17
100
AcDbEntity
  8
1外形線
100
AcDbLine
 10
817.5258463647251
 20
199.289316359948
 30
0.0
 11
817.5258463647251
 21
204.0893156566132
 31
0.0
  0
ARC
  5
15265
330
17
100
AcDbEntity
  8
1外形線
100
AcDbCircle
 10
819.6258462898468
 20
204.0893159486756
 30
0.0
 40
2.100000000000022
100
AcDbArc
 50
0.0
 51
180.0
  0
LINE
  5
15266
330
17
100
AcDbEntity
  8
1外形線
100
AcDbLine
 10
821.7258462149684
 20
204.0893156566132
 30
0.0
 11
821.7258462149684
 21
199.289316359948
 31
0.0
  0
SPLINE
  5
15267
330
17
100
AcDbEntity
  8
1外形線
100
AcDbSpline
210
0.0
220
0.0
230
1.0
 70
     8
 71
     3
 72
    24
 73
    20
 74
     0
 42
0.000000001
 43
0.0000000001
 40
0.0
 40
0.0
 40
0.0
 40
0.0
 40
0.125
 40
0.125
 40
0.2499999999999999
 40
0.2499999999999999
 40
0.3749999999999998
 40
0.3749999999999998
 40
0.4999999999999999
 40
0.4999999999999999
 40
0.5624999999999999
 40
0.5624999999999999
 40
0.625
 40
0.625
 40
0.7500000000000001
 40
0.7500000000000001
 40
0.875
 40
0.875
 40
1.0
 40
1.0
 40
1.0
 40
1.0
 10
808.3758463810337
 20
162.189316276501
 30
0.0
 10
808.3758463810337
 20
161.2539900044804
 30
0.0
 10
808.4411380405454
 20
160.3241042225728
 30
0.0
 10
808.7015838020851
 20
158.4751535712549
 30
0.0
 10
808.8966605227978
 20
157.5599609258016
 30
0.0
 10
809.411938414907
 20
155.7674935356418
 30
0.0
 10
809.7334214598131
 20
154.8866584236512
 30
0.0
 10
810.4934390691241
 20
153.1844105362899
 30
0.0
 10
810.9347791102536
 20
152.3567989752392
 30
0.0
 10
811.6775460637246
 20
151.1718722662573
 30
0.0
 10
811.9387369893011
 20
150.7858459703412
 30
0.0
 10
812.4883967742789
 20
150.0317406476143
 30
0.0
 10
812.7773482329466
 20
149.6631610980795
 30
0.0
 10
813.6790173079653
 20
148.5924766688541
 30
0.0
 10
814.3287231784297
 20
147.9221516645222
 30
0.0
 10
815.7205908914111
 20
146.6742215353525
 30
0.0
 10
816.4564237201512
 20
146.1020578182489
 30
0.0
 10
818.0077318611711
 20
145.0611312420507
 30
0.0
 10
818.8185234377034
 20
144.5959167798329
 30
0.0
 10
819.6580491708273
 20
144.1893159486754
 30
0.0
  0
LINE
  5
15268
330
17
100
AcDbEntity
  8
1外形線
100
AcDbLine
 10
808.3758466399531
 20
167.1893150099027
 30
0.0
 11
808.3758466399531
 21
166.2893138327105
 31
0.0
  0
LINE
  5
15269
330
17
100
AcDbEntity
  8
1外形線
100
AcDbLine
 10
808.3758466399531
 20
163.0893153675303
 30
0.0
 11
808.3758466399531
 21
162.189316052984
 31
0.0
  0
SPLINE
  5
1526A
330
17
100
AcDbEntity
  8
1外形線
100
AcDbSpline
210
0.0
220
0.0
230
1.0
 70
     8
 71
     3
 72
    32
 73
    28
 74
     0
 42
0.000000001
 43
0.0000000001
 40
0.0
 40
0.0
 40
0.0
 40
0.0
 40
0.0625000000000001
 40
0.0625000000000001
 40
0.1250000000000002
 40
0.1250000000000002
 40
0.1875000000000004
 40
0.1875000000000004
 40
0.2500000000000005
 40
0.2500000000000005
 40
0.3750000000000004
 40
0.3750000000000004
 40
0.4375000000000002
 40
0.4375000000000002
 40
0.5
 40
0.5
 40
0.5624999999999999
 40
0.5624999999999999
 40
0.6249999999999996
 40
0.6249999999999996
 40
0.7499999999999995
 40
0.7499999999999995
 40
0.8124999999999996
 40
0.8124999999999996
 40
0.8749999999999998
 40
0.8749999999999998
 40
1.0
 40
1.0
 40
1.0
 40
1.0
 10
828.3758463810336
 20
187.1893147305055
 30
0.0
 10
827.7195808215966
 20
187.1893147305055
 30
0.0
 10
827.066000281421
 20
187.1570916477022
 30
0.0
 10
825.7641556016588
 20
187.028843028642
 30
0.0
 10
825.114148745758
 20
186.932420976983
 30
0.0
 10
823.8295124570049
 20
186.6767405116317
 30
0.0
 10
823.1951263303454
 20
186.5177582677244
 30
0.0
 10
821.9422000346284
 20
186.1375807330843
 30
0.0
 10
821.3232360827541
 20
185.9159968990517
 30
0.0
 10
819.5102490431136
 20
185.1646570662288
 30
0.0
 10
818.348201687675
 20
184.5431988189031
 30
0.0
 10
816.7170574037964
 20
183.4527822988531
 30
0.0
 10
816.189700005345
 20
183.0615272455317
 30
0.0
 10
815.1769887314131
 20
182.2299081482171
 30
0.0
 10
814.692525065142
 20
181.7905144557572
 30
0.0
 10
813.7672321447253
 20
180.8647198705859
 30
0.0
 10
813.3257892888131
 20
180.3773356244002
 30
0.0
 10
812.4959957387627
 20
179.3654576812133
 30
0.0
 10
812.1064871527559
 20
178.8399639548062
 30
0.0
 10
811.0145435725808
 20
177.2044968546125
 30
0.0
 10
810.3956943615431
 20
176.0455570695995
 30
0.0
 10
809.6439879898507
 20
174.2282922816749
 30
0.0
 10
809.4239715793591
 20
173.6122840231575
 30
0.0
 10
809.0446960263353
 20
172.3598774655203
 30
0.0
 10
808.8851970777005
 20
171.7215875428529
 30
0.0
 10
808.5038140024698
 20
169.7989042747687
 30
0.0
 10
808.3758463810337
 20
168.5018458493788
 30
0.0
 10
808.3758463810337
 20
167.1893147305055
 30
0.0
  0
LINE
  5
1526B
330
17
100
AcDbEntity
  8
1外形線
100
AcDbLine
 10
848.6258462525229
 20
187.1893145628679
 30
0.0
 11
828.3758461929183
 21
187.1893145628679
 31
0.0
  0
LINE
  5
1526C
330
17
100
AcDbEntity
  8
1外形線
100
AcDbLine
 10
868.8758463121276
 20
187.1893145628679
 30
0.0
 11
848.6258462525229
 21
187.1893145628679
 31
0.0
  0
SPLINE
  5
1526D
330
17
100
AcDbEntity
  8
1外形線
100
AcDbSpline
210
0.0
220
0.0
230
1.0
 70
     8
 71
     3
 72
    32
 73
    28
 74
     0
 42
0.000000001
 43
0.0000000001
 40
0.0
 40
0.0
 40
0.0
 40
0.0
 40
0.0625000000000001
 40
0.0625000000000001
 40
0.1250000000000001
 40
0.1250000000000001
 40
0.1875000000000002
 40
0.1875000000000002
 40
0.2500000000000002
 40
0.2500000000000002
 40
0.3750000000000001
 40
0.3750000000000001
 40
0.4375000000000002
 40
0.4375000000000002
 40
0.5000000000000004
 40
0.5000000000000004
 40
0.5625000000000004
 40
0.5625000000000004
 40
0.6250000000000005
 40
0.6250000000000005
 40
0.7500000000000007
 40
0.7500000000000007
 40
0.8125000000000005
 40
0.8125000000000005
 40
0.8750000000000005
 40
0.8750000000000005
 40
1.0
 40
1.0
 40
1.0
 40
1.0
 10
888.8758461240122
 20
167.189314730506
 30
0.0
 10
888.8758461240122
 20
167.8455802899431
 30
0.0
 10
888.8436230412098
 20
168.4991608301185
 30
0.0
 10
888.7153744221487
 20
169.8010055098808
 30
0.0
 10
888.6189523704906
 20
170.4510123657807
 30
0.0
 10
888.3632719051393
 20
171.7356486545346
 30
0.0
 10
888.204289661232
 20
172.3700347811942
 30
0.0
 10
887.824112126591
 20
173.6229610769111
 30
0.0
 10
887.6025282925583
 20
174.2419250287854
 30
0.0
 10
886.8511884597355
 20
176.0549120684251
 30
0.0
 10
886.2297302124106
 20
177.2169594238645
 30
0.0
 10
885.1393136923597
 20
178.8481037077432
 30
0.0
 10
884.7480586390384
 20
179.3754611061937
 30
0.0
 10
883.9164395417238
 20
180.3881723801256
 30
0.0
 10
883.477045849264
 20
180.8726360463976
 30
0.0
 10
882.5512512640935
 20
181.7979289668143
 30
0.0
 10
882.0638670179077
 20
182.2393718227264
 30
0.0
 10
881.051989074721
 20
183.0691653727759
 30
0.0
 10
880.5264953483138
 20
183.4586739587836
 30
0.0
 10
878.8910282481202
 20
184.5506175389579
 30
0.0
 10
877.7320884631063
 20
185.1694667499956
 30
0.0
 10
875.9148236751824
 20
185.9211731216879
 30
0.0
 10
875.2988154166651
 20
186.1411895321795
 30
0.0
 10
874.046408859027
 20
186.5204650852043
 30
0.0
 10
873.4081189363605
 20
186.6799640338382
 30
0.0
 10
871.4854356682762
 20
187.0613471090688
 30
0.0
 10
870.1883772428864
 20
187.189314730506
 30
0.0
 10
868.8758461240123
 20
187.189314730506
 30
0.0
  0
LINE
  5
1526E
330
17
100
AcDbEntity
  8
1外形線
100
AcDbLine
 10
888.8758458650928
 20
162.189316052984
 30
0.0
 11
888.8758458650928
 21
163.0893153675303
 31
0.0
  0
LINE
  5
1526F
330
17
100
AcDbEntity
  8
1外形線
100
AcDbLine
 10
888.8758458650928
 20
166.2893138327105
 30
0.0
 11
888.8758458650928
 21
167.1893150099027
 31
0.0
  0
SPLINE
  5
15270
330
17
100
AcDbEntity
  8
1外形線
100
AcDbSpline
210
0.0
220
0.0
230
1.0
 70
     8
 71
     3
 72
    22
 73
    18
 74
     0
 42
0.000000001
 43
0.0000000001
 40
0.0
 40
0.0
 40
0.0
 40
0.0
 40
0.1250000000000003
 40
0.1250000000000003
 40
0.2500000000000005
 40
0.2500000000000005
 40
0.3750000000000008
 40
0.3750000000000008
 40
0.5000000000000011
 40
0.5000000000000011
 40
0.6250000000000009
 40
0.6250000000000009
 40
0.6875000000000007
 40
0.6875000000000007
 40
0.7500000000000004
 40
0.7500000000000004
 40
1.0
 40
1.0
 40
1.0
 40
1.0
 10
877.5936433342184
 20
144.1893159486759
 30
0.0
 10
878.4360059290893
 20
144.5972907345536
 30
0.0
 10
879.2454546536955
 20
145.0619683613
 30
0.0
 10
880.7986585056806
 20
146.104498199235
 30
0.0
 10
881.5373594440016
 20
146.6793670142539
 30
0.0
 10
882.927798038043
 20
147.9269499554617
 30
0.0
 10
883.5806674081778
 20
148.6011048024571
 30
0.0
 10
884.78233287678
 20
150.0297546377493
 30
0.0
 10
885.3351121687083
 20
150.7891486286013
 30
0.0
 10
886.3253609252934
 20
152.3716946536129
 30
0.0
 10
886.766266470653
 20
153.2001389669718
 30
0.0
 10
887.3362169414104
 20
154.4800477311352
 30
0.0
 10
887.5110146849774
 20
154.9127457620167
 30
0.0
 10
887.8302650913202
 20
155.7902548328508
 30
0.0
 10
887.9750325713958
 20
156.2362271001435
 30
0.0
 10
888.6177804013451
 20
158.4816040321517
 30
0.0
 10
888.8758461240122
 20
160.3161790048594
 30
0.0
 10
888.8758461240122
 20
162.1893162765015
 30
0.0
  0
SPLINE
  5
15271
330
17
100
AcDbEntity
  8
1外形線
100
AcDbSpline
210
0.0
220
0.0
230
1.0
 70
     8
 71
     3
 72
     8
 73
     4
 74
     0
 42
0.000000001
 43
0.0000000001
 40
0.0
 40
0.0
 40
0.0
 40
0.0
 40
1.0
 40
1.0
 40
1.0
 40
1.0
 10
837.0936435912399
 20
144.1893159486759
 30
0.0
 10
837.7137927665971
 20
144.4896678738074
 30
0.0
 10
838.3198883331015
 20
144.8226682124328
 30
0.0
 10
838.911500133886
 20
145.1893162765014
 30
0.0
  0
SPLINE
  5
15279
330
17
100
AcDbEntity
  8
1外形線
100
AcDbSpline
210
0.0
220
0.0
230
1.0
 70
     8
 71
     3
 72
    26
 73
    22
 74
     0
 42
0.000000001
 43
0.0000000001
 40
0.0
 40
0.0
 40
0.0
 40
0.0
 40
0.0625000000000001
 40
0.0625000000000001
 40
0.1250000000000002
 40
0.1250000000000002
 40
0.2500000000000002
 40
0.2500000000000002
 40
0.3750000000000002
 40
0.3750000000000002
 40
0.5000000000000001
 40
0.5000000000000001
 40
0.6250000000000001
 40
0.6250000000000001
 40
0.75
 40
0.75
 40
0.875
 40
0.875
 40
0.9375
 40
0.9375
 40
1.0
 40
1.0
 40
1.0
 40
1.0
 10
837.0936435912399
 20
144.1893159486759
 30
0.0
 10
836.7555497034864
 20
144.0255696210221
 30
0.0
 10
836.4104641079848
 20
143.8891098174532
 30
0.0
 10
835.7110429717204
 20
143.6494846733754
 30
0.0
 10
835.3565954643645
 20
143.5468274510627
 30
0.0
 10
834.2821909780832
 20
143.2762967220811
 30
0.0
 10
833.5502447296848
 20
143.1454552773817
 30
0.0
 10
832.0840350819217
 20
142.9485414228285
 30
0.0
 10
831.3468387726343
 20
142.8822386382063
 30
0.0
 10
829.8649327333531
 20
142.7954331424072
 30
0.0
 10
829.1195512053246
 20
142.7751161826637
 30
0.0
 10
827.633608716691
 20
142.7750889312193
 30
0.0
 10
826.8915664717834
 20
142.795251505233
 30
0.0
 10
825.4093731647962
 20
142.8818746360431
 30
0.0
 10
824.6687083916512
 20
142.9484072844672
 30
0.0
 10
823.2008560212117
 20
143.1455278138729
 30
0.0
 10
822.4695560285354
 20
143.2762616653973
 30
0.0
 10
821.3944387382426
 20
143.5470039821758
 30
0.0
 10
821.0398760532598
 20
143.6497234672061
 30
0.0
 10
820.3405550481948
 20
143.8893669449591
 30
0.0
 10
819.9956812477466
 20
144.0257932861951
 30
0.0
 10
819.6580491708273
 20
144.1893159486745
 30
0.0
  0
SPLINE
  5
1527A
330
17
100
AcDbEntity
  8
1外形線
100
AcDbSpline
210
0.0
220
0.0
230
1.0
 70
     8
 71
     3
 72
    26
 73
    22
 74
     0
 42
0.000000001
 43
0.0000000001
 40
0.0
 40
0.0
 40
0.0
 40
0.0
 40
0.0625000000000001
 40
0.0625000000000001
 40
0.1250000000000003
 40
0.1250000000000003
 40
0.2500000000000003
 40
0.2500000000000003
 40
0.3750000000000003
 40
0.3750000000000003
 40
0.5000000000000002
 40
0.5000000000000002
 40
0.6250000000000002
 40
0.6250000000000002
 40
0.7500000000000002
 40
0.7500000000000002
 40
0.8750000000000001
 40
0.8750000000000001
 40
0.9375000000000001
 40
0.9375000000000001
 40
1.0
 40
1.0
 40
1.0
 40
1.0
 10
877.5936433342184
 20
144.1893159486759
 30
0.0
 10
877.2556172377763
 20
144.025602453849
 30
0.0
 10
876.9106021675334
 20
143.8891648570958
 30
0.0
 10
876.2113251204228
 20
143.6495737798756
 30
0.0
 10
875.8569512570639
 20
143.5469280538588
 30
0.0
 10
874.7827711912814
 20
143.2764210000838
 30
0.0
 10
874.0511082824331
 20
143.1455731659076
 30
0.0
 10
872.5832945421352
 20
142.9484401242986
 30
0.0
 10
871.8436886529097
 20
142.8819599886807
 30
0.0
 10
870.3592547645003
 20
142.7951952613299
 30
0.0
 10
869.61599597025
 20
142.7750258061193
 30
0.0
 10
868.1274244122677
 20
142.7751797219604
 30
0.0
 10
867.3828889572869
 20
142.7956192446705
 30
0.0
 10
865.9049051718284
 20
142.8822763683253
 30
0.0
 10
865.1698790606406
 20
142.9483857819856
 30
0.0
 10
863.7086322679579
 20
143.1443485787146
 30
0.0
 10
862.9823822160116
 20
143.2734793240239
 30
0.0
 10
861.9010945194723
 20
143.5451080110675
 30
0.0
 10
861.5438119208219
 20
143.6484621379246
 30
0.0
 10
860.8413948106562
 20
143.8889921771975
 30
0.0
 10
860.4956075731779
 20
144.0258288439332
 30
0.0
 10
860.158048913806
 20
144.1893159486759
 30
0.0
  0
SPLINE
  5
15280
330
17
100
AcDbEntity
  8
1外形線
100
AcDbSpline
210
0.0
220
0.0
230
1.0
 70
     8
 71
     3
 72
     8
 73
     4
 74
     0
 42
0.000000001
 43
0.0000000001
 40
0.0
 40
0.0
 40
0.0
 40
0.0
 40
1.0
 40
1.0
 40
1.0
 40
1.0
 10
858.3401923711599
 20
145.1893162765014
 30
0.0
 10
858.9297886522754
 20
144.8239173193366
 30
0.0
 10
859.5357938444877
 20
144.4906878047055
 30
0.0
 10
860.158048913806
 20
144.1893159486759
 30
0.0
  0
LINE
  5
15281
330
17
100
AcDbEntity
  8
1外形線
100
AcDbLine
 10
838.9114998734813
 20
145.1893169917572
 30
0.0
 11
848.6258462525229
 21
145.1893169917572
 31
0.0
  0
LINE
  5
15283
330
17
100
AcDbEntity
  8
1外形線
100
AcDbLine
 10
848.6258462525229
 20
145.1893169917572
 30
0.0
 11
858.3401926315646
 21
145.1893169917572
 31
0.0
  0
SPLINE
  5
15285
330
17
100
AcDbEntity
  8
1外形線
100
AcDbSpline
210
0.0
220
0.0
230
1.0
 70
     8
 71
     3
 72
    38
 73
    34
 74
     0
 42
0.000000001
 43
0.0000000001
 40
0.0
 40
0.0
 40
0.0
 40
0.0
 40
0.0625
 40
0.0625
 40
0.125
 40
0.125
 40
0.1875
 40
0.1875
 40
0.25
 40
0.25
 40
0.3125
 40
0.3125
 40
0.375
 40
0.375
 40
0.4375
 40
0.4375
 40
0.5
 40
0.5
 40
0.5625
 40
0.5625
 40
0.625
 40
0.625
 40
0.6875
 40
0.6875
 40
0.75
 40
0.75
 40
0.8125
 40
0.8125
 40
0.875
 40
0.875
 40
0.9375
 40
0.9375
 40
1.0
 40
1.0
 40
1.0
 40
1.0
 10
810.8758463810335
 20
162.189316276501
 30
0.0
 10
810.8758463810335
 20
161.3981485164269
 30
0.0
 10
810.9292535436479
 20
160.6114309593687
 30
0.0
 10
811.1422115674249
 20
159.0468403706756
 30
0.0
 10
811.3018927048761
 20
158.2711514191616
 30
0.0
 10
811.7235146575167
 20
156.7513241695907
 30
0.0
 10
811.986809873214
 20
156.0029464790697
 30
0.0
 10
812.6095462276717
 20
154.5541693624392
 30
0.0
 10
812.9710787256026
 20
153.8487052996516
 30
0.0
 10
813.7842339835733
 20
152.4961482893451
 30
0.0
 10
814.2360675045029
 20
151.8480648214055
 30
0.0
 10
815.2259573251122
 20
150.6154126069669
 30
0.0
 10
815.7600756393668
 20
150.0354491940408
 30
0.0
 10
816.9065327416792
 20
148.9481304872089
 30
0.0
 10
817.5159358191541
 20
148.4439665751207
 30
0.0
 10
818.7966813793956
 20
147.5226229308056
 30
0.0
 10
819.4703273775568
 20
147.104112811715
 30
0.0
 10
820.8629368850225
 20
146.3644048012339
 30
0.0
 10
821.5869792742132
 20
146.0405255589449
 30
0.0
 10
823.0672908243095
 20
145.4952635590008
 30
0.0
 10
823.8265644364329
 20
145.2725224466122
 30
0.0
 10
825.3690326149545
 20
144.9314789070468
 30
0.0
 10
826.1486321220854
 20
144.8136242259671
 30
0.0
 10
827.7246134032148
 20
144.6835728418774
 30
0.0
 10
828.514131439385
 20
144.6720755034076
 30
0.0
 10
830.0903315359283
 20
144.755630845315
 30
0.0
 10
830.8770702352985
 20
144.8510459118989
 30
0.0
 10
832.4262049935123
 20
145.1462433400994
 30
0.0
 10
833.1937248391341
 20
145.3471104916194
 30
0.0
 10
834.6889882879223
 20
145.8486893668374
 30
0.0
 10
835.4214136829169
 20
146.1508328128281
 30
0.0
 10
836.8366057896974
 20
146.8501989404682
 30
0.0
 10
837.5182663509622
 20
147.2463546049299
 30
0.0
 10
838.1738053521667
 20
147.6893162765015
 30
0.0
  0
LINE
  5
15286
330
17
100
AcDbEntity
  8
1外形線
100
AcDbLine
 10
838.1738057813864
 20
147.6893146075714
 30
0.0
 11
848.6258462525229
 21
147.6893146075714
 31
0.0
  0
LINE
  5
15287
330
17
100
AcDbEntity
  8
1外形線
100
AcDbLine
 10
848.6258462525229
 20
147.6893146075714
 30
0.0
 11
859.0778867236595
 21
147.6893146075714
 31
0.0
  0
SPLINE
  5
15288
330
17
100
AcDbEntity
  8
1外形線
100
AcDbSpline
210
0.0
220
0.0
230
1.0
 70
     8
 71
     3
 72
    38
 73
    34
 74
     0
 42
0.000000001
 43
0.0000000001
 40
0.0
 40
0.0
 40
0.0
 40
0.0
 40
0.0624999999999999
 40
0.0624999999999999
 40
0.1249999999999998
 40
0.1249999999999998
 40
0.1874999999999998
 40
0.1874999999999998
 40
0.2499999999999998
 40
0.2499999999999998
 40
0.3124999999999998
 40
0.3124999999999998
 40
0.3749999999999998
 40
0.3749999999999998
 40
0.4375
 40
0.4375
 40
0.5
 40
0.5
 40
0.5625
 40
0.5625
 40
0.625
 40
0.625
 40
0.6875
 40
0.6875
 40
0.75
 40
0.75
 40
0.8125
 40
0.8125
 40
0.875
 40
0.875
 40
0.9375
 40
0.9375
 40
1.0
 40
1.0
 40
1.0
 40
1.0
 10
859.0778871528801
 20
147.6893162765015
 30
0.0
 10
859.7334261540845
 20
147.2463546049299
 30
0.0
 10
860.4151796263932
 20
146.8501361770437
 30
0.0
 10
861.8307863415694
 20
146.1505988599079
 30
0.0
 10
862.5629028575785
 20
145.8486107440081
 30
0.0
 10
864.058247412554
 20
145.3470286456528
 30
0.0
 10
864.8257463973113
 20
145.1461833154231
 30
0.0
 10
866.374821451137
 20
144.8510186521413
 30
0.0
 10
867.1617648506735
 20
144.7555965536963
 30
0.0
 10
868.7377270509132
 20
144.6720795906946
 30
0.0
 10
869.5276845700545
 20
144.6836047806797
 30
0.0
 10
871.1032478247771
 20
144.8136577278843
 30
0.0
 10
871.8828328999897
 20
144.9315010325741
 30
0.0
 10
873.4256363799714
 20
145.2726509700293
 30
0.0
 10
874.1845668414153
 20
145.4953119584867
 30
0.0
 10
875.6650340010883
 20
146.0406561526694
 30
0.0
 10
876.3889627198222
 20
146.3645031239544
 30
0.0
 10
877.7815625466191
 20
147.104229359437
 30
0.0
 10
878.4552989258109
 20
147.5228155946203
 30
0.0
 10
879.73588925904
 20
148.4440763244735
 30
0.0
 10
880.3455508492733
 20
148.9484797013543
 30
0.0
 10
881.491732063624
 20
150.0355801573847
 30
0.0
 10
882.0258678842209
 20
150.6155491587348
 30
0.0
 10
883.0159904557104
 20
151.8485486130736
 30
0.0
 10
883.4675548404639
 20
152.4962835315806
 30
0.0
 10
884.280811492953
 20
153.8490591436781
 30
0.0
 10
884.6422352090668
 20
154.5543496607339
 30
0.0
 10
885.2649778429412
 20
156.0031945912475
 30
0.0
 10
885.5282666577933
 20
156.7516017838612
 30
0.0
 10
885.9498458710277
 20
158.2713600265821
 30
0.0
 10
886.1095712426113
 20
159.0473918731319
 30
0.0
 10
886.3224389767665
 20
160.6115430830028
 30
0.0
 10
886.3758461240122
 20
161.3981485164273
 30
0.0
 10
886.3758461240122
 20
162.1893162765015
 30
0.0
  0
LINE
  5
15289
330
17
100
AcDbEntity
  8
1外形線
100
AcDbLine
 10
886.3758445239882
 20
162.189316052984
 30
0.0
 11
886.3758445239882
 21
163.0893153675303
 31
0.0
  0
LINE
  5
1528A
330
17
100
AcDbEntity
  8
1外形線
100
AcDbLine
 10
886.3758445239882
 20
163.0893153675303
 30
0.0
 11
888.8758458650928
 21
163.0893153675303
 31
0.0
  0
LINE
  5
1528B
330
17
100
AcDbEntity
  8
1外形線
100
AcDbLine
 10
888.8758458650928
 20
166.2893138327105
 30
0.0
 11
886.3758445239882
 21
166.2893138327105
 31
0.0
  0
LINE
  5
1528C
330
17
100
AcDbEntity
  8
1外形線
100
AcDbLine
 10
886.3758445239882
 20
166.2893138327105
 30
0.0
 11
886.3758445239882
 21
167.1893150099027
 31
0.0
  0
SPLINE
  5
1528D
330
17
100
AcDbEntity
  8
1外形線
100
AcDbSpline
210
0.0
220
0.0
230
1.0
 70
     8
 71
     3
 72
    32
 73
    28
 74
     0
 42
0.000000001
 43
0.0000000001
 40
0.0
 40
0.0
 40
0.0
 40
0.0
 40
0.0624999999999999
 40
0.0624999999999999
 40
0.1249999999999997
 40
0.1249999999999997
 40
0.1874999999999996
 40
0.1874999999999996
 40
0.2499999999999995
 40
0.2499999999999995
 40
0.3749999999999995
 40
0.3749999999999995
 40
0.4374999999999995
 40
0.4374999999999995
 40
0.4999999999999996
 40
0.4999999999999996
 40
0.5624999999999997
 40
0.5624999999999997
 40
0.6249999999999997
 40
0.6249999999999997
 40
0.7499999999999999
 40
0.7499999999999999
 40
0.8124999999999998
 40
0.8124999999999998
 40
0.8749999999999998
 40
0.8749999999999998
 40
1.0
 40
1.0
 40
1.0
 40
1.0
 10
886.3758461240122
 20
167.189314730506
 30
0.0
 10
886.3758461240122
 20
167.7635470950132
 30
0.0
 10
886.3476509265602
 20
168.335430067667
 30
0.0
 10
886.2354333848816
 20
169.4745441624587
 30
0.0
 10
886.1510640896813
 20
170.0433001613715
 30
0.0
 10
885.9273436824977
 20
171.1673569140308
 30
0.0
 10
885.7882342190796
 20
171.7224447748582
 30
0.0
 10
885.4555788762692
 20
172.8187552836103
 30
0.0
 10
885.2616930214908
 20
173.3603487414999
 30
0.0
 10
884.60427066777
 20
174.9467124011859
 30
0.0
 10
884.0604947013607
 20
175.9635038371949
 30
0.0
 10
883.1063802463168
 20
177.3907550855889
 30
0.0
 10
882.7640320746604
 20
177.8521928092328
 30
0.0
 10
882.0363653645099
 20
178.7383151739237
 30
0.0
 10
881.6518958836077
 20
179.1622208819104
 30
0.0
 10
880.8418256215837
 20
179.9718521872752
 30
0.0
 10
880.4153644061708
 20
180.3581146861985
 30
0.0
 10
879.5299712058822
 20
181.0841840424924
 30
0.0
 10
879.0701641952756
 20
181.4250040552484
 30
0.0
 10
877.6391304826065
 20
182.3804546879015
 30
0.0
 10
876.6250581707199
 20
182.9219477475595
 30
0.0
 10
875.034951481286
 20
183.57969082279
 30
0.0
 10
874.4959442550834
 20
183.7722051819706
 30
0.0
 10
873.4000885171509
 20
184.1040712908667
 30
0.0
 10
872.8415848348168
 20
184.2436328709215
 30
0.0
 10
871.1592369752434
 20
184.5773430617488
 30
0.0
 10
870.0243108530267
 20
184.689314730506
 30
0.0
 10
868.8758461240123
 20
184.689314730506
 30
0.0
  0
LINE
  5
1528E
330
17
100
AcDbEntity
  8
1外形線
100
AcDbLine
 10
868.8758463121276
 20
184.6893146187473
 30
0.0
 11
848.6258462525229
 21
184.6893146187473
 31
0.0
  0
LINE
  5
1528F
330
17
100
AcDbEntity
  8
1外形線
100
AcDbLine
 10
848.6258462525229
 20
184.6893146187473
 30
0.0
 11
828.3758461929183
 21
184.6893146187473
 31
0.0
  0
SPLINE
  5
15290
330
17
100
AcDbEntity
  8
1外形線
100
AcDbSpline
210
0.0
220
0.0
230
1.0
 70
     8
 71
     3
 72
    32
 73
    28
 74
     0
 42
0.000000001
 43
0.0000000001
 40
0.0
 40
0.0
 40
0.0
 40
0.0
 40
0.0625000000000001
 40
0.0625000000000001
 40
0.1250000000000002
 40
0.1250000000000002
 40
0.1875000000000002
 40
0.1875000000000002
 40
0.2500000000000003
 40
0.2500000000000003
 40
0.3750000000000005
 40
0.3750000000000005
 40
0.4375000000000004
 40
0.4375000000000004
 40
0.5000000000000004
 40
0.5000000000000004
 40
0.5625000000000004
 40
0.5625000000000004
 40
0.6250000000000002
 40
0.6250000000000002
 40
0.7500000000000001
 40
0.7500000000000001
 40
0.8125000000000001
 40
0.8125000000000001
 40
0.875
 40
0.875
 40
1.0
 40
1.0
 40
1.0
 40
1.0
 10
828.3758463810336
 20
184.6893147305055
 30
0.0
 10
827.8016140165263
 20
184.6893147305055
 30
0.0
 10
827.2297310438725
 20
184.6611195330525
 30
0.0
 10
826.0906169490809
 20
184.5489019913749
 30
0.0
 10
825.521860950168
 20
184.4645326961737
 30
0.0
 10
824.3978041975088
 20
184.2408122889911
 30
0.0
 10
823.8427163366814
 20
184.101702825572
 30
0.0
 10
822.7464058279291
 20
183.7690474827615
 30
0.0
 10
822.2048123700387
 20
183.5751616279832
 30
0.0
 10
820.6184487103538
 20
182.9177392742632
 30
0.0
 10
819.6016572743447
 20
182.3739633078531
 30
0.0
 10
818.1744060259507
 20
181.4198488528092
 30
0.0
 10
817.7129683023068
 20
181.0775006811528
 30
0.0
 10
816.8268459376159
 20
180.3498339710032
 30
0.0
 10
816.4029402296282
 20
179.9653644901001
 30
0.0
 10
815.5933089242635
 20
179.155294228076
 30
0.0
 10
815.2070464253402
 20
178.7288330126631
 30
0.0
 10
814.4809770690471
 20
177.8434398123755
 30
0.0
 10
814.1401570562901
 20
177.3836328017688
 30
0.0
 10
813.1847064236371
 20
175.9525990890989
 30
0.0
 10
812.6432133639791
 20
174.9385267772123
 30
0.0
 10
811.9854702887487
 20
173.3484200877784
 30
0.0
 10
811.7929559295689
 20
172.8094128615768
 30
0.0
 10
811.461089820672
 20
171.7135571236432
 30
0.0
 10
811.3215282406171
 20
171.1550534413092
 30
0.0
 10
810.9878180497908
 20
169.4727055817358
 30
0.0
 10
810.8758463810335
 20
168.33777945952
 30
0.0
 10
810.8758463810335
 20
167.1893147305055
 30
0.0
  0
LINE
  5
15291
330
17
100
AcDbEntity
  8
1外形線
100
AcDbLine
 10
810.8758479810576
 20
167.1893150099027
 30
0.0
 11
810.8758479810576
 21
166.2893138327105
 31
0.0
  0
LINE
  5
15292
330
17
100
AcDbEntity
  8
1外形線
100
AcDbLine
 10
808.3758466399531
 20
166.2893138327105
 30
0.0
 11
810.8758479810576
 21
166.2893138327105
 31
0.0
  0
LINE
  5
15293
330
17
100
AcDbEntity
  8
1外形線
100
AcDbLine
 10
810.8758479810576
 20
163.0893153675303
 30
0.0
 11
808.3758466399531
 21
163.0893153675303
 31
0.0
  0
LINE
  5
15294
330
17
100
AcDbEntity
  8
1外形線
100
AcDbLine
 10
810.8758479810576
 20
163.0893153675303
 30
0.0
 11
810.8758479810576
 21
162.189316052984
 31
0.0
  0
ARC
  5
15297
330
17
100
AcDbEntity
  8
1外形線
100
AcDbCircle
 10
828.3758452690463
 20
219.6893159486759
 30
0.0
 40
1.0
100
AcDbArc
 50
0.0
 51
180.0
  0
LINE
  5
15298
330
17
100
AcDbEntity
  8
1外形線
 48
2.0
100
AcDbLine
 10
827.3758452690463
 20
214.1893152632225
 30
0.0
 11
827.3758452690463
 21
219.6893159486759
 31
0.0
  0
LINE
  5
15299
330
17
100
AcDbEntity
  8
1外形線
 48
2.0
100
AcDbLine
 10
829.3758452690463
 20
214.1893152632225
 30
0.0
 11
829.3758452690463
 21
219.6893159486759
 31
0.0
  0
ARC
  5
1529A
330
17
100
AcDbEntity
  8
1外形線
100
AcDbCircle
 10
868.8758472359996
 20
219.6893159486759
 30
0.0
 40
1.0
100
AcDbArc
 50
0.0
 51
180.0
  0
LINE
  5
1529B
330
17
100
AcDbEntity
  8
1外形線
 48
2.0
100
AcDbLine
 10
869.8758472359996
 20
214.1893152632225
 30
0.0
 11
869.8758472359996
 21
219.6893159486759
 31
0.0
  0
LINE
  5
1529C
330
17
100
AcDbEntity
  8
1外形線
 48
2.0
100
AcDbLine
 10
867.8758472359996
 20
214.1893152632225
 30
0.0
 11
867.8758472359996
 21
219.6893159486759
 31
0.0
  0
ARC
  5
1529D
330
17
100
AcDbEntity
  8
1外形線
100
AcDbCircle
 10
877.6258462152
 20
199.2893159486754
 30
0.0
 40
2.100000000000022
100
AcDbArc
 50
180.0
 51
0.0
  0
LINE
  5
1529E
330
17
100
AcDbEntity
  8
1外形線
100
AcDbLine
 10
879.7258461403217
 20
199.289316359948
 30
0.0
 11
879.7258461403217
 21
204.0893156566132
 31
0.0
  0
ARC
  5
1529F
330
17
100
AcDbEntity
  8
1外形線
100
AcDbCircle
 10
877.6258462152
 20
204.0893159486756
 30
0.0
 40
2.100000000000022
100
AcDbArc
 50
0.0
 51
180.0
  0
LINE
  5
152A0
330
17
100
AcDbEntity
  8
1外形線
100
AcDbLine
 10
875.5258462900783
 20
204.0893156566132
 30
0.0
 11
875.5258462900783
 21
199.289316359948
 31
0.0
  0
ARC
  5
152A1
330
17
100
AcDbEntity
  8
1外形線
100
AcDbCircle
 10
877.6258462152
 20
199.2893159486754
 30
0.0
 40
2.100000000000022
100
AcDbArc
 50
180.0
 51
0.0
  0
LINE
  5
152A2
330
17
100
AcDbEntity
  8
1外形線
100
AcDbLine
 10
879.7258461403217
 20
199.289316359948
 30
0.0
 11
879.7258461403217
 21
204.0893156566132
 31
0.0
  0
ARC
  5
152A3
330
17
100
AcDbEntity
  8
1外形線
100
AcDbCircle
 10
877.6258462152
 20
204.0893159486756
 30
0.0
 40
2.100000000000022
100
AcDbArc
 50
0.0
 51
180.0
  0
LINE
  5
152A4
330
17
100
AcDbEntity
  8
1外形線
100
AcDbLine
 10
875.5258462900783
 20
204.0893156566132
 30
0.0
 11
875.5258462900783
 21
199.289316359948
 31
0.0
  0
LINE
  5
152A9
330
17
100
AcDbEntity
  8
1外形線
100
AcDbLine
 10
847.6330701249908
 20
215.6035295110484
 30
0.0
 11
847.6330701249908
 21
228.267532069052
 31
0.0
  0
LINE
  5
152AA
330
17
100
AcDbEntity
  8
1外形線
100
AcDbLine
 10
849.6186223800551
 20
228.267532069052
 30
0.0
 11
849.6186223800551
 21
215.6035295110484
 31
0.0
  0
ELLIPSE
  5
152AB
330
17
100
AcDbEntity
  8
1外形線
100
AcDbEllipse
 10
847.8754831712777
 20
227.394632693056
 30
0.0
 11
0.0291694294965053
 21
-1.223455324021414
 31
0.0
210
-0.0000000000000209
220
-0.0000000000000005
230
-1.0
 40
0.6945562310586273
 41
1.605109581598469
 42
2.484227035663034
  0
LINE
  5
152AC
330
17
100
AcDbEntity
  8
1外形線
100
AcDbLine
 10
847.0252241694625
 20
216.2246318455288
 30
0.0
 11
847.0252241694625
 21
227.4163576948555
 31
0.0
  0
LINE
  5
152AD
330
17
100
AcDbEntity
  8
1外形線
100
AcDbLine
 10
850.2264683355834
 20
216.2246318455288
 30
0.0
 11
850.2264683355834
 21
227.4163576948555
 31
0.0
  0
ELLIPSE
  5
152AE
330
17
100
AcDbEntity
  8
1外形線
100
AcDbEllipse
 10
849.3762093337682
 20
227.394632693056
 30
0.0
 11
-0.0291694294965057
 21
-1.223455324021415
 31
0.0
210
-0.0000000000000251
220
0.0000000000000006
230
-1.0
 40
0.6945562310586361
 41
3.798958271516561
 42
4.678075725581125
  0
ARC
  5
152B1
330
17
100
AcDbEntity
  8
1外形線
100
AcDbCircle
 10
849.2758462525234
 20
229.6893159486759
 30
0.0
 40
1.000000000000192
100
AcDbArc
 50
69.51268488528263
 51
90.0
  0
LINE
  5
152B2
330
17
100
AcDbEntity
  8
1外形線
100
AcDbLine
 10
847.9758462507534
 20
230.6893151738155
 30
0.0
 11
849.2758462542925
 21
230.6893151738155
 31
0.0
  0
ARC
  5
152B3
330
17
100
AcDbEntity
  8
1外形線
100
AcDbCircle
 10
847.9758462525232
 20
229.6893159486759
 30
0.0
 40
1.000000000000192
100
AcDbArc
 50
90.0
 51
110.4873151147173
  0
SPLINE
  5
152B4
330
17
100
AcDbEntity
  8
1外形線
100
AcDbSpline
210
0.0
220
0.0
230
1.0
 70
     8
 71
     3
 72
    10
 73
     6
 74
     0
 42
0.000000001
 43
0.0000000001
 40
0.0
 40
0.0
 40
0.0
 40
0.0
 40
0.5
 40
0.5
 40
1.0
 40
1.0
 40
1.0
 40
1.0
 10
849.9258462525231
 20
230.4492501563542
 30
0.0
 10
849.8602229481512
 20
230.505380209997
 30
0.0
 10
849.7868667775282
 20
230.5515553560432
 30
0.0
 10
849.6657792585164
 20
230.6126528446299
 30
0.0
 10
849.6258462525229
 20
230.6260656484361
 30
0.0
 10
849.6258462525229
 20
230.6260656484361
 30
0.0
  0
SPLINE
  5
152B5
330
17
100
AcDbEntity
  8
1外形線
100
AcDbSpline
210
0.0
220
0.0
230
1.0
 70
     8
 71
     3
 72
    10
 73
     6
 74
     0
 42
0.000000001
 43
0.0000000001
 40
0.0
 40
0.0
 40
0.0
 40
0.0
 40
0.5
 40
0.5
 40
1.0
 40
1.0
 40
1.0
 40
1.0
 10
847.625846252523
 20
230.6260656484361
 30
0.0
 10
847.625846252523
 20
230.6260656484361
 30
0.0
 10
847.5856616484024
 20
230.6124788277563
 30
0.0
 10
847.4661940709347
 20
230.5522924144076
 30
0.0
 10
847.3914482020028
 20
230.505361944363
 30
0.0
 10
847.3258462525228
 20
230.4492501563542
 30
0.0
  0
ARC
  5
152B6
330
17
100
AcDbEntity
  8
1外形線
100
AcDbCircle
 10
847.9758462525232
 20
229.6893159486759
 30
0.0
 40
1.0
100
AcDbArc
 50
130.5416018735122
 51
180.0
  0
ARC
  5
152B7
330
17
100
AcDbEntity
  8
1外形線
100
AcDbCircle
 10
849.2758462525234
 20
229.6893159486759
 30
0.0
 40
1.0
100
AcDbArc
 50
0.0
 51
49.45839812648777
  0
ARC
  5
152B8
330
17
100
AcDbEntity
  8
1外形線
100
AcDbCircle
 10
847.9758462525232
 20
229.6893159486759
 30
0.0
 40
1.000000000000192
100
AcDbArc
 50
110.4873151147173
 51
130.5416018735122
  0
ARC
  5
152B9
330
17
100
AcDbEntity
  8
1外形線
100
AcDbCircle
 10
849.2758462525234
 20
229.6893159486759
 30
0.0
 40
1.000000000000192
100
AcDbArc
 50
49.45839812648777
 51
69.51268488528263
  0
ELLIPSE
  5
152BA
330
17
100
AcDbEntity
  8
1外形線
100
AcDbEllipse
 10
849.3613959632002
 20
226.773314504782
 30
0.0
 11
-0.029169429496392
 21
-1.223455324021642
 31
0.0
210
-0.0000000000000251
220
0.0000000000000006
230
-1.0
 40
0.6945562310584112
 41
3.12503466650344
 42
3.405271114629549
  0
LINE
  5
152BB
330
17
100
AcDbEntity
  8
1外形線
100
AcDbLine
 10
847.8752007812518
 20
227.9969381063553
 30
0.0
 11
849.3764917237941
 21
227.9969381063553
 31
0.0
  0
ELLIPSE
  5
152BC
330
17
100
AcDbEntity
  8
1外形線
100
AcDbEllipse
 10
847.8902965418456
 20
226.773314504782
 30
0.0
 11
0.0291694294965053
 21
-1.223455324021642
 31
0.0
210
-0.0000000000000209
220
-0.0000000000000005
230
-1.0
 40
0.6945562310584096
 41
2.877914192550312
 42
3.158150640676433
  0
SPLINE
  5
152BD
330
17
100
AcDbEntity
  8
1外形線
100
AcDbSpline
210
0.0
220
0.0
230
1.0
 70
     8
 71
     3
 72
    14
 73
    10
 74
     0
 42
0.000000001
 43
0.0000000001
 40
0.0
 40
0.0
 40
0.0
 40
0.0
 40
0.25
 40
0.25
 40
0.5
 40
0.5
 40
0.75
 40
0.75
 40
1.0
 40
1.0
 40
1.0
 40
1.0
 10
849.6186223748226
 20
228.2675307155347
 30
0.0
 10
849.6194195684475
 20
228.3009674608353
 30
0.0
 10
849.6251925116203
 20
228.3328668085538
 30
0.0
 10
849.6505332062161
 20
228.3917408143058
 30
0.0
 10
849.67027861095
 20
228.4188157259692
 30
0.0
 10
849.7296266771126
 20
228.4511359729819
 30
0.0
 10
849.7717847661188
 20
228.4531097049136
 30
0.0
 10
849.852538525327
 20
228.4180177226095
 30
0.0
 10
849.8881832715351
 20
228.3861342379638
 30
0.0
 10
849.9185309849554
 20
228.3507462202984
 30
0.0
  0
SPLINE
  5
152BE
330
17
100
AcDbEntity
  8
1外形線
100
AcDbSpline
210
0.0
220
0.0
230
1.0
 70
     8
 71
     3
 72
    14
 73
    10
 74
     0
 42
0.000000001
 43
0.0000000001
 40
0.0
 40
0.0
 40
0.0
 40
0.0
 40
0.25
 40
0.25
 40
0.5
 40
0.5
 40
0.75
 40
0.75
 40
1.0
 40
1.0
 40
1.0
 40
1.0
 10
847.3331615200905
 20
228.3507462202984
 30
0.0
 10
847.3635342992929
 20
228.3861634667998
 30
0.0
 10
847.3991297367202
 20
228.4180482031731
 30
0.0
 10
847.4802242468804
 20
228.4532060815833
 30
0.0
 10
847.5222190153163
 20
228.4511005745504
 30
0.0
 10
847.5815117028215
 20
228.4187142312327
 30
0.0
 10
847.6011189182909
 20
228.391818730866
 30
0.0
 10
847.6265094240144
 20
228.332860778533
 30
0.0
 10
847.6322733870738
 20
228.300948566493
 30
0.0
 10
847.6330701302231
 20
228.2675307155347
 30
0.0
  0
ARC
  5
152BF
330
17
100
AcDbEntity
  8
1外形線
  6
Continuous
370
    15
100
AcDbCircle
 10
704.2749665870083
 20
193.7893151738386
 30
0.0
 40
6.500000000000018
100
AcDbArc
 50
270.3222054927736
 51
359.717926017802
  0
LINE
  5
152C0
330
17
100
AcDbEntity
  8
1外形線
  6
Continuous
370
    15
100
AcDbLine
 10
710.774964792106
 20
219.491231983459
 30
0.0
 11
710.7749661091984
 21
193.7893158986231
 31
0.0
  0
LINE
  5
152C1
330
17
100
AcDbEntity
  8
1外形線
  6
Continuous
370
    15
100
AcDbLine
 10
704.2749658621887
 20
187.2893156516134
 30
0.0
 11
678.5730497773529
 21
187.2893169687055
 31
0.0
  0
LINE
  5
152C2
330
17
100
AcDbEntity
  8
1外形線
  6
Continuous
 62
     0
370
    15
100
AcDbLine
 10
678.3749674919017
 20
142.1893151738392
 30
0.0
 11
678.8749660925118
 21
142.1893151738046
 31
0.0
  0
LINE
  5
152C3
330
17
100
AcDbEntity
  8
1外形線
  6
Continuous
370
    15
100
AcDbLine
 10
755.8749665870073
 20
219.1893156682987
 30
0.0
 11
755.8749665870068
 21
219.6893142689447
 31
0.0
  0
SPLINE
  5
152C4
330
17
100
AcDbEntity
  8
1外形線
  6
Continuous
370
    15
100
AcDbSpline
210
0.0
220
0.0
230
1.0
 70
    24
 71
     3
 72
    16
 73
    12
 74
     0
 42
0.000000001
 43
0.0000000001
 40
0.0
 40
0.0
 40
0.0
 40
0.0
 40
0.2499999999999999
 40
0.2499999999999999
 40
0.5
 40
0.5
 40
0.75
 40
0.75
 40
0.875
 40
0.875
 40
1.0
 40
1.0
 40
1.0
 40
1.0
 10
755.8749665870073
 20
219.4910612779864
 30
0.0
 10
755.8749665870068
 20
213.1325715891914
 30
0.0
 10
755.8749665870068
 20
206.7740818986082
 30
0.0
 10
755.8749665870068
 20
194.0571025119794
 30
0.0
 10
755.8749665870068
 20
187.6986110019539
 30
0.0
 10
755.8749665870068
 20
174.9816375474607
 30
0.0
 10
755.8749665870068
 20
168.6231694996755
 30
0.0
 10
755.8749665870068
 20
159.0854032255453
 30
0.0
 10
755.8749665870068
 20
155.9061410230985
 30
0.0
 10
755.8749665870068
 20
149.5476729367752
 30
0.0
 10
755.8749665870068
 20
146.3684721921878
 30
0.0
 10
755.8749665870068
 20
143.1893151738155
 30
0.0
  0
SPLINE
  5
152C5
330
17
100
AcDbEntity
  8
1外形線
  6
Continuous
370
    15
100
AcDbSpline
210
0.0
220
0.0
230
1.0
 70
     8
 71
     3
 72
    12
 73
     8
 74
     0
 42
0.000000001
 43
0.0000000001
 40
0.0
 40
0.0
 40
0.0
 40
0.0
 40
0.25
 40
0.25
 40
0.5
 40
0.5
 40
1.0
 40
1.0
 40
1.0
 40
1.0
 10
755.8749665870068
 20
143.1893151738155
 30
0.0
 10
755.8749665870073
 20
143.0572733150771
 30
0.0
 10
755.8489909834848
 20
142.9276988622138
 30
0.0
 10
755.7487162542165
 20
142.6856008316723
 30
0.0
 10
755.6745057882358
 20
142.5747069441519
 30
0.0
 10
755.3979680181814
 20
142.2979710516725
 30
0.0
 10
755.1390505541089
 20
142.1893151738155
 30
0.0
 10
754.8749665870068
 20
142.1893151738155
 30
0.0
  0
SPLINE
  5
152C6
330
17
100
AcDbEntity
  8
1外形線
  6
Continuous
370
    15
100
AcDbSpline
210
0.0
220
0.0
230
1.0
 70
    24
 71
     3
 72
    16
 73
    12
 74
     0
 42
0.000000001
 43
0.0000000001
 40
0.0
 40
0.0
 40
0.0
 40
0.0
 40
0.125
 40
0.125
 40
0.25
 40
0.25
 40
0.5
 40
0.5
 40
0.75
 40
0.75
 40
1.0
 40
1.0
 40
1.0
 40
1.0
 10
754.8749665870068
 20
142.1893151738155
 30
0.0
 10
751.6958100752113
 20
142.1893151738155
 30
0.0
 10
748.5166095655277
 20
142.1893151738164
 30
0.0
 10
742.1581415352015
 20
142.1893151738164
 30
0.0
 10
738.9788791857808
 20
142.1893151738164
 30
0.0
 10
729.4411125970646
 20
142.1893151738155
 30
0.0
 10
723.0826446055066
 20
142.1893151738155
 30
0.0
 10
710.3656710313393
 20
142.1893151738155
 30
0.0
 10
704.0071794587088
 20
142.1893151738155
 30
0.0
 10
691.2901999668719
 20
142.1893151738164
 30
0.0
 10
684.9317102238919
 20
142.1893151738164
 30
0.0
 10
678.5732204828373
 20
142.1893151738155
 30
0.0
  0
SPLINE
  5
152C7
330
17
100
AcDbEntity
  8
1外形線
  6
Continuous
370
    15
100
AcDbSpline
210
0.0
220
0.0
230
1.0
 70
    24
 71
     3
 72
     8
 73
     4
 74
     0
 42
0.000000001
 43
0.0000000001
 40
0.0
 40
0.0
 40
0.0
 40
0.0
 40
1.0
 40
1.0
 40
1.0
 40
1.0
 10
676.1805672749055
 20
142.1893151738164
 30
0.0
 10
676.9768446036869
 20
142.1893151738164
 30
0.0
 10
677.774395667243
 20
142.1893151738155
 30
0.0
 10
678.5732204828373
 20
142.1893151738155
 30
0.0
  0
SPLINE
  5
152C8
330
17
100
AcDbEntity
  8
1外形線
  6
Continuous
370
    15
100
AcDbSpline
210
0.0
220
0.0
230
1.0
 70
    24
 71
     3
 72
     8
 73
     4
 74
     0
 42
0.000000001
 43
0.0000000001
 40
0.0
 40
0.0
 40
0.0
 40
0.0
 40
1.0
 40
1.0
 40
1.0
 40
1.0
 10
755.8749665870073
 20
219.4910612779864
 30
0.0
 10
755.8749665870073
 20
220.2898860935808
 30
0.0
 10
755.8749665870068
 20
221.0874371571359
 30
0.0
 10
755.8749665870068
 20
221.8837144859177
 30
0.0
  0
LINE
  5
152C9
330
17
100
AcDbEntity
  8
1外形線
  6
Continuous
370
    15
100
AcDbLine
 10
676.1805654823906
 20
142.1893151738046
 30
0.0
 11
668.2952220324327
 21
142.1893151738046
 31
0.0
  0
LINE
  5
152CA
330
17
100
AcDbEntity
  8
1外形線
  6
Continuous
370
    15
100
AcDbLine
 10
755.8749665870068
 20
229.7690597283787
 30
0.0
 11
755.8749665870068
 21
221.8837162784208
 31
0.0
  0
SPLINE
  5
152CB
330
17
100
AcDbEntity
  8
1外形線
  6
Continuous
370
    15
100
AcDbSpline
210
0.0
220
0.0
230
1.0
 70
    24
 71
     3
 72
    12
 73
     8
 74
     0
 42
0.000000001
 43
0.0000000001
 40
0.0
 40
0.0
 40
0.0
 40
0.0
 40
0.5
 40
0.5
 40
0.75
 40
0.75
 40
1.0
 40
1.0
 40
1.0
 40
1.0
 10
715.3356075134156
 20
230.6893151738155
 30
0.0
 10
714.4539931690488
 20
230.6893151738155
 30
0.0
 10
713.7841337750724
 20
230.6893151738165
 30
0.0
 10
713.0918594367149
 20
230.6893151738165
 30
0.0
 10
712.9135100451849
 20
230.6893151738165
 30
0.0
 10
712.6713691908394
 20
230.6893151738165
 30
0.0
 10
712.6063741838748
 20
230.6893151738165
 30
0.0
 10
712.5971332953294
 20
230.6893151738155
 30
0.0
  0
SPLINE
  5
152CC
330
17
100
AcDbEntity
  8
1外形線
  6
Continuous
370
    15
100
AcDbSpline
210
0.0
220
0.0
230
1.0
 70
     8
 71
     3
 72
    26
 73
    22
 74
     0
 42
0.000000001
 43
0.0000000001
 40
0.0
 40
0.0
 40
0.0
 40
0.0
 40
0.0624999999999997
 40
0.0624999999999997
 40
0.1249999999999994
 40
0.1249999999999994
 40
0.2499999999999982
 40
0.2499999999999982
 40
0.374999999999997
 40
0.374999999999997
 40
0.4374999999999973
 40
0.4374999999999973
 40
0.4999999999999976
 40
0.4999999999999976
 40
0.6249999999999976
 40
0.6249999999999976
 40
0.6874999999999979
 40
0.6874999999999979
 40
0.7499999999999984
 40
0.7499999999999984
 40
1.0
 40
1.0
 40
1.0
 40
1.0
 10
734.0364292006015
 20
230.6351803241784
 30
0.0
 10
733.5486626300503
 20
230.6353967134052
 30
0.0
 10
733.0622563402044
 20
230.6358364818322
 30
0.0
 10
732.0921575565639
 20
230.6370537096506
 30
0.0
 10
731.6082563690274
 20
230.6378323747546
 30
0.0
 10
730.1742694086961
 20
230.6405222844465
 30
0.0
 10
729.2371921508084
 20
230.642787058871
 30
0.0
 10
727.3999619923897
 20
230.6477859757948
 30
0.0
 10
726.4998084770978
 20
230.6505194392308
 30
0.0
 10
725.178055902868
 20
230.6548538798585
 30
0.0
 10
724.7411338349775
 20
230.6563449578886
 30
0.0
 10
723.8892531714891
 20
230.6593706846903
 30
0.0
 10
723.4729301491984
 20
230.660909538498
 30
0.0
 10
722.2522366561429
 20
230.6655736565523
 30
0.0
 10
721.4760224284041
 20
230.6687496973396
 30
0.0
 10
720.3680081182183
 20
230.6733542861299
 30
0.0
 10
720.0080843911178
 20
230.6748619930155
 30
0.0
 10
719.307426766617
 20
230.6777694751296
 30
0.0
 10
718.9655343037534
 20
230.6791737072004
 30
0.0
 10
717.3260505113735
 20
230.6856856472629
 30
0.0
 10
716.2259685766244
 20
230.6893151738165
 30
0.0
 10
715.3356075134166
 20
230.6893151738155
 30
0.0
  0
SPLINE
  5
152CD
330
17
100
AcDbEntity
  8
1外形線
  6
Continuous
370
    15
100
AcDbSpline
210
0.0
220
0.0
230
1.0
 70
    24
 71
     3
 72
    12
 73
     8
 74
     0
 42
0.000000001
 43
0.0000000001
 40
0.0
 40
0.0
 40
0.0
 40
0.0
 40
0.2499999999999998
 40
0.2499999999999998
 40
0.4999999999999998
 40
0.4999999999999998
 40
1.0
 40
1.0
 40
1.0
 40
1.0
 10
667.3749665870068
 20
185.4671484654942
 30
0.0
 10
667.3749665870068
 20
185.4579126659997
 30
0.0
 10
667.3749665870068
 20
185.3929323386388
 30
0.0
 10
667.3749665870072
 20
185.1508883217908
 30
0.0
 10
667.3749665870068
 20
184.9727738488878
 30
0.0
 10
667.3749665870068
 20
184.2815608245351
 30
0.0
 10
667.3749665870068
 20
183.6120704374794
 30
0.0
 10
667.3749665870068
 20
182.7314442384273
 30
0.0
  0
SPLINE
  5
152CE
330
17
100
AcDbEntity
  8
1外形線
  6
Continuous
370
    15
100
AcDbSpline
210
0.0
220
0.0
230
1.0
 70
     8
 71
     3
 72
    26
 73
    22
 74
     0
 42
0.000000001
 43
0.0000000001
 40
0.0
 40
0.0
 40
0.0
 40
0.0
 40
0.0624999999999995
 40
0.0624999999999995
 40
0.1249999999999991
 40
0.1249999999999991
 40
0.2499999999999982
 40
0.2499999999999982
 40
0.3749999999999972
 40
0.3749999999999972
 40
0.4374999999999963
 40
0.4374999999999963
 40
0.4999999999999952
 40
0.4999999999999952
 40
0.6249999999999949
 40
0.6249999999999949
 40
0.6874999999999952
 40
0.6874999999999952
 40
0.7499999999999955
 40
0.7499999999999955
 40
1.0
 40
1.0
 40
1.0
 40
1.0
 10
667.3749665870072
 20
182.7314442384273
 30
0.0
 10
667.3749665870068
 20
182.5073594235406
 30
0.0
 10
667.375192562552
 20
182.2691891886357
 30
0.0
 10
667.3760430765196
 20
181.7647467462444
 30
0.0
 10
667.3766689388294
 20
181.4982695420082
 30
0.0
 10
667.379032993399
 20
180.6646470640268
 30
0.0
 10
667.3812598698086
 20
180.0611600791441
 30
0.0
 10
667.3864659863761
 20
178.7609850309978
 30
0.0
 10
667.3894392902338
 20
178.0642985404689
 30
0.0
 10
667.3940682887
 20
176.9473835407976
 30
0.0
 10
667.3956452348216
 20
176.5619547724806
 30
0.0
 10
667.3987796312135
 20
175.7777910227384
 30
0.0
 10
667.4003427943617
 20
175.3779806029239
 30
0.0
 10
667.404985474382
 20
174.1558261763008
 30
0.0
 10
667.4080202904838
 20
173.3108549613067
 30
0.0
 10
667.4123633957915
 20
171.9981442517233
 30
0.0
 10
667.4137750383707
 20
171.5530076799492
 30
0.0
 10
667.4164987304943
 20
170.6473108275646
 30
0.0
 10
667.4178152178533
 20
170.1850401955859
 30
0.0
 10
667.4240210016623
 20
167.863696965414
 30
0.0
 10
667.4282416349015
 20
165.9659460459812
 30
0.0
 10
667.4291014366472
 20
164.0278525549516
 30
0.0
  0
SPLINE
  5
152CF
330
17
100
AcDbEntity
  8
1外形線
  6
Continuous
370
    15
100
AcDbSpline
210
0.0
220
0.0
230
1.0
 70
     8
 71
     3
 72
     8
 73
     4
 74
     0
 42
0.000000001
 43
0.0000000001
 40
0.0
 40
0.0
 40
0.0
 40
0.0
 40
1.0
 40
1.0
 40
1.0
 40
1.0
 10
667.4291014366472
 20
164.0278525549516
 30
0.0
 10
667.4291658124452
 20
163.882742873519
 30
0.0
 10
667.4287332307581
 20
163.7376499957669
 30
0.0
 10
667.4278238846945
 20
163.5925736359883
 30
0.0
  0
LWPOLYLINE
  5
152D0
330
17
100
AcDbEntity
  8
1外形線
  6
Continuous
370
    15
100
AcDbPolyline
 90
        3
 70
   128
 43
0.0
 10
667.3749666686203
 20
146.2704840771517
 10
667.3749640344708
 20
143.9655335182139
 10
667.3749614002859
 20
142.1893151738046
  0
SPLINE
  5
152D1
330
17
100
AcDbEntity
  8
1外形線
  6
Continuous
370
    15
100
AcDbSpline
210
0.0
220
0.0
230
1.0
 70
     8
 71
     3
 72
     8
 73
     4
 74
     0
 42
0.000000001
 43
0.0000000001
 40
0.0
 40
0.0
 40
0.0
 40
0.0
 40
1.0
 40
1.0
 40
1.0
 40
1.0
 10
667.4278238846945
 20
163.5925736359883
 30
0.0
 10
667.3916324061824
 20
157.8186134585017
 30
0.0
 10
667.3749665870072
 20
152.0445373874287
 30
0.0
 10
667.3749665870068
 20
146.2704862217157
 30
0.0
  0
SPLINE
  5
152D2
330
17
100
AcDbEntity
  8
1外形線
  6
Continuous
370
    15
100
AcDbSpline
210
0.0
220
0.0
230
1.0
 70
    24
 71
     3
 72
    12
 73
     8
 74
     0
 42
0.000000001
 43
0.0000000001
 40
0.0
 40
0.0
 40
0.0
 40
0.0
 40
0.2500000000000087
 40
0.2500000000000087
 40
0.5000000000000103
 40
0.5000000000000103
 40
1.0
 40
1.0
 40
1.0
 40
1.0
 10
667.3749665870068
 20
142.1893151738155
 30
0.0
 10
667.3749665870068
 20
142.1893151738155
 30
0.0
 10
667.398203418109
 20
142.1893151738155
 30
0.0
 10
667.4889561727073
 20
142.1893151738155
 30
0.0
 10
667.5557415613389
 20
142.1893151738155
 30
0.0
 10
667.8083164367222
 20
142.1893151738155
 30
0.0
 10
668.0452345717371
 20
142.1893151738155
 30
0.0
 10
668.2952217961228
 20
142.1893151738164
 30
0.0
  0
SPLINE
  5
152D3
330
17
100
AcDbEntity
  8
1外形線
  6
Continuous
 62
     0
370
    15
100
AcDbSpline
210
0.0
220
0.0
230
1.0
 70
     8
 71
     3
 72
     8
 73
     4
 74
     0
 42
0.000000001
 43
0.0000000001
 40
0.0
 40
0.0
 40
0.0
 40
0.0
 40
1.0
 40
1.0
 40
1.0
 40
1.0
 10
734.471708124834
 20
230.6364578761282
 30
0.0
 10
734.326519107221
 20
230.6355478239208
 30
0.0
 10
734.1814261528593
 20
230.6351159983793
 30
0.0
 10
734.0364292006015
 20
230.6351803241784
 30
0.0
  0
LWPOLYLINE
  5
152D4
330
17
100
AcDbEntity
  8
1外形線
  6
Continuous
370
    15
100
AcDbPolyline
 90
        3
 70
   128
 43
0.0
 10
755.8749665870068
 20
230.6893203605256
 10
754.0987377058931
 20
230.6893177263761
 10
751.7937976836588
 20
230.6893150921902
  0
SPLINE
  5
152D5
330
17
100
AcDbEntity
  8
1外形線
  6
Continuous
370
    15
100
AcDbSpline
210
0.0
220
0.0
230
1.0
 70
     8
 71
     3
 72
     8
 73
     4
 74
     0
 42
0.000000001
 43
0.0000000001
 40
0.0
 40
0.0
 40
0.0
 40
0.0
 40
1.0
 40
1.0
 40
1.0
 40
1.0
 10
751.7937955385491
 20
230.6893151738155
 30
0.0
 10
746.0197211191534
 20
230.6893151738155
 30
0.0
 10
740.2456412048859
 20
230.6726491847909
 30
0.0
 10
734.471708124834
 20
230.6364578761282
 30
0.0
  0
SPLINE
  5
152D6
330
17
100
AcDbEntity
  8
1外形線
  6
Continuous
370
    15
100
AcDbSpline
210
0.0
220
0.0
230
1.0
 70
    24
 71
     3
 72
    12
 73
     8
 74
     0
 42
0.000000001
 43
0.0000000001
 40
0.0
 40
0.0
 40
0.0
 40
0.0
 40
0.2499999999999974
 40
0.2499999999999974
 40
0.4999999999999949
 40
0.4999999999999949
 40
1.0
 40
1.0
 40
1.0
 40
1.0
 10
755.8749665870068
 20
229.7690599647
 30
0.0
 10
755.8749665870068
 20
229.8940514122056
 30
0.0
 10
755.8749665870073
 20
230.014522213282
 30
0.0
 10
755.8749665870073
 20
230.238801399783
 30
0.0
 10
755.8749665870068
 20
230.3397874817425
 30
0.0
 10
755.8749665870068
 20
230.5924692093473
 30
0.0
 10
755.8749665870068
 20
230.6893151738155
 30
0.0
 10
755.8749665870068
 20
230.6893151738155
 30
0.0
  0
LINE
  5
152D7
330
17
100
AcDbEntity
  8
1外形線
  6
Continuous
370
    15
100
AcDbLine
 10
676.180694557132
 20
187.1937753314693
 30
0.0
 11
668.2952220324327
 21
186.5629344738469
 31
0.0
  0
ARC
  5
152D8
330
17
100
AcDbEntity
  8
1外形線
  6
Continuous
370
    15
100
AcDbCircle
 10
678.5730527065775
 20
157.2893151738159
 30
0.0
 40
30.00000000000014
100
AcDbArc
 50
90.0
 51
94.57392125986842
  0
ARC
  5
152D9
330
17
100
AcDbEntity
  8
1外形線
  6
Continuous
370
    15
100
AcDbCircle
 10
740.7749665869955
 20
219.491229054304
 30
0.0
 40
30.00000000000027
100
AcDbArc
 50
175.4260787400792
 51
180.0
  0
LINE
  5
152DA
330
17
100
AcDbEntity
  8
1外形線
  6
Continuous
370
    15
100
AcDbLine
 10
710.8705064293417
 20
221.8835872036785
 30
0.0
 11
711.501347286965
 21
229.7690597283787
 31
0.0
  0
ARC
  5
152DB
330
17
100
AcDbEntity
  8
1外形線
  6
Continuous
370
    15
100
AcDbCircle
 10
668.3749665870041
 20
185.5661202775269
 30
0.0
 40
1.000000000000007
100
AcDbArc
 50
94.57392125986842
 51
180.0
  0
SPLINE
  5
152DC
330
17
100
AcDbEntity
  8
1外形線
  6
Continuous
370
    15
100
AcDbSpline
210
0.0
220
0.0
230
1.0
 70
    24
 71
     3
 72
    17
 73
    13
 74
     0
 42
0.000000001
 43
0.0000000001
 40
0.0
 40
0.0
 40
0.0
 40
0.0
 40
0.0046237952320588
 40
0.0046237952320588
 40
0.0046237952320588
 40
0.0096424870298446
 40
0.0096424870298446
 40
0.0096424870298446
 40
0.0146611787257045
 40
0.0146611787257045
 40
0.0146611787257045
 40
0.0196798688737743
 40
0.0196798688737743
 40
0.0196798688737743
 40
0.0196798688737743
 10
667.3749665870068
 20
185.5661202774978
 30
0.0
 10
667.3749665870068
 20
185.5661202774978
 30
0.0
 10
667.3749665870068
 20
185.5645259529561
 30
0.0
 10
667.3749665870068
 20
185.5610863061725
 30
0.0
 10
667.3749665870068
 20
185.5573528962337
 30
0.0
 10
667.3749665870068
 20
185.5514370343977
 30
0.0
 10
667.3749665870068
 20
185.5432045471049
 30
0.0
 10
667.3749665870068
 20
185.5349720600248
 30
0.0
 10
667.3749665870068
 20
185.5244226181227
 30
0.0
 10
667.3749665870072
 20
185.5116716283543
 30
0.0
 10
667.3749665870068
 20
185.4989206410379
 30
0.0
 10
667.3749665870068
 20
185.4839746164822
 30
0.0
 10
667.3749665870068
 20
185.4671484654942
 30
0.0
  0
ARC
  5
152DD
330
17
100
AcDbEntity
  8
1外形線
  6
Continuous
370
    15
100
AcDbCircle
 10
712.4981614833191
 20
229.6893151738428
 30
0.0
 40
1.000000000000128
100
AcDbArc
 50
90.0
 51
175.4260787400792
  0
SPLINE
  5
152DE
330
17
100
AcDbEntity
  8
1外形線
  6
Continuous
370
    15
100
AcDbSpline
210
0.0
220
0.0
230
1.0
 70
    24
 71
     3
 72
    17
 73
    13
 74
     0
 42
0.000000001
 43
0.0000000001
 40
0.0
 40
0.0
 40
0.0
 40
0.0
 40
0.0050186893116232
 40
0.0050186893116232
 40
0.0050186893116232
 40
0.0100373801710361
 40
0.0100373801710361
 40
0.0100373801710361
 40
0.015056071132375
 40
0.015056071132375
 40
0.015056071132375
 40
0.0196798664653481
 40
0.0196798664653481
 40
0.0196798664653481
 40
0.0196798664653481
 10
712.5971332953294
 20
230.6893151738155
 30
0.0
 10
712.5803071450855
 20
230.6893151738155
 30
0.0
 10
712.5653611211082
 20
230.6893151738165
 30
0.0
 10
712.5526101341638
 20
230.6893151738165
 30
0.0
 10
712.5398591447665
 20
230.6893151738165
 30
0.0
 10
712.5293097030285
 20
230.6893151738155
 30
0.0
 10
712.5210772159057
 20
230.6893151738155
 30
0.0
 10
712.5128447285719
 20
230.6893151738174
 30
0.0
 10
712.5069288664876
 20
230.6893151738165
 30
0.0
 10
712.5031954561391
 20
230.6893151738155
 30
0.0
 10
712.4997558083305
 20
230.6893151738165
 30
0.0
 10
712.4981614833259
 20
230.6893151738165
 30
0.0
 10
712.4981614833259
 20
230.6893151738165
 30
0.0
  0
LINE
  5
152DF
330
17
100
AcDbEntity
  8
1ﾀﾞｸﾄｶﾊﾞｰ
100
AcDbLine
 10
545.5304196198994
 20
140.655611848888
 30
0.0
 11
544.5353824296899
 21
140.655611848888
 31
0.0
  0
LINE
  5
152E0
330
17
100
AcDbEntity
  8
1ﾀﾞｸﾄｶﾊﾞｰ
100
AcDbLine
 10
630.1254320577872
 20
161.6496119817594
 30
0.0
 11
630.1254320577872
 21
140.655611848888
 31
0.0
  0
ARC
  5
152E1
330
17
100
AcDbEntity
  8
1ﾀﾞｸﾄｶﾊﾞｰ
100
AcDbCircle
 10
608.1254320577873
 20
161.6496119817594
 30
0.0
 40
22.0
100
AcDbArc
 50
0.0
 51
89.40016893379407
  0
ARC
  5
152E2
330
17
100
AcDbEntity
  8
1ﾀﾞｸﾄｶﾊﾞｰ
100
AcDbCircle
 10
587.8754320577873
 20
-1772.55688814942
 30
0.0
 40
1956.312499998309
100
AcDbArc
 50
89.40016893379407
 51
90.59983106615382
  0
LINE
  5
152E3
330
17
100
AcDbEntity
  8
1ﾀﾞｸﾄｶﾊﾞｰ
100
AcDbLine
 10
630.1254320577872
 20
140.655611848888
 30
0.0
 11
630.220444495676
 21
140.655611848888
 31
0.0
  0
ARC
  5
152E4
330
17
100
AcDbEntity
  8
1ﾀﾞｸﾄｶﾊﾞｰ
100
AcDbCircle
 10
567.6254320577872
 20
161.6496119817594
 30
0.0
 40
22.0
100
AcDbArc
 50
90.59983106615382
 51
180.0
  0
LINE
  5
152E5
330
17
100
AcDbEntity
  8
1ﾀﾞｸﾄｶﾊﾞｰ
100
AcDbLine
 10
545.5304196198994
 20
140.655611848888
 30
0.0
 11
545.6254320577873
 21
140.655611848888
 31
0.0
  0
LINE
  5
152E6
330
17
100
AcDbEntity
  8
1ﾀﾞｸﾄｶﾊﾞｰ
100
AcDbLine
 10
545.6254320577873
 20
161.6496119817594
 30
0.0
 11
545.6254320577873
 21
140.655611848888
 31
0.0
  0
LINE
  5
152E7
330
17
100
AcDbEntity
  8
1ﾀﾞｸﾄｶﾊﾞｰ
100
AcDbLine
 10
631.2154816858856
 20
140.655611848888
 30
0.0
 11
630.220444495676
 21
140.655611848888
 31
0.0
  0
LINE
  5
152E8
330
17
100
AcDbEntity
  8
1ﾀﾞｸﾄｶﾊﾞｰ
100
AcDbLine
 10
544.5353824296899
 20
140.655611848888
 30
0.0
 11
543.7370952780629
 21
140.655611848888
 31
0.0
  0
LINE
  5
152E9
330
17
100
AcDbEntity
  8
1ﾀﾞｸﾄｶﾊﾞｰ
100
AcDbLine
 10
632.0137688375125
 20
140.655611848888
 30
0.0
 11
631.2154816858856
 21
140.655611848888
 31
0.0
  0
ARC
  5
152EA
330
17
100
AcDbEntity
  8
1ﾀﾞｸﾄｶﾊﾞｰ
100
AcDbCircle
 10
567.6254320577872
 20
161.6496119817594
 30
0.0
 40
24.00000000000016
100
AcDbArc
 50
90.59983106615382
 51
180.0
  0
LINE
  5
152EB
330
17
100
AcDbEntity
  8
1ﾀﾞｸﾄｶﾊﾞｰ
100
AcDbLine
 10
543.6254320577872
 20
140.655611848888
 30
0.0
 11
543.6254320577872
 21
161.6496119817594
 31
0.0
  0
LINE
  5
152EC
330
17
100
AcDbEntity
  8
1ﾀﾞｸﾄｶﾊﾞｰ
100
AcDbLine
 10
543.7370952780629
 20
140.655611848888
 30
0.0
 11
543.6254320577872
 21
140.655611848888
 31
0.0
  0
ARC
  5
152ED
330
17
100
AcDbEntity
  8
1ﾀﾞｸﾄｶﾊﾞｰ
100
AcDbCircle
 10
587.8754320577873
 20
-1772.55688814942
 30
0.0
 40
1958.312499998309
100
AcDbArc
 50
89.40016893379407
 51
90.59983106615382
  0
ARC
  5
152EE
330
17
100
AcDbEntity
  8
1ﾀﾞｸﾄｶﾊﾞｰ
100
AcDbCircle
 10
608.1254320577873
 20
161.6496119817594
 30
0.0
 40
24.00000000000016
100
AcDbArc
 50
0.0
 51
89.40016893379407
  0
LINE
  5
152EF
330
17
100
AcDbEntity
  8
1ﾀﾞｸﾄｶﾊﾞｰ
100
AcDbLine
 10
632.1254320577873
 20
161.6496119817594
 30
0.0
 11
632.1254320577873
 21
140.655611848888
 31
0.0
  0
LINE
  5
152F0
330
17
100
AcDbEntity
  8
1ﾀﾞｸﾄｶﾊﾞｰ
100
AcDbLine
 10
632.1254320577873
 20
140.655611848888
 30
0.0
 11
632.0137688375125
 21
140.655611848888
 31
0.0
  0
SPLINE
  5
152F1
330
17
100
AcDbEntity
  8
1ﾀﾞｸﾄｶﾊﾞｰ
100
AcDbSpline
210
0.0
220
0.0
230
1.0
 70
    24
 71
     3
 72
    36
 73
    32
 74
     0
 42
0.000000001
 43
0.0000000001
 40
0.0
 40
0.0
 40
0.0
 40
0.0
 40
0.0625000000000001
 40
0.0625000000000001
 40
0.0937500000000001
 40
0.0937500000000001
 40
0.1250000000000002
 40
0.1250000000000002
 40
0.2500000000000004
 40
0.2500000000000004
 40
0.3125000000000006
 40
0.3125000000000006
 40
0.3437500000000006
 40
0.3437500000000006
 40
0.3750000000000007
 40
0.3750000000000007
 40
0.5000000000000008
 40
0.5000000000000008
 40
0.5312500000000008
 40
0.5312500000000008
 40
0.5625000000000009
 40
0.5625000000000009
 40
0.6250000000000009
 40
0.6250000000000009
 40
0.7500000000000006
 40
0.7500000000000006
 40
0.8125000000000003
 40
0.8125000000000003
 40
0.8750000000000001
 40
0.8750000000000001
 40
1.0
 40
1.0
 40
1.0
 40
1.0
 10
632.1254320577873
 20
222.1726595878973
 30
0.0
 10
632.1254320577873
 20
221.2140090257786
 30
0.0
 10
632.1254320577873
 20
220.2603645724604
 30
0.0
 10
632.1254320577873
 20
186.8374101851851
 30
0.0
 10
632.1254320577873
 20
186.3643461789417
 30
0.0
 10
632.1254320577873
 20
185.4207523560927
 30
0.0
 10
632.1254320577873
 20
184.9503849172189
 30
0.0
 10
632.1254320577873
 20
182.6255731118873
 30
0.0
 10
632.1254320577873
 20
180.8347835292344
 30
0.0
 10
632.1254320577873
 20
178.2497531026621
 30
0.0
 10
632.1254320577873
 20
177.4050464784233
 30
0.0
 10
632.1254320577873
 20
176.1641648630403
 30
0.0
 10
632.1254320577873
 20
175.7541771034404
 30
0.0
 10
632.1254320577873
 20
174.9513128732452
 30
0.0
 10
632.1254320577873
 20
174.5575191761564
 30
0.0
 10
632.1254320577873
 20
172.6260935576803
 30
0.0
 10
632.1254320577873
 20
171.2001082098442
 30
0.0
 10
632.1254320577873
 20
169.5662993125071
 30
0.0
 10
632.1254320577873
 20
169.247032476651
 30
0.0
 10
632.1254320577873
 20
168.6237335570478
 30
0.0
 10
632.1254320577873
 20
168.3189226715568
 30
0.0
 10
632.1254320577873
 20
167.4351074001407
 30
0.0
 10
632.1254320577873
 20
166.8861672067443
 30
0.0
 10
632.1254320577873
 20
165.3565998399382
 30
0.0
 10
632.1254320577873
 20
164.4922085348627
 30
0.0
 10
632.1254320577873
 20
163.4333374757271
 30
0.0
 10
632.1254320577873
 20
163.1201115380209
 30
0.0
 10
632.1254320577873
 20
162.587093810118
 30
0.0
 10
632.1254320577873
 20
162.3652673019552
 30
0.0
 10
632.1254320577873
 20
161.8313460939745
 30
0.0
 10
632.1254320577873
 20
161.6496119817594
 30
0.0
 10
632.1254320577873
 20
161.6496119817594
 30
0.0
  0
SPLINE
  5
152F2
330
17
100
AcDbEntity
  8
1ﾀﾞｸﾄｶﾊﾞｰ
100
AcDbSpline
210
0.0
220
0.0
230
1.0
 70
    24
 71
     3
 72
    36
 73
    32
 74
     0
 42
0.000000001
 43
0.0000000001
 40
0.0
 40
0.0
 40
0.0
 40
0.0
 40
0.1250000000000002
 40
0.1250000000000002
 40
0.1875000000000003
 40
0.1875000000000003
 40
0.2500000000000004
 40
0.2500000000000004
 40
0.3750000000000005
 40
0.3750000000000005
 40
0.4375000000000006
 40
0.4375000000000006
 40
0.4687500000000006
 40
0.4687500000000006
 40
0.5000000000000005
 40
0.5000000000000005
 40
0.6250000000000005
 40
0.6250000000000005
 40
0.6562500000000004
 40
0.6562500000000004
 40
0.6875000000000004
 40
0.6875000000000004
 40
0.7500000000000002
 40
0.7500000000000002
 40
0.8750000000000001
 40
0.8750000000000001
 40
0.9062500000000001
 40
0.9062500000000001
 40
0.9375000000000001
 40
0.9375000000000001
 40
1.0
 40
1.0
 40
1.0
 40
1.0
 10
543.6254320577872
 20
161.6496119817594
 30
0.0
 10
543.6254320577872
 20
161.6496119817594
 30
0.0
 10
543.6254320577872
 20
161.8313460939745
 30
0.0
 10
543.6254320577872
 20
162.3652673019552
 30
0.0
 10
543.6254320577872
 20
162.587093810118
 30
0.0
 10
543.6254320577872
 20
163.1201115380209
 30
0.0
 10
543.6254320577872
 20
163.4333374757271
 30
0.0
 10
543.6254320577872
 20
164.4922085348636
 30
0.0
 10
543.6254320577872
 20
165.3565998399382
 30
0.0
 10
543.6254320577872
 20
166.8861672067443
 30
0.0
 10
543.6254320577872
 20
167.4351074001407
 30
0.0
 10
543.6254320577872
 20
168.3189226715568
 30
0.0
 10
543.6254320577872
 20
168.6237335570478
 30
0.0
 10
543.6254320577872
 20
169.2470324766519
 30
0.0
 10
543.6254320577872
 20
169.5662993125071
 30
0.0
 10
543.6254320577872
 20
171.2001082098442
 30
0.0
 10
543.6254320577872
 20
172.6260935576803
 30
0.0
 10
543.6254320577872
 20
174.5575191761564
 30
0.0
 10
543.6254320577872
 20
174.9513128732452
 30
0.0
 10
543.6254320577872
 20
175.7541771034404
 30
0.0
 10
543.6254320577872
 20
176.1641648630403
 30
0.0
 10
543.6254320577872
 20
177.4050464784233
 30
0.0
 10
543.6254320577872
 20
178.2497531026621
 30
0.0
 10
543.6254320577872
 20
180.8347835292353
 30
0.0
 10
543.6254320577872
 20
182.6255731118873
 30
0.0
 10
543.6254320577872
 20
184.9503849172189
 30
0.0
 10
543.6254320577872
 20
185.4207523560927
 30
0.0
 10
543.6254320577872
 20
186.3643461789417
 30
0.0
 10
543.6254320577872
 20
186.8374101851851
 30
0.0
 10
543.6254320577872
 20
220.2603645724604
 30
0.0
 10
543.6254320577872
 20
221.2140090257786
 30
0.0
 10
543.6254320577872
 20
222.1726595878973
 30
0.0
  0
LINE
  5
152F3
330
17
100
AcDbEntity
  8
1ﾀﾞｸﾄｶﾊﾞｰ
100
AcDbLine
 10
544.0138185439691
 20
226.0975442797963
 30
0.0
 11
544.4646552848153
 21
228.3517279840263
 31
0.0
  0
LINE
  5
152F4
330
17
100
AcDbEntity
  8
1ﾀﾞｸﾄｶﾊﾞｰ
100
AcDbLine
 10
631.7370455716063
 20
226.0975442797963
 30
0.0
 11
631.2862088307602
 21
228.3517279840263
 31
0.0
  0
SPLINE
  5
152F5
330
17
100
AcDbEntity
  8
1ﾀﾞｸﾄｶﾊﾞｰ
100
AcDbSpline
210
0.0
220
0.0
230
1.0
 70
    24
 71
     3
 72
     8
 73
     4
 74
     0
 42
0.000000001
 43
0.0000000001
 40
0.0
 40
0.0
 40
0.0
 40
0.0
 40
1.0
 40
1.0
 40
1.0
 40
1.0
 10
568.1364393937529
 20
229.155611848888
 30
0.0
 10
581.2954122279506
 20
229.155611848888
 30
0.0
 10
594.4555501040412
 20
229.155611848888
 30
0.0
 10
607.614522939195
 20
229.155611848888
 30
0.0
  0
LINE
  5
152F6
330
17
100
AcDbEntity
  8
1ﾀﾞｸﾄｶﾊﾞｰ
100
AcDbLine
 10
567.3932312262413
 20
229.155611848888
 30
0.0
 11
568.136439393802
 21
229.155611848888
 31
0.0
  0
LINE
  5
152F7
330
17
100
AcDbEntity
  8
1ﾀﾞｸﾄｶﾊﾞｰ
100
AcDbLine
 10
607.614522939245
 20
229.155611848888
 30
0.0
 11
608.3576328893341
 21
229.155611848888
 31
0.0
  0
ARC
  5
152F8
330
17
100
AcDbEntity
  8
1ﾀﾞｸﾄｶﾊﾞｰ
100
AcDbCircle
 10
545.4452359605065
 20
228.1556118488881
 30
0.0
 40
1.0
100
AcDbArc
 50
90.0
 51
168.6900675259757
  0
LINE
  5
152F9
330
17
100
AcDbEntity
  8
1ﾀﾞｸﾄｶﾊﾞｰ
100
AcDbLine
 10
545.4452359605065
 20
229.155611848888
 30
0.0
 11
567.3932312262413
 21
229.155611848888
 31
0.0
  0
LINE
  5
152FA
330
17
100
AcDbEntity
  8
1ﾀﾞｸﾄｶﾊﾞｰ
100
AcDbLine
 10
608.3576328893341
 20
229.155611848888
 30
0.0
 11
630.3056281550689
 21
229.155611848888
 31
0.0
  0
ARC
  5
152FB
330
17
100
AcDbEntity
  8
1ﾀﾞｸﾄｶﾊﾞｰ
100
AcDbCircle
 10
630.3056281550689
 20
228.1556118488881
 30
0.0
 40
1.000000000000012
100
AcDbArc
 50
11.30993247402431
 51
90.0
  0
ARC
  5
152FC
330
17
100
AcDbEntity
  8
1ﾀﾞｸﾄｶﾊﾞｰ
100
AcDbCircle
 10
563.6254320577872
 20
222.1752215770331
 30
0.0
 40
20.0
100
AcDbArc
 50
168.6900675259757
 51
180.0
  0
ARC
  5
152FD
330
17
100
AcDbEntity
  8
1ﾀﾞｸﾄｶﾊﾞｰ
100
AcDbCircle
 10
612.1254320577873
 20
222.1752215770331
 30
0.0
 40
20.0
100
AcDbArc
 50
0.0
 51
11.30993247402431
  0
LINE
  5
152FE
330
17
100
AcDbEntity
  8
1ﾀﾞｸﾄｶﾊﾞｰ
100
AcDbLine
 10
586.2254320586775
 20
140.6556131601902
 30
0.0
 11
586.8754320586781
 21
140.6556131601902
 31
0.0
  0
LINE
  5
152FF
330
17
100
AcDbEntity
  8
1ﾀﾞｸﾄｶﾊﾞｰ
100
AcDbLine
 10
586.2254320676188
 20
141.1556131601902
 30
0.0
 11
586.575432058678
 21
141.1556131601902
 31
0.0
  0
LINE
  5
15300
330
17
100
AcDbEntity
  8
1ﾀﾞｸﾄｶﾊﾞｰ
100
AcDbLine
 10
586.8754320586781
 20
140.6556131601902
 30
0.0
 11
586.8754320586781
 21
140.8556131601903
 31
0.0
  0
ARC
  5
15301
330
17
100
AcDbEntity
  8
1ﾀﾞｸﾄｶﾊﾞｰ
100
AcDbCircle
 10
586.575432058678
 20
140.8556131601903
 30
0.0
 40
0.3
100
AcDbArc
 50
0.0
 51
90.0
  0
LINE
  5
15302
330
17
100
AcDbEntity
  8
1ﾀﾞｸﾄｶﾊﾞｰ
100
AcDbLine
 10
589.5254320586778
 20
140.6556131601902
 30
0.0
 11
588.8754320586781
 21
140.6556131601902
 31
0.0
  0
LINE
  5
15303
330
17
100
AcDbEntity
  8
1ﾀﾞｸﾄｶﾊﾞｰ
100
AcDbLine
 10
589.5254320497374
 20
141.1556131601902
 30
0.0
 11
589.1754320586783
 21
141.1556131601902
 31
0.0
  0
LINE
  5
15304
330
17
100
AcDbEntity
  8
1ﾀﾞｸﾄｶﾊﾞｰ
100
AcDbLine
 10
588.8754320586781
 20
140.6556131601902
 30
0.0
 11
588.8754320586781
 21
140.8556131601903
 31
0.0
  0
ARC
  5
15305
330
17
100
AcDbEntity
  8
1ﾀﾞｸﾄｶﾊﾞｰ
100
AcDbCircle
 10
589.1754320586783
 20
140.8556131601903
 30
0.0
 40
0.3
100
AcDbArc
 50
90.0
 51
180.0
  0
SPLINE
  5
15306
330
17
100
AcDbEntity
  8
1ﾀﾞｸﾄｶﾊﾞｰ
100
AcDbSpline
210
0.0
220
0.0
230
1.0
 70
     8
 71
     3
 72
    10
 73
     6
 74
     0
 42
0.000000001
 43
0.0000000001
 40
0.0
 40
0.0
 40
0.0
 40
0.0
 40
0.5
 40
0.5
 40
1.0
 40
1.0
 40
1.0
 40
1.0
 10
588.0168534149147
 20
144.2970345164277
 30
0.0
 10
587.9830407859031
 20
144.2632218874152
 30
0.0
 10
587.9306009285924
 20
144.2385388267427
 30
0.0
 10
587.8208662920501
 20
144.2383733732546
 30
0.0
 10
587.7678616586549
 20
144.2631835602107
 30
0.0
 10
587.7340107024387
 20
144.2970345164268
 30
0.0
  0
LWPOLYLINE
  5
15307
330
17
100
AcDbEntity
  8
1ﾀﾞｸﾄｶﾊﾞｰ
100
AcDbPolyline
 90
        6
 70
   128
 43
0.0
 10
588.0168534207373
 20
144.2970346868607
 10
588.1405592811975
 20
144.4207404018017
 10
588.2409222980245
 20
144.5211034477325
 10
588.314880631839
 20
144.5950616360279
 10
588.3601778626657
 20
144.6403574407669
 10
588.3754320824269
 20
144.6556125045391
  0
LINE
  5
15308
330
17
100
AcDbEntity
  8
1ﾀﾞｸﾄｶﾊﾞｰ
100
AcDbLine
 10
588.3754320824269
 20
144.6556125045391
 30
0.0
 11
589.0254320841964
 21
144.6556125045391
 31
0.0
  0
LINE
  5
15309
330
17
100
AcDbEntity
  8
1ﾀﾞｸﾄｶﾊﾞｰ
100
AcDbLine
 10
586.7254320331599
 20
144.6556125045391
 30
0.0
 11
587.3754320349294
 21
144.6556125045391
 31
0.0
  0
LWPOLYLINE
  5
1530A
330
17
100
AcDbEntity
  8
1ﾀﾞｸﾄｶﾊﾞｰ
100
AcDbPolyline
 90
        6
 70
   128
 43
0.0
 10
587.3754320349294
 20
144.6556125045391
 10
587.3906862546905
 20
144.6403574407669
 10
587.4359834855172
 20
144.5950616360279
 10
587.5099418193317
 20
144.5211034477325
 10
587.6103048361588
 20
144.4207404018017
 10
587.7340106966189
 20
144.2970346868607
  0
LINE
  5
1530B
330
17
100
AcDbEntity
  8
1ﾀﾞｸﾄｶﾊﾞｰ
100
AcDbLine
 10
586.2254320676188
 20
141.1556131601902
 30
0.0
 11
586.2254320676188
 21
144.1556114912601
 31
0.0
  0
LINE
  5
1530C
330
17
100
AcDbEntity
  8
1ﾀﾞｸﾄｶﾊﾞｰ
100
AcDbLine
 10
587.2254320569086
 20
140.655611848888
 30
0.0
 11
586.2254320676188
 21
140.655611848888
 31
0.0
  0
ARC
  5
1530D
330
17
100
AcDbEntity
  8
1ﾀﾞｸﾄｶﾊﾞｰ
100
AcDbCircle
 10
586.7254320586775
 20
144.1556131601902
 30
0.0
 40
0.5
100
AcDbArc
 50
90.0
 51
180.0
  0
ARC
  5
1530E
330
17
100
AcDbEntity
  8
1ﾀﾞｸﾄｶﾊﾞｰ
100
AcDbCircle
 10
589.0254320586778
 20
144.1556131601902
 30
0.0
 40
0.5
100
AcDbArc
 50
0.0
 51
90.0
  0
LINE
  5
1530F
330
17
100
AcDbEntity
  8
1ﾀﾞｸﾄｶﾊﾞｰ
100
AcDbLine
 10
589.5254320497374
 20
144.1556114912601
 30
0.0
 11
589.5254320497374
 21
141.1556131601902
 31
0.0
  0
LINE
  5
15310
330
17
100
AcDbEntity
  8
1ﾀﾞｸﾄｶﾊﾞｰ
100
AcDbLine
 10
589.5254320497374
 20
140.655611848888
 30
0.0
 11
588.5254320604476
 21
140.655611848888
 31
0.0
  0
LINE
  5
15311
330
17
100
AcDbEntity
  8
1ﾀﾞｸﾄｶﾊﾞｰ
100
AcDbLine
 10
588.5254320604476
 20
140.655611848888
 30
0.0
 11
587.2254320569086
 21
140.655611848888
 31
0.0
  0
SPLINE
  5
15312
330
17
100
AcDbEntity
  8
1ﾀﾞｸﾄｶﾊﾞｰ
100
AcDbSpline
210
0.0
220
0.0
230
1.0
 70
    24
 71
     3
 72
    12
 73
     8
 74
     0
 42
0.000000001
 43
0.0000000001
 40
0.0
 40
0.0
 40
0.0
 40
0.0
 40
0.2500000000000002
 40
0.2500000000000002
 40
0.5000000000000004
 40
0.5000000000000004
 40
1.0
 40
1.0
 40
1.0
 40
1.0
 10
585.3112184963051
 20
144.6556131601902
 30
0.0
 10
585.4634584212167
 20
144.6556131601902
 30
0.0
 10
585.6125668209274
 20
144.6556131601902
 30
0.0
 10
585.8935058268011
 20
144.6556131601902
 30
0.0
 10
586.0237612724927
 20
144.6556131601902
 30
0.0
 10
586.3736983233297
 20
144.6556131601902
 30
0.0
 10
586.5519972607748
 20
144.6556131601902
 30
0.0
 10
586.7254320586775
 20
144.6556131601902
 30
0.0
  0
SPLINE
  5
15313
330
17
100
AcDbEntity
  8
1ﾀﾞｸﾄｶﾊﾞｰ
100
AcDbSpline
210
0.0
220
0.0
230
1.0
 70
    24
 71
     3
 72
    12
 73
     8
 74
     0
 42
0.000000001
 43
0.0000000001
 40
0.0
 40
0.0
 40
0.0
 40
0.0
 40
0.2500000000000002
 40
0.2500000000000002
 40
0.5000000000000004
 40
0.5000000000000004
 40
1.0
 40
1.0
 40
1.0
 40
1.0
 10
590.4396456210511
 20
144.6556131601902
 30
0.0
 10
590.2874056961395
 20
144.6556131601902
 30
0.0
 10
590.1382972964279
 20
144.6556131601902
 30
0.0
 10
589.8573582905542
 20
144.6556131601902
 30
0.0
 10
589.7271028448626
 20
144.6556131601902
 30
0.0
 10
589.3771657940256
 20
144.6556131601902
 30
0.0
 10
589.1988668565804
 20
144.6556131601902
 30
0.0
 10
589.0254320586778
 20
144.6556131601902
 30
0.0
  0
LINE
  5
15314
330
17
100
AcDbEntity
  8
1ﾀﾞｸﾄｶﾊﾞｰ
100
AcDbLine
 10
551.6254331017594
 20
140.655611848888
 30
0.0
 11
551.6254331017594
 21
144.6556125045391
 31
0.0
  0
LINE
  5
15315
330
17
100
AcDbEntity
  8
1ﾀﾞｸﾄｶﾊﾞｰ
100
AcDbLine
 10
549.6254327739339
 20
140.655611848888
 30
0.0
 11
551.6254331017594
 21
140.655611848888
 31
0.0
  0
LINE
  5
15316
330
17
100
AcDbEntity
  8
1ﾀﾞｸﾄｶﾊﾞｰ
100
AcDbLine
 10
624.1254310155968
 20
140.655611848888
 30
0.0
 11
624.1254310155968
 21
144.6556125045391
 31
0.0
  0
LINE
  5
15317
330
17
100
AcDbEntity
  8
1ﾀﾞｸﾄｶﾊﾞｰ
100
AcDbLine
 10
626.1254313434224
 20
140.655611848888
 30
0.0
 11
624.1254310155968
 21
140.655611848888
 31
0.0
  0
ARC
  5
15318
330
17
100
AcDbEntity
  8
1ﾀﾞｸﾄｶﾊﾞｰ
100
AcDbCircle
 10
566.8754320586781
 20
173.1584935672048
 30
0.0
 40
28.50288040701458
100
AcDbArc
 50
238.010014971835
 51
270.0
  0
ARC
  5
15319
330
17
100
AcDbEntity
  8
1ﾀﾞｸﾄｶﾊﾞｰ
100
AcDbCircle
 10
566.8754320586781
 20
173.1584935672048
 30
0.0
 40
29.90288040701458
100
AcDbArc
 50
244.5578394987025
 51
269.5209769793273
  0
LINE
  5
1531A
330
17
100
AcDbEntity
  8
1ﾀﾞｸﾄｶﾊﾞｰ
100
AcDbLine
 10
554.0291627973988
 20
146.1556118190859
 30
0.0
 11
551.6254331017594
 21
146.1556118190859
 31
0.0
  0
LINE
  5
1531B
330
17
100
AcDbEntity
  8
1ﾀﾞｸﾄｶﾊﾞｰ
100
AcDbLine
 10
551.6254331017594
 20
146.1556118190859
 30
0.0
 11
551.6254331017594
 21
144.6556125045391
 31
0.0
  0
LINE
  5
1531C
330
17
100
AcDbEntity
  8
1ﾀﾞｸﾄｶﾊﾞｰ
100
AcDbLine
 10
551.7754319691825
 20
148.9840403408383
 30
0.0
 11
551.6254331017594
 21
148.9840403408383
 31
0.0
  0
LINE
  5
1531D
330
17
100
AcDbEntity
  8
1ﾀﾞｸﾄｶﾊﾞｰ
100
AcDbLine
 10
566.6254310752015
 20
143.2556148827644
 30
0.0
 11
587.8754320586781
 21
143.2556148827644
 31
0.0
  0
LINE
  5
1531E
330
17
100
AcDbEntity
  8
1ﾀﾞｸﾄｶﾊﾞｰ
100
AcDbLine
 10
566.8754320586781
 20
144.6556131601904
 30
0.0
 11
585.311218587191
 21
144.6556125045391
 31
0.0
  0
LINE
  5
1531F
330
17
100
AcDbEntity
  8
1ﾀﾞｸﾄｶﾊﾞｰ
100
AcDbLine
 10
549.6254327739339
 20
140.655611848888
 30
0.0
 11
546.1254331315617
 21
140.655611848888
 31
0.0
  0
LINE
  5
15320
330
17
100
AcDbEntity
  8
1ﾀﾞｸﾄｶﾊﾞｰ
100
AcDbLine
 10
546.6254304195504
 20
150.655613488016
 30
0.0
 11
550.6254310752015
 21
150.655613488016
 31
0.0
  0
LINE
  5
15321
330
17
100
AcDbEntity
  8
1ﾀﾞｸﾄｶﾊﾞｰ
100
AcDbLine
 10
545.6254321182828
 20
149.6556133241032
 30
0.0
 11
546.6254304195504
 21
150.655613488016
 31
0.0
  0
LINE
  5
15322
330
17
100
AcDbEntity
  8
1ﾀﾞｸﾄｶﾊﾞｰ
100
AcDbLine
 10
545.6254321182828
 20
140.655611848888
 30
0.0
 11
545.6254321182828
 21
149.6556133241032
 31
0.0
  0
LINE
  5
15323
330
17
100
AcDbEntity
  8
1ﾀﾞｸﾄｶﾊﾞｰ
100
AcDbLine
 10
546.1254331315617
 20
140.655611848888
 30
0.0
 11
545.6254321182828
 21
140.655611848888
 31
0.0
  0
ARC
  5
15324
330
17
100
AcDbEntity
  8
1ﾀﾞｸﾄｶﾊﾞｰ
100
AcDbCircle
 10
550.6254320586781
 20
149.6556131601904
 30
0.0
 40
1.0
100
AcDbArc
 50
0.0
 51
90.0
  0
LINE
  5
15325
330
17
100
AcDbEntity
  8
1ﾀﾞｸﾄｶﾊﾞｰ
100
AcDbLine
 10
585.2254321365367
 20
140.655611848888
 30
0.0
 11
551.6254331017594
 21
140.655611848888
 31
0.0
  0
LINE
  5
15326
330
17
100
AcDbEntity
  8
1ﾀﾞｸﾄｶﾊﾞｰ
100
AcDbLine
 10
551.6254331017594
 20
149.6556133241032
 30
0.0
 11
551.6254331017594
 21
148.9840403408383
 31
0.0
  0
LINE
  5
15327
330
17
100
AcDbEntity
  8
1ﾀﾞｸﾄｶﾊﾞｰ
100
AcDbLine
 10
624.1254310155968
 20
146.1556118190859
 30
0.0
 11
621.7217013199574
 21
146.1556118190859
 31
0.0
  0
LINE
  5
15328
330
17
100
AcDbEntity
  8
1ﾀﾞｸﾄｶﾊﾞｰ
100
AcDbLine
 10
624.1254310155968
 20
140.655611848888
 30
0.0
 11
590.5254319808196
 21
140.655611848888
 31
0.0
  0
LINE
  5
15329
330
17
100
AcDbEntity
  8
1ﾀﾞｸﾄｶﾊﾞｰ
100
AcDbLine
 10
624.1254310155968
 20
146.1556118190859
 30
0.0
 11
624.1254310155968
 21
144.6556125045391
 31
0.0
  0
ARC
  5
1532A
330
17
100
AcDbEntity
  8
1ﾀﾞｸﾄｶﾊﾞｰ
100
AcDbCircle
 10
608.8754320586781
 20
173.1584935672048
 30
0.0
 40
29.90288040701456
100
AcDbArc
 50
270.4790230206727
 51
295.4421605012975
  0
ARC
  5
1532B
330
17
100
AcDbEntity
  8
1ﾀﾞｸﾄｶﾊﾞｰ
100
AcDbCircle
 10
608.8754320586781
 20
173.1584935672048
 30
0.0
 40
28.50288040701458
100
AcDbArc
 50
270.0
 51
301.989985028165
  0
LINE
  5
1532C
330
17
100
AcDbEntity
  8
1ﾀﾞｸﾄｶﾊﾞｰ
100
AcDbLine
 10
624.1254310155968
 20
148.9840403408383
 30
0.0
 11
623.9754321481736
 21
148.9840403408383
 31
0.0
  0
LINE
  5
1532D
330
17
100
AcDbEntity
  8
1ﾀﾞｸﾄｶﾊﾞｰ
100
AcDbLine
 10
587.8754320586781
 20
143.2556151315283
 30
0.0
 11
609.1254330421548
 21
143.2556131367222
 31
0.0
  0
LINE
  5
1532E
330
17
100
AcDbEntity
  8
1ﾀﾞｸﾄｶﾊﾞｰ
100
AcDbLine
 10
590.4396455301653
 20
144.6556125045391
 30
0.0
 11
608.8754320586781
 21
144.6556131601904
 31
0.0
  0
LINE
  5
1532F
330
17
100
AcDbEntity
  8
1ﾀﾞｸﾄｶﾊﾞｰ
100
AcDbLine
 10
629.6254309857945
 20
140.655611848888
 30
0.0
 11
626.1254313434224
 21
140.655611848888
 31
0.0
  0
LINE
  5
15330
330
17
100
AcDbEntity
  8
1ﾀﾞｸﾄｶﾊﾞｰ
100
AcDbLine
 10
624.1254310155968
 20
148.9840403408383
 30
0.0
 11
624.1254310155968
 21
149.6556133241032
 31
0.0
  0
ARC
  5
15331
330
17
100
AcDbEntity
  8
1ﾀﾞｸﾄｶﾊﾞｰ
100
AcDbCircle
 10
625.1254320586781
 20
149.6556131601904
 30
0.0
 40
1.0
100
AcDbArc
 50
90.0
 51
180.0
  0
LINE
  5
15332
330
17
100
AcDbEntity
  8
1ﾀﾞｸﾄｶﾊﾞｰ
100
AcDbLine
 10
625.1254330421548
 20
150.655613488016
 30
0.0
 11
629.1254336978059
 21
150.655613488016
 31
0.0
  0
LINE
  5
15333
330
17
100
AcDbEntity
  8
1ﾀﾞｸﾄｶﾊﾞｰ
100
AcDbLine
 10
630.1254319990735
 20
149.6556133241032
 30
0.0
 11
630.1254319990735
 21
140.655611848888
 31
0.0
  0
LINE
  5
15334
330
17
100
AcDbEntity
  8
1ﾀﾞｸﾄｶﾊﾞｰ
100
AcDbLine
 10
630.1254319990735
 20
140.655611848888
 30
0.0
 11
629.6254309857945
 21
140.655611848888
 31
0.0
  0
LINE
  5
15335
330
17
100
AcDbEntity
  8
1ﾀﾞｸﾄｶﾊﾞｰ
100
AcDbLine
 10
629.1254336978059
 20
150.655613488016
 30
0.0
 11
630.1254319990735
 21
149.6556133241032
 31
0.0
  0
LINE
  5
15336
330
17
100
AcDbEntity
  8
1ﾀﾞｸﾄｶﾊﾞｰ
100
AcDbLine
 10
586.2254320676188
 20
140.655611848888
 30
0.0
 11
585.2254321365367
 21
140.655611848888
 31
0.0
  0
LINE
  5
15337
330
17
100
AcDbEntity
  8
1ﾀﾞｸﾄｶﾊﾞｰ
100
AcDbLine
 10
590.5254319808196
 20
140.655611848888
 30
0.0
 11
589.5254320497374
 21
140.655611848888
 31
0.0
  0
ENDSEC
  0
SECTION
  2
OBJECTS
  0
DICTIONARY
  5
C
330
0
100
AcDbDictionary
281
     1
  3
ACAD_CIP_PREVIOUS_PRODUCT_INFO
350
DDC1
  3
ACAD_COLOR
350
DDA3
  3
ACAD_DETAILVIEWSTYLE
350
F89F
  3
ACAD_GROUP
350
D
  3
ACAD_LAYOUT
350
DDBA
  3
ACAD_MATERIAL
350
DD71
  3
ACAD_MLEADERSTYLE
350
DDB8
  3
ACAD_MLINESTYLE
350
1A
  3
ACAD_PLOTSETTINGS
350
DDBB
  3
ACAD_PLOTSTYLENAME
350
DD6F
  3
ACAD_SCALELIST
350
DDA6
  3
ACAD_SECTIONVIEWSTYLE
350
F89D
  3
ACAD_TABLESTYLE
350
DDA4
  3
ACAD_VISUALSTYLE
350
DD8A
  3
ACDB_RECOMPOSE_DATA
350
15443
  3
ACDBVARIABLEDICTIONARY
350
51
  0
DICTIONARY
  5
DEE4
330
2
100
AcDbDictionary
280
     1
281
     1
  3
ACAD_LAYERSTATES
360
DEE5
  0
DICTIONARY
  5
F85A
330
E
100
AcDbDictionary
280
     1
281
     1
  3
ADSK_XREC_LAYER_RECONCILED
360
F85B
  0
DICTIONARY
  5
F85C
330
40
100
AcDbDictionary
280
     1
281
     1
  3
ADSK_XREC_LAYER_RECONCILED
360
F85D
  0
DICTIONARY
  5
DEE0
330
DEDF
100
AcDbDictionary
280
     1
281
     1
  3
ADSK_XREC_LAYER_RECONCILED
360
F85E
  0
DICTIONARY
  5
E397
330
E396
100
AcDbDictionary
280
     1
281
     1
  3
ADSK_XREC_LAYER_RECONCILED
360
F85F
  0
DICTIONARY
  5
E399
330
E398
100
AcDbDictionary
280
     1
281
     1
  3
ADSK_XREC_LAYER_RECONCILED
360
F860
  0
DICTIONARY
  5
E39B
330
E39A
100
AcDbDictionary
280
     1
281
     1
  3
ADSK_XREC_LAYER_RECONCILED
360
F861
  0
DICTIONARY
  5
E39D
330
E39C
100
AcDbDictionary
280
     1
281
     1
  3
ADSK_XREC_LAYER_RECONCILED
360
F862
  0
DICTIONARY
  5
FAC2
330
FAC1
100
AcDbDictionary
280
     1
281
     1
  0
DICTIONARY
  5
FAC4
330
FAC3
100
AcDbDictionary
280
     1
281
     1
  0
DICTIONARY
  5
FAC6
330
FAC5
100
AcDbDictionary
280
     1
281
     1
  0
DICTIONARY
  5
FAC8
330
FAC7
100
AcDbDictionary
280
     1
281
     1
  0
DICTIONARY
  5
10E24
330
10E23
100
AcDbDictionary
280
     1
281
     1
  0
DICTIONARY
  5
10E26
330
10E25
100
AcDbDictionary
280
     1
281
     1
  0
DICTIONARY
  5
10E28
330
10E27
100
AcDbDictionary
280
     1
281
     1
  0
DICTIONARY
  5
EDD5
330
EDD4
100
AcDbDictionary
280
     1
281
     1
  3
ACAD_SORTENTS
360
EDD6
  0
DICTIONARY
  5
F8A9
330
F8A8
100
AcDbDictionary
280
     1
281
     1
  0
XRECORD
  5
DDC1
102
{ACAD_REACTORS
330
C
102
}
330
C
100
AcDbXrecord
280
     1
300
ACDLT
300
2021
300

  0
DICTIONARY
  5
DDA3
102
{ACAD_REACTORS
330
C
102
}
330
C
100
AcDbDictionary
281
     1
  0
DICTIONARY
  5
F89F
102
{ACAD_REACTORS
330
C
102
}
330
C
100
AcDbDictionary
281
     1
  3
Metric50
350
F8A0
  0
DICTIONARY
  5
D
102
{ACAD_REACTORS
330
C
102
}
330
C
100
AcDbDictionary
281
     1
  0
DICTIONARY
  5
DDBA
102
{ACAD_REACTORS
330
C
102
}
330
C
100
AcDbDictionary
281
     1
  3
Model
350
DDBC
  3
レイアウト1
350
DDBD
  0
DICTIONARY
  5
DD71
102
{ACAD_REACTORS
330
C
102
}
330
C
100
AcDbDictionary
281
     1
  3
ByBlock
350
DD7A
  3
ByLayer
350
DD72
  3
Global
350
DD82
  0
DICTIONARY
  5
DDB8
102
{ACAD_REACTORS
330
C
102
}
330
C
100
AcDbDictionary
281
     1
  3
Standard
350
DDB9
  0
DICTIONARY
  5
1A
102
{ACAD_REACTORS
330
C
102
}
330
C
100
AcDbDictionary
281
     1
  3
STANDARD
350
1B
  0
DICTIONARY
  5
DDBB
102
{ACAD_REACTORS
330
C
102
}
330
C
100
AcDbDictionary
281
     1
  0
ACDBDICTIONARYWDFLT
  5
DD6F
102
{ACAD_REACTORS
330
C
102
}
330
C
100
AcDbDictionary
281
     1
  3
Normal
350
DD70
100
AcDbDictionaryWithDefault
340
DD70
  0
DICTIONARY
  5
DDA6
102
{ACAD_REACTORS
330
C
102
}
330
C
100
AcDbDictionary
281
     1
  3
A0
350
DDA7
  3
A1
350
DDA8
  3
A2
350
DDA9
  3
A3
350
DDAA
  3
A4
350
DDAB
  3
A5
350
DDAC
  3
A6
350
DDAD
  3
A7
350
DDAE
  3
A8
350
DDAF
  3
A9
350
DDB0
  3
B0
350
DDB1
  3
B1
350
DDB2
  3
B2
350
DDB3
  3
B3
350
DDB4
  3
B4
350
DDB5
  3
B5
350
DDB6
  3
B6
350
DDB7
  0
DICTIONARY
  5
F89D
102
{ACAD_REACTORS
330
C
102
}
330
C
100
AcDbDictionary
281
     1
  3
Metric50
350
F89E
  0
DICTIONARY
  5
DDA4
102
{ACAD_REACTORS
330
C
102
}
330
C
100
AcDbDictionary
281
     1
  3
Standard
350
DDA5
  0
DICTIONARY
  5
DD8A
102
{ACAD_REACTORS
330
C
102
}
330
C
100
AcDbDictionary
281
     1
  3
2dWireframe
350
DD90
  3
Basic
350
DD8F
  3
Brighten
350
DD96
  3
ColorChange
350
DD9A
  3
Conceptual
350
DD93
  3
Dim
350
DD95
  3
EdgeColorOff
350
DDA2
  3
Facepattern
350
DD99
  3
Flat
350
DD8B
  3
FlatWithEdges
350
DD8C
  3
Gouraud
350
DD8D
  3
GouraudWithEdges
350
DD8E
  3
Hidden
350
DD92
  3
JitterOff
350
DDA0
  3
Linepattern
350
DD98
  3
OverhangOff
350
DDA1
  3
Realistic
350
DD94
  3
Shaded
350
DD9F
  3
Shaded with edges
350
DD9E
  3
Shades of Gray
350
DD9B
  3
Sketchy
350
DD9C
  3
Thicken
350
DD97
  3
Wireframe
350
DD91
  3
X-Ray
350
DD9D
  0
XRECORD
  5
15443
102
{ACAD_REACTORS
330
C
102
}
330
C
100
AcDbXrecord
280
     1
 90
        1
330
DDA5
  0
DICTIONARY
  5
51
102
{ACAD_REACTORS
330
C
102
}
330
C
100
AcDbDictionary
281
     1
  3
CANNOSCALE
350
F889
  3
CMLEADERSTYLE
350
F887
  3
CTABLESTYLE
350
F886
  3
CVIEWDETAILSTYLE
350
12FD8
  3
CVIEWSECTIONSTYLE
350
12FD9
  3
DIMADEC
350
52
  3
LAYEREVAL
350
F88B
  3
LAYERNOTIFY
350
F88C
  3
LIGHTINGUNITS
350
F88A
  3
MSLTSCALE
350
F888
  3
SORTENTS
350
D1FE
  0
DICTIONARY
  5
DEE5
102
{ACAD_REACTORS
330
DEE4
102
}
330
DEE4
100
AcDbDictionary
281
     1
  0
XRECORD
  5
F85B
102
{ACAD_REACTORS
330
F85A
102
}
330
F85A
100
AcDbXrecord
280
     1
290
     1
  0
XRECORD
  5
F85D
102
{ACAD_REACTORS
330
F85C
102
}
330
F85C
100
AcDbXrecord
280
     1
290
     1
  0
XRECORD
  5
F85E
102
{ACAD_REACTORS
330
DEE0
102
}
330
DEE0
100
AcDbXrecord
280
     1
290
     1
  0
XRECORD
  5
F85F
102
{ACAD_REACTORS
330
E397
102
}
330
E397
100
AcDbXrecord
280
     1
290
     1
  0
XRECORD
  5
F860
102
{ACAD_REACTORS
330
E399
102
}
330
E399
100
AcDbXrecord
280
     1
290
     1
  0
XRECORD
  5
F861
102
{ACAD_REACTORS
330
E39B
102
}
330
E39B
100
AcDbXrecord
280
     1
290
     1
  0
XRECORD
  5
F862
102
{ACAD_REACTORS
330
E39D
102
}
330
E39D
100
AcDbXrecord
280
     1
290
     1
  0
SORTENTSTABLE
  5
EDD6
102
{ACAD_REACTORS
330
EDD5
102
}
330
EDD5
100
AcDbSortentsTable
330
EDD4
331
EE05
  5
2EC
331
EDED
  5
304
331
EDD9
  5
2ED
331
EE06
  5
305
331
EDEE
  5
306
331
EE07
  5
2FD
331
EDDA
  5
2EE
331
EDEF
  5
307
331
EE00
  5
318
331
EDDB
  5
2EF
331
EDE8
  5
2FF
331
EDE9
  5
300
331
EE01
  5
319
331
EE02
  5
31A
331
EDEA
  5
301
331
EE03
  5
2FE
331
EDEB
  5
302
331
EDF4
  5
30C
331
EDF5
  5
30D
331
EDE4
  5
2F9
331
EDFC
  5
314
331
EDE5
  5
2FA
331
EDF6
  5
30E
331
EDFD
  5
315
331
EDF7
  5
30F
331
EDE6
  5
2FB
331
EDFE
  5
316
331
EDF0
  5
308
331
EDE7
  5
2FC
331
EDFF
  5
317
331
EDE0
  5
2F5
331
EDF8
  5
310
331
EDF1
  5
309
331
EDE1
  5
2F6
331
EDF2
  5
30A
331
EDF9
  5
311
331
EDDC
  5
2F0
331
EDF3
  5
30B
331
EDE2
  5
2F7
331
EDDD
  5
2F1
331
EDFA
  5
312
331
EDE3
  5
2F8
331
EDFB
  5
313
331
EDDE
  5
2F2
331
EE04
  5
2F3
331
EDDF
  5
2F4
331
EDEC
  5
303
  0
ACDBDETAILVIEWSTYLE
  5
F8A0
102
{ACAD_REACTORS
330
F89F
102
}
330
F89F
100
AcDbModelDocViewStyle
 70
     0
  3
Metric50
290
     1
300
Metric50
 90
        0
100
AcDbDetailViewStyle
 70
     0
 71
     0
 90
        3
 71
     1
340
F
 62
   256
 40
5.0
340
0
 62
   256
 40
5.0
300

 40
0.0
280
     1
 71
     2
340
13
 90
       25
 62
   256
 71
     3
340
F
 62
   256
 40
5.0
 90
        0
 40
15.0
 90
        1
300
%<\AcVar ViewDetailId>% (%<\AcVar ViewScale \f "%sn">%)
 71
     4
340
13
 90
       25
 62
   256
340
13
 90
       25
 62
   256
280
     0
  0
LAYOUT
  5
DDBC
102
{ACAD_XDICTIONARY
360
F86A
102
}
102
{ACAD_REACTORS
330
DDBA
102
}
330
DDBA
100
AcDbPlotSettings
  1

  2
Canon LBP3920/3970 LIPSLX
  4

  6

 40
0.0
 41
0.0
 42
0.0
 43
0.0
 44
0.0
 45
0.0
 46
0.0
 47
0.0
 48
0.0
 49
0.0
140
0.0
141
0.0
142
1.0
143
1.0
 70
  1712
 72
     0
 73
     0
 74
     0
  7

 75
     0
147
1.0
 76
     0
 77
     2
 78
   300
148
0.0
149
0.0
100
AcDbLayout
  1
Model
 70
     1
 71
     0
 10
0.0
 20
0.0
 11
12.0
 21
9.0
 12
0.0
 22
0.0
 32
0.0
 14
0.0
 24
0.0
 34
0.0
 15
0.0
 25
0.0
 35
0.0
146
0.0
 13
0.0
 23
0.0
 33
0.0
 16
1.0
 26
0.0
 36
0.0
 17
0.0
 27
1.0
 37
0.0
 76
     0
330
17
331
DD6D
  0
LAYOUT
  5
DDBD
102
{ACAD_REACTORS
330
DDBA
102
}
330
DDBA
100
AcDbPlotSettings
  1

  2
Canon LBP3920/3970 LIPSLX
  4

  6

 40
0.0
 41
0.0
 42
0.0
 43
0.0
 44
0.0
 45
0.0
 46
0.0
 47
0.0
 48
0.0
 49
0.0
140
0.0
141
0.0
142
1.0
143
1.0
 70
   688
 72
     0
 73
     0
 74
     5
  7

 75
    16
147
1.0
 76
     0
 77
     2
 78
   300
148
0.0
149
0.0
100
AcDbLayout
  1
レイアウト1
 70
     0
 71
     1
 10
0.0
 20
0.0
 11
12.0
 21
9.0
 12
0.0
 22
0.0
 32
0.0
 14
1.000000000000000E+20
 24
1.000000000000000E+20
 34
1.000000000000000E+20
 15
-1.000000000000000E+20
 25
-1.000000000000000E+20
 35
-1.000000000000000E+20
146
0.0
 13
0.0
 23
0.0
 33
0.0
 16
1.0
 26
0.0
 36
0.0
 17
0.0
 27
1.0
 37
0.0
 76
     0
330
14
  0
MATERIAL
  5
DD7A
102
{ACAD_XDICTIONARY
360
DD7B
102
}
102
{ACAD_REACTORS
330
DD71
102
}
330
DD71
100
AcDbMaterial
  1
ByBlock
 72
     0
 43
0.0208333333333333
 43
0.0
 43
0.0
 43
0.0
 43
0.0
 43
0.0208333333333333
 43
0.0
 43
0.0
 43
0.0
 43
0.0
 43
1.0
 43
0.0
 43
0.0
 43
0.0
 43
0.0
 43
1.0
 77
     0
 47
0.0208333333333333
 47
0.0
 47
0.0
 47
0.0
 47
0.0
 47
0.0208333333333333
 47
0.0
 47
0.0
 47
0.0
 47
0.0
 47
1.0
 47
0.0
 47
0.0
 47
0.0
 47
0.0
 47
1.0
171
     0
 49
0.0208333333333333
 49
0.0
 49
0.0
 49
0.0
 49
0.0
 49
0.0208333333333333
 49
0.0
 49
0.0
 49
0.0
 49
0.0
 49
1.0
 49
0.0
 49
0.0
 49
0.0
 49
0.0
 49
1.0
175
     0
142
0.0208333333333333
142
0.0
142
0.0
142
0.0
142
0.0
142
0.0208333333333333
142
0.0
142
0.0
142
0.0
142
0.0
142
1.0
142
0.0
142
0.0
142
0.0
142
0.0
142
1.0
179
     0
144
0.0208333333333333
144
0.0
144
0.0
144
0.0
144
0.0
144
0.0208333333333333
144
0.0
144
0.0
144
0.0
144
0.0
144
1.0
144
0.0
144
0.0
144
0.0
144
0.0
144
1.0
147
0.0208333333333333
147
0.0
147
0.0
147
0.0
147
0.0
147
0.0208333333333333
147
0.0
147
0.0
147
0.0
147
0.0
147
1.0
147
0.0
147
0.0
147
0.0
147
0.0
147
1.0
  0
MATERIAL
  5
DD72
102
{ACAD_XDICTIONARY
360
DD73
102
}
102
{ACAD_REACTORS
330
DD71
102
}
330
DD71
100
AcDbMaterial
  1
ByLayer
 72
     0
 43
0.0208333333333333
 43
0.0
 43
0.0
 43
0.0
 43
0.0
 43
0.0208333333333333
 43
0.0
 43
0.0
 43
0.0
 43
0.0
 43
1.0
 43
0.0
 43
0.0
 43
0.0
 43
0.0
 43
1.0
 77
     0
 47
0.0208333333333333
 47
0.0
 47
0.0
 47
0.0
 47
0.0
 47
0.0208333333333333
 47
0.0
 47
0.0
 47
0.0
 47
0.0
 47
1.0
 47
0.0
 47
0.0
 47
0.0
 47
0.0
 47
1.0
171
     0
 49
0.0208333333333333
 49
0.0
 49
0.0
 49
0.0
 49
0.0
 49
0.0208333333333333
 49
0.0
 49
0.0
 49
0.0
 49
0.0
 49
1.0
 49
0.0
 49
0.0
 49
0.0
 49
0.0
 49
1.0
175
     0
142
0.0208333333333333
142
0.0
142
0.0
142
0.0
142
0.0
142
0.0208333333333333
142
0.0
142
0.0
142
0.0
142
0.0
142
1.0
142
0.0
142
0.0
142
0.0
142
0.0
142
1.0
179
     0
144
0.0208333333333333
144
0.0
144
0.0
144
0.0
144
0.0
144
0.0208333333333333
144
0.0
144
0.0
144
0.0
144
0.0
144
1.0
144
0.0
144
0.0
144
0.0
144
0.0
144
1.0
147
0.0208333333333333
147
0.0
147
0.0
147
0.0
147
0.0
147
0.0208333333333333
147
0.0
147
0.0
147
0.0
147
0.0
147
1.0
147
0.0
147
0.0
147
0.0
147
0.0
147
1.0
  0
MATERIAL
  5
DD82
102
{ACAD_XDICTIONARY
360
DD83
102
}
102
{ACAD_REACTORS
330
DD71
102
}
330
DD71
100
AcDbMaterial
  1
Global
 72
     0
 43
0.0208333333333333
 43
0.0
 43
0.0
 43
0.0
 43
0.0
 43
0.0208333333333333
 43
0.0
 43
0.0
 43
0.0
 43
0.0
 43
1.0
 43
0.0
 43
0.0
 43
0.0
 43
0.0
 43
1.0
 77
     0
 47
0.0208333333333333
 47
0.0
 47
0.0
 47
0.0
 47
0.0
 47
0.0208333333333333
 47
0.0
 47
0.0
 47
0.0
 47
0.0
 47
1.0
 47
0.0
 47
0.0
 47
0.0
 47
0.0
 47
1.0
171
     0
 49
0.0208333333333333
 49
0.0
 49
0.0
 49
0.0
 49
0.0
 49
0.0208333333333333
 49
0.0
 49
0.0
 49
0.0
 49
0.0
 49
1.0
 49
0.0
 49
0.0
 49
0.0
 49
0.0
 49
1.0
175
     0
142
0.0208333333333333
142
0.0
142
0.0
142
0.0
142
0.0
142
0.0208333333333333
142
0.0
142
0.0
142
0.0
142
0.0
142
1.0
142
0.0
142
0.0
142
0.0
142
0.0
142
1.0
179
     0
144
0.0208333333333333
144
0.0
144
0.0
144
0.0
144
0.0
144
0.0208333333333333
144
0.0
144
0.0
144
0.0
144
0.0
144
1.0
144
0.0
144
0.0
144
0.0
144
0.0
144
1.0
147
0.0208333333333333
147
0.0
147
0.0
147
0.0
147
0.0
147
0.0208333333333333
147
0.0
147
0.0
147
0.0
147
0.0
147
1.0
147
0.0
147
0.0
147
0.0
147
0.0
147
1.0
  0
MLEADERSTYLE
  5
DDB9
102
{ACAD_REACTORS
330
DDB8
102
}
330
DDB8
100
AcDbMLeaderStyle
179
     2
170
     2
171
     1
172
     0
 90
        2
 40
0.0
 41
0.0
173
     1
 91
-1056964608
340
11
 92
       -2
290
     1
 42
2.0
291
     1
 43
0.36
  3
Standard
 44
4.0
300

342
F
174
     1
178
     6
175
     1
176
     0
 93
-1056964608
 45
4.0
292
     0
297
     0
 46
4.0
 94
-1056964608
 47
1.0
 49
1.0
140
1.0
293
     1
141
0.0
294
     1
177
     0
142
1.0
295
     0
296
     0
143
0.125
271
     0
272
     9
273
     9
298
     1
  0
MLINESTYLE
  5
1B
102
{ACAD_REACTORS
330
1A
102
}
330
1A
100
AcDbMlineStyle
  2
STANDARD
 70
     0
  3

 62
   256
 51
90.0
 52
90.0
 71
     2
 49
0.5
 62
   256
  6
BYLAYER
 49
-0.5
 62
   256
  6
BYLAYER
  0
ACDBPLACEHOLDER
  5
DD70
102
{ACAD_REACTORS
330
DD6F
102
}
330
DD6F
  0
SCALE
  5
DDA7
102
{ACAD_REACTORS
330
DDA6
102
}
330
DDA6
100
AcDbScale
 70
     0
300
1:1
140
1.0
141
1.0
290
     1
  0
SCALE
  5
DDA8
102
{ACAD_REACTORS
330
DDA6
102
}
330
DDA6
100
AcDbScale
 70
     0
300
1:2
140
1.0
141
2.0
290
     0
  0
SCALE
  5
DDA9
102
{ACAD_REACTORS
330
DDA6
102
}
330
DDA6
100
AcDbScale
 70
     0
300
1:4
140
1.0
141
4.0
290
     0
  0
SCALE
  5
DDAA
102
{ACAD_REACTORS
330
DDA6
102
}
330
DDA6
100
AcDbScale
 70
     0
300
1:5
140
1.0
141
5.0
290
     0
  0
SCALE
  5
DDAB
102
{ACAD_REACTORS
330
DDA6
102
}
330
DDA6
100
AcDbScale
 70
     0
300
1:8
140
1.0
141
8.0
290
     0
  0
SCALE
  5
DDAC
102
{ACAD_REACTORS
330
DDA6
102
}
330
DDA6
100
AcDbScale
 70
     0
300
1:10
140
1.0
141
10.0
290
     0
  0
SCALE
  5
DDAD
102
{ACAD_REACTORS
330
DDA6
102
}
330
DDA6
100
AcDbScale
 70
     0
300
1:16
140
1.0
141
16.0
290
     0
  0
SCALE
  5
DDAE
102
{ACAD_REACTORS
330
DDA6
102
}
330
DDA6
100
AcDbScale
 70
     0
300
1:20
140
1.0
141
20.0
290
     0
  0
SCALE
  5
DDAF
102
{ACAD_REACTORS
330
DDA6
102
}
330
DDA6
100
AcDbScale
 70
     0
300
1:30
140
1.0
141
30.0
290
     0
  0
SCALE
  5
DDB0
102
{ACAD_REACTORS
330
DDA6
102
}
330
DDA6
100
AcDbScale
 70
     0
300
1:40
140
1.0
141
40.0
290
     0
  0
SCALE
  5
DDB1
102
{ACAD_REACTORS
330
DDA6
102
}
330
DDA6
100
AcDbScale
 70
     0
300
1:50
140
1.0
141
50.0
290
     0
  0
SCALE
  5
DDB2
102
{ACAD_REACTORS
330
DDA6
102
}
330
DDA6
100
AcDbScale
 70
     0
300
1:100
140
1.0
141
100.0
290
     0
  0
SCALE
  5
DDB3
102
{ACAD_REACTORS
330
DDA6
102
}
330
DDA6
100
AcDbScale
 70
     0
300
2:1
140
2.0
141
1.0
290
     0
  0
SCALE
  5
DDB4
102
{ACAD_REACTORS
330
DDA6
102
}
330
DDA6
100
AcDbScale
 70
     0
300
4:1
140
4.0
141
1.0
290
     0
  0
SCALE
  5
DDB5
102
{ACAD_REACTORS
330
DDA6
102
}
330
DDA6
100
AcDbScale
 70
     0
300
8:1
140
8.0
141
1.0
290
     0
  0
SCALE
  5
DDB6
102
{ACAD_REACTORS
330
DDA6
102
}
330
DDA6
100
AcDbScale
 70
     0
300
10:1
140
10.0
141
1.0
290
     0
  0
SCALE
  5
DDB7
102
{ACAD_REACTORS
330
DDA6
102
}
330
DDA6
100
AcDbScale
 70
     0
300
100:1
140
100.0
141
1.0
290
     0
  0
ACDBSECTIONVIEWSTYLE
  5
F89E
102
{ACAD_REACTORS
330
F89D
102
}
330
F89D
100
AcDbModelDocViewStyle
 70
     0
  3
Metric50
290
     1
300
Metric50
 90
        0
100
AcDbSectionViewStyle
 70
     0
 71
     0
 90
      102
 71
     1
340
F
 62
   256
 40
5.0
340
0
340
0
 62
   256
 40
5.0
300
I, O, Q, S, X, Z
 40
10.0
 90
        0
 40
2.5
 90
        0
 71
     2
340
13
 90
       25
 62
   256
340
13
 90
       50
 62
   256
 40
5.0
 40
2.5
 40
5.0
 71
     3
340
F
 62
   256
 40
5.0
 90
        0
 40
15.0
 90
        1
300
%<\AcVar ViewSectionStartId>%-%<\AcVar ViewSectionEndId>% (%<\AcVar ViewScale \f "%sn">%)
 71
     4
 62
   256
 62
   257
300
ANSI31
 40
1.0
 90
        0
290
     0
290
     0
 90
        6
 40
0.0
 40
1.570796326794896
 40
0.2617993877991494
 40
1.308996938995747
 40
-0.2617993877991494
 40
1.832595714594046
  0
TABLESTYLE
  5
DDA5
102
{ACAD_XDICTIONARY
360
15441
102
}
102
{ACAD_REACTORS
330
DDA4
102
}
330
DDA4
100
AcDbTableStyle
280
     0
  3
Standard
 70
     0
 71
     0
 40
1.5
 41
1.5
280
     0
281
     0
  7
STANDARD
140
4.5
170
     2
 62
     0
 63
     7
283
     0
 90
      512
 91
        0
  1

274
    -2
284
     1
 64
     0
275
    -2
285
     1
 65
     0
276
    -2
286
     1
 66
     0
277
    -2
287
     1
 67
     0
278
    -2
288
     1
 68
     0
279
    -2
289
     1
 69
     0
  7
STANDARD
140
6.0
170
     5
 62
     0
 63
     7
283
     0
 90
      512
 91
        0
  1

274
    -2
284
     1
 64
     0
275
    -2
285
     1
 65
     0
276
    -2
286
     1
 66
     0
277
    -2
287
     1
 67
     0
278
    -2
288
     1
 68
     0
279
    -2
289
     1
 69
     0
  7
STANDARD
140
4.5
170
     5
 62
     0
 63
     7
283
     0
 90
      512
 91
        0
  1

274
    -2
284
     1
 64
     0
275
    -2
285
     1
 65
     0
276
    -2
286
     1
 66
     0
277
    -2
287
     1
 67
     0
278
    -2
288
     1
 68
     0
279
    -2
289
     1
 69
     0
  0
VISUALSTYLE
  5
DD90
102
{ACAD_REACTORS
330
DD8A
102
}
330
DD8A
100
AcDbVisualStyle
  2
2dWireframe
 70
     4
177
     3
291
     0
 70
    58
 90
        0
176
     1
 90
        2
176
     1
 90
        0
176
     1
 90
        0
176
     1
 40
0.6
176
     1
 40
30.0
176
     1
 62
     7
420
 16777215
176
     1
 90
        1
176
     1
 90
        4
176
     1
 62
     7
176
     1
 62
   257
176
     1
 90
        1
176
     1
 90
        1
176
     1
 40
1.0
176
     1
 90
        0
176
     1
 62
   257
176
     1
 40
1.0
176
     1
 90
        1
176
     1
 90
        6
176
     1
 90
        2
176
     1
 62
     7
176
     1
 90
        5
176
     1
 90
        0
176
     1
 90
        0
176
     1
290
     0
176
     1
 90
        1
176
     1
 40
0.0
176
     1
 90
        0
176
     1
290
     1
176
     1
290
     1
176
     1
290
     0
176
     1
290
     0
176
     1
290
     0
176
     1
290
     0
176
     1
290
     0
176
     1
290
     0
176
     1
290
     0
176
     1
 90
       50
176
     1
 40
0.0
176
     1
 40
1.0
176
     1
 90
        0
176
     1
 62
    18
420
        0
176
     1
 90
       50
176
     1
 90
        3
176
     1
 62
     5
420
      255
176
     1
290
     0
176
     1
 90
       50
176
     1
 90
       50
176
     1
 90
       50
176
     1
290
     0
176
     1
 90
       50
176
     1
 62
   256
176
     0
 40
1.0
176
     0
 90
        2
176
     1
  1
strokes_ogs.tif
176
     1
290
     0
176
     1
 40
1.0
176
     1
 40
1.0
176
     1
  0
VISUALSTYLE
  5
DD8F
102
{ACAD_REACTORS
330
DD8A
102
}
330
DD8A
100
AcDbVisualStyle
  2
Basic
 70
     7
177
     3
291
     1
 70
    58
 90
        1
176
     1
 90
        0
176
     1
 90
        1
176
     1
 90
        0
176
     1
 40
0.6
176
     1
 40
30.0
176
     1
 62
     7
420
 16777215
176
     1
 90
        0
176
     1
 90
        4
176
     1
 62
     7
176
     1
 62
   257
176
     1
 90
        1
176
     1
 90
        1
176
     1
 40
1.0
176
     1
 90
        8
176
     1
 62
     7
176
     1
 40
1.0
176
     1
 90
        1
176
     1
 90
        6
176
     1
 90
        2
176
     1
 62
     7
176
     1
 90
        5
176
     1
 90
        0
176
     1
 90
        0
176
     1
290
     0
176
     1
 90
        1
176
     1
 40
0.0
176
     1
 90
        0
176
     1
290
     0
176
     1
290
     1
176
     1
290
     1
176
     1
290
     0
176
     1
290
     0
176
     1
290
     0
176
     1
290
     0
176
     1
290
     0
176
     1
290
     0
176
     1
 90
       50
176
     1
 40
0.0
176
     1
 40
1.0
176
     1
 90
        0
176
     1
 62
    18
420
        0
176
     1
 90
       50
176
     1
 90
        3
176
     1
 62
     5
420
      255
176
     1
290
     0
176
     1
 90
       50
176
     1
 90
       50
176
     1
 90
       50
176
     1
290
     0
176
     1
 90
       50
176
     1
 62
   256
176
     0
 40
1.0
176
     0
 90
        2
176
     1
  1
strokes_ogs.tif
176
     1
290
     0
176
     1
 40
1.0
176
     1
 40
1.0
176
     1
  0
VISUALSTYLE
  5
DD96
102
{ACAD_REACTORS
330
DD8A
102
}
330
DD8A
100
AcDbVisualStyle
  2
Brighten
 70
    12
177
     3
291
     1
 70
    58
 90
        2
176
     1
 90
        2
176
     1
 90
        0
176
     1
 90
        0
176
     1
 40
0.6
176
     1
 40
30.0
176
     1
 62
     7
420
 16777215
176
     1
 90
        1
176
     1
 90
        4
176
     1
 62
     7
176
     1
 62
   257
176
     1
 90
        1
176
     1
 90
        1
176
     1
 40
1.0
176
     1
 90
        8
176
     1
 62
     7
176
     1
 40
1.0
176
     1
 90
        1
176
     1
 90
        6
176
     1
 90
        2
176
     1
 62
     7
176
     1
 90
        5
176
     1
 90
        0
176
     1
 90
        0
176
     1
290
     0
176
     1
 90
        1
176
     1
 40
50.0
176
     1
 90
        0
176
     1
290
     0
176
     1
290
     1
176
     1
290
     1
176
     1
290
     0
176
     1
290
     0
176
     1
290
     0
176
     1
290
     0
176
     1
290
     0
176
     1
290
     0
176
     1
 90
       50
176
     1
 40
0.0
176
     1
 40
1.0
176
     1
 90
        0
176
     1
 62
    18
420
        0
176
     1
 90
       50
176
     1
 90
        3
176
     1
 62
     5
420
      255
176
     1
290
     0
176
     1
 90
       50
176
     1
 90
       50
176
     1
 90
       50
176
     1
290
     0
176
     1
 90
       50
176
     1
 62
   256
176
     0
 40
1.0
176
     0
 90
        2
176
     1
  1
strokes_ogs.tif
176
     1
290
     0
176
     1
 40
1.0
176
     1
 40
1.0
176
     1
  0
VISUALSTYLE
  5
DD9A
102
{ACAD_REACTORS
330
DD8A
102
}
330
DD8A
100
AcDbVisualStyle
  2
ColorChange
 70
    16
177
     3
291
     1
 70
    58
 90
        2
176
     1
 90
        2
176
     1
 90
        3
176
     1
 90
        0
176
     1
 40
0.6
176
     1
 40
30.0
176
     1
 62
     8
420
  8421504
176
     1
 90
        1
176
     1
 90
        4
176
     1
 62
     7
176
     1
 62
   257
176
     1
 90
        1
176
     1
 90
        1
176
     1
 40
1.0
176
     1
 90
        8
176
     1
 62
     8
420
  8421504
176
     1
 40
1.0
176
     1
 90
        1
176
     1
 90
        6
176
     1
 90
        2
176
     1
 62
     7
176
     1
 90
        5
176
     1
 90
        0
176
     1
 90
        0
176
     1
290
     0
176
     1
 90
        1
176
     1
 40
0.0
176
     1
 90
        0
176
     1
290
     0
176
     1
290
     1
176
     1
290
     1
176
     1
290
     0
176
     1
290
     0
176
     1
290
     0
176
     1
290
     0
176
     1
290
     0
176
     1
290
     0
176
     1
 90
       50
176
     1
 40
0.0
176
     1
 40
1.0
176
     1
 90
        0
176
     1
 62
    18
420
        0
176
     1
 90
       50
176
     1
 90
        3
176
     1
 62
     5
420
      255
176
     1
290
     0
176
     1
 90
       50
176
     1
 90
       50
176
     1
 90
       50
176
     1
290
     0
176
     1
 90
       50
176
     1
 62
   256
176
     0
 40
1.0
176
     0
 90
        2
176
     1
  1
strokes_ogs.tif
176
     1
290
     0
176
     1
 40
1.0
176
     1
 40
1.0
176
     1
  0
VISUALSTYLE
  5
DD93
102
{ACAD_REACTORS
330
DD8A
102
}
330
DD8A
100
AcDbVisualStyle
  2
Conceptual
 70
     9
177
     3
291
     0
 70
    58
 90
        3
176
     1
 90
        2
176
     1
 90
        0
176
     1
 90
        0
176
     1
 40
0.6
176
     1
 40
30.0
176
     1
 62
     7
420
 16777215
176
     1
 90
        2
176
     1
 90
        2
176
     1
 62
     7
176
     1
 62
   257
176
     1
 90
        1
176
     1
 90
        1
176
     1
 40
179.0
176
     1
 90
        8
176
     1
 62
     7
176
     1
 40
1.0
176
     1
 90
        1
176
     1
 90
        6
176
     1
 90
        2
176
     1
 62
     7
176
     1
 90
        3
176
     1
 90
        0
176
     1
 90
        0
176
     1
290
     0
176
     1
 90
        1
176
     1
 40
0.0
176
     1
 90
        0
176
     1
290
     0
176
     1
290
     1
176
     1
290
     1
176
     1
290
     0
176
     1
290
     0
176
     1
290
     0
176
     1
290
     0
176
     1
290
     0
176
     1
290
     0
176
     1
 90
       50
176
     1
 40
0.0
176
     1
 40
1.0
176
     1
 90
        0
176
     1
 62
    18
420
        0
176
     1
 90
       50
176
     1
 90
        3
176
     1
 62
     5
420
      255
176
     1
290
     0
176
     1
 90
       50
176
     1
 90
       50
176
     1
 90
       50
176
     1
290
     0
176
     1
 90
       50
176
     1
 62
   256
176
     0
 40
1.0
176
     0
 90
        2
176
     1
  1
strokes_ogs.tif
176
     1
290
     0
176
     1
 40
1.0
176
     1
 40
1.0
176
     1
  0
VISUALSTYLE
  5
DD95
102
{ACAD_REACTORS
330
DD8A
102
}
330
DD8A
100
AcDbVisualStyle
  2
Dim
 70
    11
177
     3
291
     1
 70
    58
 90
        2
176
     1
 90
        2
176
     1
 90
        0
176
     1
 90
        0
176
     1
 40
0.6
176
     1
 40
30.0
176
     1
 62
     7
420
 16777215
176
     1
 90
        1
176
     1
 90
        4
176
     1
 62
     7
176
     1
 62
   257
176
     1
 90
        1
176
     1
 90
        1
176
     1
 40
1.0
176
     1
 90
        8
176
     1
 62
     7
176
     1
 40
1.0
176
     1
 90
        1
176
     1
 90
        6
176
     1
 90
        2
176
     1
 62
     7
176
     1
 90
        5
176
     1
 90
        0
176
     1
 90
        0
176
     1
290
     0
176
     1
 90
        1
176
     1
 40
-50.0
176
     1
 90
        0
176
     1
290
     0
176
     1
290
     1
176
     1
290
     1
176
     1
290
     0
176
     1
290
     0
176
     1
290
     0
176
     1
290
     0
176
     1
290
     0
176
     1
290
     0
176
     1
 90
       50
176
     1
 40
0.0
176
     1
 40
1.0
176
     1
 90
        0
176
     1
 62
    18
420
        0
176
     1
 90
       50
176
     1
 90
        3
176
     1
 62
     5
420
      255
176
     1
290
     0
176
     1
 90
       50
176
     1
 90
       50
176
     1
 90
       50
176
     1
290
     0
176
     1
 90
       50
176
     1
 62
   256
176
     0
 40
1.0
176
     0
 90
        2
176
     1
  1
strokes_ogs.tif
176
     1
290
     0
176
     1
 40
1.0
176
     1
 40
1.0
176
     1
  0
VISUALSTYLE
  5
DDA2
102
{ACAD_REACTORS
330
DD8A
102
}
330
DD8A
100
AcDbVisualStyle
  2
EdgeColorOff
 70
    22
177
     3
291
     1
 70
    58
 90
        2
176
     0
 90
        2
176
     0
 90
        0
176
     0
 90
        0
176
     0
 40
0.6
176
     0
 40
30.0
176
     0
 62
     7
420
 16777215
176
     0
 90
        1
176
     0
 90
        4
176
     0
 62
     7
176
     0
 62
   257
176
     0
 90
        1
176
     0
 90
        1
176
     0
 40
1.0
176
     0
 90
        8
176
     2
 62
     7
176
     0
 40
1.0
176
     0
 90
        1
176
     0
 90
        6
176
     0
 90
        2
176
     0
 62
     7
176
     0
 90
        5
176
     0
 90
        0
176
     0
 90
        0
176
     0
290
     0
176
     0
 90
        1
176
     0
 40
0.0
176
     0
 90
        0
176
     0
290
     0
176
     1
290
     1
176
     1
290
     1
176
     1
290
     0
176
     1
290
     0
176
     1
290
     0
176
     1
290
     0
176
     1
290
     0
176
     1
290
     0
176
     1
 90
       50
176
     1
 40
0.0
176
     1
 40
1.0
176
     1
 90
        0
176
     1
 62
    18
420
        0
176
     1
 90
       50
176
     1
 90
        3
176
     1
 62
     5
420
      255
176
     1
290
     0
176
     1
 90
       50
176
     1
 90
       50
176
     1
 90
       50
176
     1
290
     0
176
     1
 90
       50
176
     1
 62
   256
176
     0
 40
1.0
176
     0
 90
        2
176
     1
  1
strokes_ogs.tif
176
     1
290
     0
176
     1
 40
1.0
176
     1
 40
1.0
176
     1
  0
VISUALSTYLE
  5
DD99
102
{ACAD_REACTORS
330
DD8A
102
}
330
DD8A
100
AcDbVisualStyle
  2
Facepattern
 70
    15
177
     3
291
     1
 70
    58
 90
        2
176
     1
 90
        2
176
     1
 90
        0
176
     1
 90
        0
176
     1
 40
0.6
176
     1
 40
30.0
176
     1
 62
     7
420
 16777215
176
     1
 90
        1
176
     1
 90
        4
176
     1
 62
     7
176
     1
 62
   257
176
     1
 90
        1
176
     1
 90
        1
176
     1
 40
1.0
176
     1
 90
        8
176
     1
 62
     7
176
     1
 40
1.0
176
     1
 90
        1
176
     1
 90
        6
176
     1
 90
        2
176
     1
 62
     7
176
     1
 90
        5
176
     1
 90
        0
176
     1
 90
        0
176
     1
290
     0
176
     1
 90
        1
176
     1
 40
0.0
176
     1
 90
        0
176
     1
290
     0
176
     1
290
     1
176
     1
290
     1
176
     1
290
     0
176
     1
290
     0
176
     1
290
     0
176
     1
290
     0
176
     1
290
     0
176
     1
290
     0
176
     1
 90
       50
176
     1
 40
0.0
176
     1
 40
1.0
176
     1
 90
        0
176
     1
 62
    18
420
        0
176
     1
 90
       50
176
     1
 90
        3
176
     1
 62
     5
420
      255
176
     1
290
     0
176
     1
 90
       50
176
     1
 90
       50
176
     1
 90
       50
176
     1
290
     0
176
     1
 90
       50
176
     1
 62
   256
176
     0
 40
1.0
176
     0
 90
        2
176
     1
  1
strokes_ogs.tif
176
     1
290
     0
176
     1
 40
1.0
176
     1
 40
1.0
176
     1
  0
VISUALSTYLE
  5
DD8B
102
{ACAD_REACTORS
330
DD8A
102
}
330
DD8A
100
AcDbVisualStyle
  2
Flat
 70
     0
177
     3
291
     1
 70
    58
 90
        2
176
     1
 90
        1
176
     1
 90
        1
176
     1
 90
        2
176
     1
 40
0.6
176
     1
 40
30.0
176
     1
 62
     7
420
 16777215
176
     1
 90
        0
176
     1
 90
        0
176
     1
 62
     7
176
     1
 62
   257
176
     1
 90
        1
176
     1
 90
        1
176
     1
 40
1.0
176
     1
 90
        8
176
     1
 62
     7
176
     1
 40
1.0
176
     1
 90
        1
176
     1
 90
        6
176
     1
 90
        2
176
     1
 62
     7
176
     1
 90
        5
176
     1
 90
        0
176
     1
 90
        0
176
     1
290
     0
176
     1
 90
       13
176
     1
 40
0.0
176
     1
 90
        0
176
     1
290
     0
176
     1
290
     1
176
     1
290
     1
176
     1
290
     0
176
     1
290
     0
176
     1
290
     0
176
     1
290
     0
176
     1
290
     0
176
     1
290
     0
176
     1
 90
       50
176
     1
 40
0.0
176
     1
 40
1.0
176
     1
 90
        0
176
     1
 62
    18
420
        0
176
     1
 90
       50
176
     1
 90
        3
176
     1
 62
     5
420
      255
176
     1
290
     0
176
     1
 90
       50
176
     1
 90
       50
176
     1
 90
       50
176
     1
290
     0
176
     1
 90
       50
176
     1
 62
   256
176
     0
 40
1.0
176
     0
 90
        2
176
     1
  1
strokes_ogs.tif
176
     1
290
     0
176
     1
 40
1.0
176
     1
 40
1.0
176
     1
  0
VISUALSTYLE
  5
DD8C
102
{ACAD_REACTORS
330
DD8A
102
}
330
DD8A
100
AcDbVisualStyle
  2
FlatWithEdges
 70
     1
177
     3
291
     1
 70
    58
 90
        2
176
     1
 90
        1
176
     1
 90
        1
176
     1
 90
        2
176
     1
 40
0.6
176
     1
 40
30.0
176
     1
 62
     7
420
 16777215
176
     1
 90
        1
176
     1
 90
        0
176
     1
 62
     7
176
     1
 62
   257
176
     1
 90
        1
176
     1
 90
        1
176
     1
 40
1.0
176
     1
 90
        0
176
     1
 62
   257
176
     1
 40
1.0
176
     1
 90
        1
176
     1
 90
        6
176
     1
 90
        2
176
     1
 62
     7
176
     1
 90
        5
176
     1
 90
        0
176
     1
 90
        0
176
     1
290
     0
176
     1
 90
       13
176
     1
 40
0.0
176
     1
 90
        0
176
     1
290
     0
176
     1
290
     1
176
     1
290
     1
176
     1
290
     0
176
     1
290
     0
176
     1
290
     0
176
     1
290
     0
176
     1
290
     0
176
     1
290
     0
176
     1
 90
       50
176
     1
 40
0.0
176
     1
 40
1.0
176
     1
 90
        0
176
     1
 62
    18
420
        0
176
     1
 90
       50
176
     1
 90
        3
176
     1
 62
     5
420
      255
176
     1
290
     0
176
     1
 90
       50
176
     1
 90
       50
176
     1
 90
       50
176
     1
290
     0
176
     1
 90
       50
176
     1
 62
   256
176
     0
 40
1.0
176
     0
 90
        2
176
     1
  1
strokes_ogs.tif
176
     1
290
     0
176
     1
 40
1.0
176
     1
 40
1.0
176
     1
  0
VISUALSTYLE
  5
DD8D
102
{ACAD_REACTORS
330
DD8A
102
}
330
DD8A
100
AcDbVisualStyle
  2
Gouraud
 70
     2
177
     3
291
     1
 70
    58
 90
        2
176
     1
 90
        2
176
     1
 90
        1
176
     1
 90
        2
176
     1
 40
0.6
176
     1
 40
30.0
176
     1
 62
     7
420
 16777215
176
     1
 90
        0
176
     1
 90
        0
176
     1
 62
     7
176
     1
 62
   257
176
     1
 90
        1
176
     1
 90
        1
176
     1
 40
1.0
176
     1
 90
        0
176
     1
 62
     7
176
     1
 40
1.0
176
     1
 90
        1
176
     1
 90
        6
176
     1
 90
        2
176
     1
 62
     7
176
     1
 90
        5
176
     1
 90
        0
176
     1
 90
        0
176
     1
290
     0
176
     1
 90
       13
176
     1
 40
0.0
176
     1
 90
        0
176
     1
290
     0
176
     1
290
     1
176
     1
290
     1
176
     1
290
     0
176
     1
290
     0
176
     1
290
     0
176
     1
290
     0
176
     1
290
     0
176
     1
290
     0
176
     1
 90
       50
176
     1
 40
0.0
176
     1
 40
1.0
176
     1
 90
        0
176
     1
 62
    18
420
        0
176
     1
 90
       50
176
     1
 90
        3
176
     1
 62
     5
420
      255
176
     1
290
     0
176
     1
 90
       50
176
     1
 90
       50
176
     1
 90
       50
176
     1
290
     0
176
     1
 90
       50
176
     1
 62
   256
176
     0
 40
1.0
176
     0
 90
        2
176
     1
  1
strokes_ogs.tif
176
     1
290
     0
176
     1
 40
1.0
176
     1
 40
1.0
176
     1
  0
VISUALSTYLE
  5
DD8E
102
{ACAD_REACTORS
330
DD8A
102
}
330
DD8A
100
AcDbVisualStyle
  2
GouraudWithEdges
 70
     3
177
     3
291
     1
 70
    58
 90
        2
176
     1
 90
        2
176
     1
 90
        1
176
     1
 90
        2
176
     1
 40
0.6
176
     1
 40
30.0
176
     1
 62
     7
420
 16777215
176
     1
 90
        1
176
     1
 90
        0
176
     1
 62
     7
176
     1
 62
   257
176
     1
 90
        1
176
     1
 90
        1
176
     1
 40
1.0
176
     1
 90
        0
176
     1
 62
   257
176
     1
 40
1.0
176
     1
 90
        1
176
     1
 90
        6
176
     1
 90
        2
176
     1
 62
     7
176
     1
 90
        5
176
     1
 90
        0
176
     1
 90
        0
176
     1
290
     0
176
     1
 90
       13
176
     1
 40
0.0
176
     1
 90
        0
176
     1
290
     0
176
     1
290
     1
176
     1
290
     1
176
     1
290
     0
176
     1
290
     0
176
     1
290
     0
176
     1
290
     0
176
     1
290
     0
176
     1
290
     0
176
     1
 90
       50
176
     1
 40
0.0
176
     1
 40
1.0
176
     1
 90
        0
176
     1
 62
    18
420
        0
176
     1
 90
       50
176
     1
 90
        3
176
     1
 62
     5
420
      255
176
     1
290
     0
176
     1
 90
       50
176
     1
 90
       50
176
     1
 90
       50
176
     1
290
     0
176
     1
 90
       50
176
     1
 62
   256
176
     0
 40
1.0
176
     0
 90
        2
176
     1
  1
strokes_ogs.tif
176
     1
290
     0
176
     1
 40
1.0
176
     1
 40
1.0
176
     1
  0
VISUALSTYLE
  5
DD92
102
{ACAD_REACTORS
330
DD8A
102
}
330
DD8A
100
AcDbVisualStyle
  2
Hidden
 70
     6
177
     3
291
     0
 70
    58
 90
        1
176
     1
 90
        2
176
     1
 90
        2
176
     1
 90
        0
176
     1
 40
0.6
176
     1
 40
30.0
176
     1
 62
     7
420
 16777215
176
     1
 90
        2
176
     1
 90
        2
176
     1
 62
     7
176
     1
 62
   257
176
     1
 90
        2
176
     1
 90
        1
176
     1
 40
40.0
176
     1
 90
        0
176
     1
 62
   257
176
     1
 40
1.0
176
     1
 90
        1
176
     1
 90
        6
176
     1
 90
        2
176
     1
 62
     7
176
     1
 90
        3
176
     1
 90
        0
176
     1
 90
        0
176
     1
290
     0
176
     1
 90
        1
176
     1
 40
0.0
176
     1
 90
        0
176
     1
290
     0
176
     1
290
     1
176
     1
290
     1
176
     1
290
     0
176
     1
290
     0
176
     1
290
     0
176
     1
290
     0
176
     1
290
     0
176
     1
290
     0
176
     1
 90
       50
176
     1
 40
0.0
176
     1
 40
1.0
176
     1
 90
        0
176
     1
 62
    18
420
        0
176
     1
 90
       50
176
     1
 90
        3
176
     1
 62
     5
420
      255
176
     1
290
     0
176
     1
 90
       50
176
     1
 90
       50
176
     1
 90
       50
176
     1
290
     0
176
     1
 90
       50
176
     1
 62
   256
176
     0
 40
1.0
176
     0
 90
        2
176
     1
  1
strokes_ogs.tif
176
     1
290
     0
176
     1
 40
1.0
176
     1
 40
1.0
176
     1
  0
VISUALSTYLE
  5
DDA0
102
{ACAD_REACTORS
330
DD8A
102
}
330
DD8A
100
AcDbVisualStyle
  2
JitterOff
 70
    20
177
     3
291
     1
 70
    58
 90
        2
176
     0
 90
        2
176
     0
 90
        0
176
     0
 90
        0
176
     0
 40
0.6
176
     0
 40
30.0
176
     0
 62
     7
420
 16777215
176
     0
 90
        1
176
     0
 90
        4
176
     0
 62
     7
176
     0
 62
   257
176
     0
 90
        1
176
     0
 90
        1
176
     0
 40
1.0
176
     0
 90
       10
176
     2
 62
     7
176
     0
 40
1.0
176
     0
 90
        1
176
     0
 90
        6
176
     0
 90
        2
176
     0
 62
     7
176
     0
 90
        5
176
     0
 90
        0
176
     0
 90
        0
176
     0
290
     0
176
     0
 90
        1
176
     0
 40
0.0
176
     0
 90
        0
176
     0
290
     0
176
     1
290
     1
176
     1
290
     1
176
     1
290
     0
176
     1
290
     0
176
     1
290
     0
176
     1
290
     0
176
     1
290
     0
176
     1
290
     0
176
     1
 90
       50
176
     1
 40
0.0
176
     1
 40
1.0
176
     1
 90
        0
176
     1
 62
    18
420
        0
176
     1
 90
       50
176
     1
 90
        3
176
     1
 62
     5
420
      255
176
     1
290
     0
176
     1
 90
       50
176
     1
 90
       50
176
     1
 90
       50
176
     1
290
     0
176
     1
 90
       50
176
     1
 62
   256
176
     0
 40
1.0
176
     0
 90
        2
176
     1
  1
strokes_ogs.tif
176
     1
290
     0
176
     1
 40
1.0
176
     1
 40
1.0
176
     1
  0
VISUALSTYLE
  5
DD98
102
{ACAD_REACTORS
330
DD8A
102
}
330
DD8A
100
AcDbVisualStyle
  2
Linepattern
 70
    14
177
     3
291
     1
 70
    58
 90
        2
176
     1
 90
        2
176
     1
 90
        0
176
     1
 90
        0
176
     1
 40
0.6
176
     1
 40
30.0
176
     1
 62
     7
420
 16777215
176
     1
 90
        1
176
     1
 90
        4
176
     1
 62
     7
176
     1
 62
   257
176
     1
 90
        7
176
     1
 90
        7
176
     1
 40
1.0
176
     1
 90
        8
176
     1
 62
     7
176
     1
 40
1.0
176
     1
 90
        1
176
     1
 90
        6
176
     1
 90
        2
176
     1
 62
     7
176
     1
 90
        5
176
     1
 90
        0
176
     1
 90
        0
176
     1
290
     0
176
     1
 90
        1
176
     1
 40
0.0
176
     1
 90
        0
176
     1
290
     0
176
     1
290
     1
176
     1
290
     1
176
     1
290
     0
176
     1
290
     0
176
     1
290
     0
176
     1
290
     0
176
     1
290
     0
176
     1
290
     0
176
     1
 90
       50
176
     1
 40
0.0
176
     1
 40
1.0
176
     1
 90
        0
176
     1
 62
    18
420
        0
176
     1
 90
       50
176
     1
 90
        3
176
     1
 62
     5
420
      255
176
     1
290
     0
176
     1
 90
       50
176
     1
 90
       50
176
     1
 90
       50
176
     1
290
     0
176
     1
 90
       50
176
     1
 62
   256
176
     0
 40
1.0
176
     0
 90
        2
176
     1
  1
strokes_ogs.tif
176
     1
290
     0
176
     1
 40
1.0
176
     1
 40
1.0
176
     1
  0
VISUALSTYLE
  5
DDA1
102
{ACAD_REACTORS
330
DD8A
102
}
330
DD8A
100
AcDbVisualStyle
  2
OverhangOff
 70
    21
177
     3
291
     1
 70
    58
 90
        2
176
     0
 90
        2
176
     0
 90
        0
176
     0
 90
        0
176
     0
 40
0.6
176
     0
 40
30.0
176
     0
 62
     7
420
 16777215
176
     0
 90
        1
176
     0
 90
        4
176
     0
 62
     7
176
     0
 62
   257
176
     0
 90
        1
176
     0
 90
        1
176
     0
 40
1.0
176
     0
 90
        9
176
     2
 62
     7
176
     0
 40
1.0
176
     0
 90
        1
176
     0
 90
        6
176
     0
 90
        2
176
     0
 62
     7
176
     0
 90
        5
176
     0
 90
        0
176
     0
 90
        0
176
     0
290
     0
176
     0
 90
        1
176
     0
 40
0.0
176
     0
 90
        0
176
     0
290
     0
176
     1
290
     1
176
     1
290
     1
176
     1
290
     0
176
     1
290
     0
176
     1
290
     0
176
     1
290
     0
176
     1
290
     0
176
     1
290
     0
176
     1
 90
       50
176
     1
 40
0.0
176
     1
 40
1.0
176
     1
 90
        0
176
     1
 62
    18
420
        0
176
     1
 90
       50
176
     1
 90
        3
176
     1
 62
     5
420
      255
176
     1
290
     0
176
     1
 90
       50
176
     1
 90
       50
176
     1
 90
       50
176
     1
290
     0
176
     1
 90
       50
176
     1
 62
   256
176
     0
 40
1.0
176
     0
 90
        2
176
     1
  1
strokes_ogs.tif
176
     1
290
     0
176
     1
 40
1.0
176
     1
 40
1.0
176
     1
  0
VISUALSTYLE
  5
DD94
102
{ACAD_REACTORS
330
DD8A
102
}
330
DD8A
100
AcDbVisualStyle
  2
Realistic
 70
     8
177
     3
291
     0
 70
    58
 90
        2
176
     1
 90
        3
176
     1
 90
        0
176
     1
 90
        2
176
     1
 40
0.6
176
     1
 40
30.0
176
     1
 62
     7
420
 16777215
176
     1
 90
        0
176
     1
 90
        0
176
     1
 62
     7
176
     1
 62
   257
176
     1
 90
        1
176
     1
 90
        1
176
     1
 40
1.0
176
     1
 90
        8
176
     1
 62
   257
176
     1
 40
1.0
176
     1
 90
        1
176
     1
 90
        6
176
     1
 90
        2
176
     1
 62
     7
176
     1
 90
        3
176
     1
 90
        0
176
     1
 90
        0
176
     1
290
     0
176
     1
 90
       13
176
     1
 40
0.0
176
     1
 90
        0
176
     1
290
     0
176
     1
290
     1
176
     1
290
     1
176
     1
290
     0
176
     1
290
     0
176
     1
290
     0
176
     1
290
     0
176
     1
290
     0
176
     1
290
     0
176
     1
 90
       50
176
     1
 40
0.0
176
     1
 40
1.0
176
     1
 90
        0
176
     1
 62
    18
420
        0
176
     1
 90
       50
176
     1
 90
        3
176
     1
 62
     5
420
      255
176
     1
290
     0
176
     1
 90
       50
176
     1
 90
       50
176
     1
 90
       50
176
     1
290
     0
176
     1
 90
       50
176
     1
 62
   256
176
     0
 40
1.0
176
     0
 90
        2
176
     1
  1
strokes_ogs.tif
176
     1
290
     0
176
     1
 40
1.0
176
     1
 40
1.0
176
     1
  0
VISUALSTYLE
  5
DD9F
102
{ACAD_REACTORS
330
DD8A
102
}
330
DD8A
100
AcDbVisualStyle
  2
Shaded
 70
    27
177
     3
291
     0
 70
    58
 90
        2
176
     1
 90
        2
176
     1
 90
        1
176
     1
 90
        2
176
     1
 40
0.6
176
     1
 40
30.0
176
     1
 62
     7
420
 16777215
176
     1
 90
        0
176
     1
 90
        4
176
     1
 62
     7
176
     1
 62
   257
176
     1
 90
        1
176
     1
 90
        1
176
     1
 40
1.0
176
     1
 90
        8
176
     1
 62
   257
176
     1
 40
1.0
176
     1
 90
        1
176
     1
 90
        6
176
     1
 90
        2
176
     1
 62
     8
420
  7895160
176
     1
 90
        3
176
     1
 90
        0
176
     1
 90
        0
176
     1
290
     0
176
     1
 90
        5
176
     1
 40
0.0
176
     1
 90
        0
176
     1
290
     0
176
     1
290
     1
176
     1
290
     1
176
     1
290
     0
176
     1
290
     0
176
     1
290
     0
176
     1
290
     0
176
     1
290
     0
176
     1
290
     0
176
     1
 90
       50
176
     1
 40
0.0
176
     1
 40
1.0
176
     1
 90
        0
176
     1
 62
    18
420
        0
176
     1
 90
       50
176
     1
 90
        3
176
     1
 62
     5
420
      255
176
     1
290
     0
176
     1
 90
       50
176
     1
 90
       50
176
     1
 90
       50
176
     1
290
     0
176
     1
 90
       50
176
     1
 62
   256
176
     0
 40
1.0
176
     0
 90
        2
176
     1
  1
strokes_ogs.tif
176
     1
290
     0
176
     1
 40
1.0
176
     1
 40
1.0
176
     1
  0
VISUALSTYLE
  5
DD9E
102
{ACAD_REACTORS
330
DD8A
102
}
330
DD8A
100
AcDbVisualStyle
  2
Shaded with edges
 70
    26
177
     3
291
     0
 70
    58
 90
        2
176
     1
 90
        2
176
     1
 90
        1
176
     1
 90
        2
176
     1
 40
0.6
176
     1
 40
30.0
176
     1
 62
     7
420
 16777215
176
     1
 90
        1
176
     1
 90
        2
176
     1
 62
     7
176
     1
 62
   257
176
     1
 90
        2
176
     1
 90
        1
176
     1
 40
1.0
176
     1
 90
        8
176
     1
 62
   257
176
     1
 40
1.0
176
     1
 90
        1
176
     1
 90
        6
176
     1
 90
        2
176
     1
 62
     7
176
     1
 90
        3
176
     1
 90
        0
176
     1
 90
        0
176
     1
290
     0
176
     1
 90
        5
176
     1
 40
0.0
176
     1
 90
        0
176
     1
290
     0
176
     1
290
     1
176
     1
290
     1
176
     1
290
     0
176
     1
290
     0
176
     1
290
     0
176
     1
290
     0
176
     1
290
     0
176
     1
290
     0
176
     1
 90
       50
176
     1
 40
0.0
176
     1
 40
1.0
176
     1
 90
        0
176
     1
 62
    18
420
        0
176
     1
 90
       50
176
     1
 90
        3
176
     1
 62
     5
420
      255
176
     1
290
     0
176
     1
 90
       50
176
     1
 90
       50
176
     1
 90
       50
176
     1
290
     0
176
     1
 90
       50
176
     1
 62
   256
176
     0
 40
1.0
176
     0
 90
        2
176
     1
  1
strokes_ogs.tif
176
     1
290
     0
176
     1
 40
1.0
176
     1
 40
1.0
176
     1
  0
VISUALSTYLE
  5
DD9B
102
{ACAD_REACTORS
330
DD8A
102
}
330
DD8A
100
AcDbVisualStyle
  2
Shades of Gray
 70
    23
177
     3
291
     0
 70
    58
 90
        2
176
     1
 90
        2
176
     1
 90
        3
176
     1
 90
        0
176
     1
 40
0.6
176
     1
 40
30.0
176
     1
 62
     7
420
 16777215
176
     1
 90
        2
176
     1
 90
        2
176
     1
 62
     7
176
     1
 62
     7
176
     1
 90
        1
176
     1
 90
        1
176
     1
 40
40.0
176
     1
 90
        8
176
     1
 62
     7
176
     1
 40
1.0
176
     1
 90
        1
176
     1
 90
        6
176
     1
 90
        2
176
     1
 62
     7
176
     1
 90
        3
176
     1
 90
        0
176
     1
 90
        0
176
     1
290
     0
176
     1
 90
        1
176
     1
 40
0.0
176
     1
 90
        0
176
     1
290
     0
176
     1
290
     1
176
     1
290
     1
176
     1
290
     0
176
     1
290
     0
176
     1
290
     0
176
     1
290
     0
176
     1
290
     0
176
     1
290
     0
176
     1
 90
       50
176
     1
 40
0.0
176
     1
 40
1.0
176
     1
 90
        0
176
     1
 62
    18
420
        0
176
     1
 90
       50
176
     1
 90
        3
176
     1
 62
     5
420
      255
176
     1
290
     0
176
     1
 90
       50
176
     1
 90
       50
176
     1
 90
       50
176
     1
290
     0
176
     1
 90
       50
176
     1
 62
   256
176
     0
 40
1.0
176
     0
 90
        2
176
     1
  1
strokes_ogs.tif
176
     1
290
     0
176
     1
 40
1.0
176
     1
 40
1.0
176
     1
  0
VISUALSTYLE
  5
DD9C
102
{ACAD_REACTORS
330
DD8A
102
}
330
DD8A
100
AcDbVisualStyle
  2
Sketchy
 70
    24
177
     3
291
     0
 70
    58
 90
        1
176
     1
 90
        2
176
     1
 90
        2
176
     1
 90
        0
176
     1
 40
0.6
176
     1
 40
30.0
176
     1
 62
     7
420
 16777215
176
     1
 90
        2
176
     1
 90
        2
176
     1
 62
     7
176
     1
 62
     7
176
     1
 90
        1
176
     1
 90
        1
176
     1
 40
40.0
176
     1
 90
       11
176
     1
 62
     7
176
     1
 40
1.0
176
     1
 90
        1
176
     1
 90
        6
176
     1
 90
        2
176
     1
 62
     7
176
     1
 90
        6
176
     1
 90
        0
176
     1
 90
        0
176
     1
290
     0
176
     1
 90
        1
176
     1
 40
0.0
176
     1
 90
        0
176
     1
290
     0
176
     1
290
     1
176
     1
290
     1
176
     1
290
     0
176
     1
290
     0
176
     1
290
     0
176
     1
290
     0
176
     1
290
     0
176
     1
290
     0
176
     1
 90
       50
176
     1
 40
0.0
176
     1
 40
1.0
176
     1
 90
        0
176
     1
 62
    18
420
        0
176
     1
 90
       50
176
     1
 90
        3
176
     1
 62
     5
420
      255
176
     1
290
     0
176
     1
 90
       50
176
     1
 90
       50
176
     1
 90
       50
176
     1
290
     0
176
     1
 90
       50
176
     1
 62
   256
176
     0
 40
1.0
176
     0
 90
        2
176
     1
  1
strokes_ogs.tif
176
     1
290
     0
176
     1
 40
1.0
176
     1
 40
1.0
176
     1
  0
VISUALSTYLE
  5
DD97
102
{ACAD_REACTORS
330
DD8A
102
}
330
DD8A
100
AcDbVisualStyle
  2
Thicken
 70
    13
177
     3
291
     1
 70
    58
 90
        2
176
     1
 90
        2
176
     1
 90
        0
176
     1
 90
        0
176
     1
 40
0.6
176
     1
 40
30.0
176
     1
 62
     7
420
 16777215
176
     1
 90
        1
176
     1
 90
        4
176
     1
 62
     7
176
     1
 62
   257
176
     1
 90
        1
176
     1
 90
        1
176
     1
 40
1.0
176
     1
 90
       12
176
     1
 62
     7
176
     1
 40
1.0
176
     1
 90
        1
176
     1
 90
        6
176
     1
 90
        2
176
     1
 62
     7
176
     1
 90
        5
176
     1
 90
        0
176
     1
 90
        0
176
     1
290
     0
176
     1
 90
        1
176
     1
 40
0.0
176
     1
 90
        0
176
     1
290
     0
176
     1
290
     1
176
     1
290
     1
176
     1
290
     0
176
     1
290
     0
176
     1
290
     0
176
     1
290
     0
176
     1
290
     0
176
     1
290
     0
176
     1
 90
       50
176
     1
 40
0.0
176
     1
 40
1.0
176
     1
 90
        0
176
     1
 62
    18
420
        0
176
     1
 90
       50
176
     1
 90
        3
176
     1
 62
     5
420
      255
176
     1
290
     0
176
     1
 90
       50
176
     1
 90
       50
176
     1
 90
       50
176
     1
290
     0
176
     1
 90
       50
176
     1
 62
   256
176
     0
 40
1.0
176
     0
 90
        2
176
     1
  1
strokes_ogs.tif
176
     1
290
     0
176
     1
 40
1.0
176
     1
 40
1.0
176
     1
  0
VISUALSTYLE
  5
DD91
102
{ACAD_REACTORS
330
DD8A
102
}
330
DD8A
100
AcDbVisualStyle
  2
Wireframe
 70
     5
177
     3
291
     0
 70
    58
 90
        0
176
     1
 90
        2
176
     1
 90
        0
176
     1
 90
        0
176
     1
 40
0.6
176
     1
 40
30.0
176
     1
 62
     7
420
 16777215
176
     1
 90
        1
176
     1
 90
        4
176
     1
 62
     7
176
     1
 62
   257
176
     1
 90
        1
176
     1
 90
        1
176
     1
 40
1.0
176
     1
 90
        0
176
     1
 62
   257
176
     1
 40
1.0
176
     1
 90
        1
176
     1
 90
        6
176
     1
 90
        2
176
     1
 62
     7
176
     1
 90
        3
176
     1
 90
        0
176
     1
 90
        0
176
     1
290
     0
176
     1
 90
        1
176
     1
 40
0.0
176
     1
 90
        0
176
     1
290
     0
176
     1
290
     1
176
     1
290
     1
176
     1
290
     0
176
     1
290
     0
176
     1
290
     0
176
     1
290
     0
176
     1
290
     0
176
     1
290
     0
176
     1
 90
       50
176
     1
 40
0.0
176
     1
 40
1.0
176
     1
 90
        0
176
     1
 62
    18
420
        0
176
     1
 90
       50
176
     1
 90
        3
176
     1
 62
     5
420
      255
176
     1
290
     0
176
     1
 90
       50
176
     1
 90
       50
176
     1
 90
       50
176
     1
290
     0
176
     1
 90
       50
176
     1
 62
   256
176
     0
 40
1.0
176
     0
 90
        2
176
     1
  1
strokes_ogs.tif
176
     1
290
     0
176
     1
 40
1.0
176
     1
 40
1.0
176
     1
  0
VISUALSTYLE
  5
DD9D
102
{ACAD_REACTORS
330
DD8A
102
}
330
DD8A
100
AcDbVisualStyle
  2
X-Ray
 70
    25
177
     3
291
     0
 70
    58
 90
        2
176
     1
 90
        2
176
     1
 90
        1
176
     1
 90
        1
176
     1
 40
0.5
176
     1
 40
30.0
176
     1
 62
     7
420
 16777215
176
     1
 90
        1
176
     1
 90
        0
176
     1
 62
     7
176
     1
 62
   257
176
     1
 90
        1
176
     1
 90
        1
176
     1
 40
1.0
176
     1
 90
        8
176
     1
 62
     7
176
     1
 40
1.0
176
     1
 90
        1
176
     1
 90
        6
176
     1
 90
        2
176
     1
 62
     7
176
     1
 90
        3
176
     1
 90
        0
176
     1
 90
        0
176
     1
290
     0
176
     1
 90
       13
176
     1
 40
0.0
176
     1
 90
        0
176
     1
290
     0
176
     1
290
     1
176
     1
290
     1
176
     1
290
     0
176
     1
290
     0
176
     1
290
     0
176
     1
290
     0
176
     1
290
     0
176
     1
290
     0
176
     1
 90
       50
176
     1
 40
0.0
176
     1
 40
1.0
176
     1
 90
        0
176
     1
 62
    18
420
        0
176
     1
 90
       50
176
     1
 90
        3
176
     1
 62
     5
420
      255
176
     1
290
     0
176
     1
 90
       50
176
     1
 90
       50
176
     1
 90
       50
176
     1
290
     0
176
     1
 90
       50
176
     1
 62
   256
176
     0
 40
1.0
176
     0
 90
        2
176
     1
  1
strokes_ogs.tif
176
     1
290
     0
176
     1
 40
1.0
176
     1
 40
1.0
176
     1
  0
DICTIONARYVAR
  5
F889
102
{ACAD_REACTORS
330
51
102
}
330
51
100
DictionaryVariables
280
     0
  1
1:1
  0
DICTIONARYVAR
  5
F887
102
{ACAD_REACTORS
330
51
102
}
330
51
100
DictionaryVariables
280
     0
  1
STANDARD
  0
DICTIONARYVAR
  5
F886
102
{ACAD_REACTORS
330
51
102
}
330
51
100
DictionaryVariables
280
     0
  1
STANDARD
  0
DICTIONARYVAR
  5
12FD8
102
{ACAD_REACTORS
330
51
102
}
330
51
100
DictionaryVariables
280
     0
  1
Metric50
  0
DICTIONARYVAR
  5
12FD9
102
{ACAD_REACTORS
330
51
102
}
330
51
100
DictionaryVariables
280
     0
  1
Metric50
  0
DICTIONARYVAR
  5
52
102
{ACAD_REACTORS
330
51
102
}
330
51
100
DictionaryVariables
280
     0
  1
0
  0
DICTIONARYVAR
  5
F88B
102
{ACAD_REACTORS
330
51
102
}
330
51
100
DictionaryVariables
280
     0
  1
1
  0
DICTIONARYVAR
  5
F88C
102
{ACAD_REACTORS
330
51
102
}
330
51
100
DictionaryVariables
280
     0
  1
15
  0
DICTIONARYVAR
  5
F88A
102
{ACAD_REACTORS
330
51
102
}
330
51
100
DictionaryVariables
280
     0
  1
0
  0
DICTIONARYVAR
  5
F888
102
{ACAD_REACTORS
330
51
102
}
330
51
100
DictionaryVariables
280
     0
  1
0
  0
DICTIONARYVAR
  5
D1FE
102
{ACAD_REACTORS
330
51
102
}
330
51
100
DictionaryVariables
280
     0
  1
96
  0
DICTIONARY
  5
F86A
330
DDBC
100
AcDbDictionary
280
     1
281
     1
  0
DICTIONARY
  5
DD7B
330
DD7A
100
AcDbDictionary
280
     1
281
     1
  3
BUMPTILE
360
DD7D
  3
DIFFUSETILE
360
DD7C
  3
OPACITYTILE
360
DD80
  3
REFLECTIONTILE
360
DD7F
  3
REFRACTIONTILE
360
DD81
  3
SPECULARTILE
360
DD7E
  0
DICTIONARY
  5
DD73
330
DD72
100
AcDbDictionary
280
     1
281
     1
  3
BUMPTILE
360
DD75
  3
DIFFUSETILE
360
DD74
  3
OPACITYTILE
360
DD78
  3
REFLECTIONTILE
360
DD77
  3
REFRACTIONTILE
360
DD79
  3
SPECULARTILE
360
DD76
  0
DICTIONARY
  5
DD83
330
DD82
100
AcDbDictionary
280
     1
281
     1
  3
BUMPTILE
360
DD85
  3
DIFFUSETILE
360
DD84
  3
OPACITYTILE
360
DD88
  3
REFLECTIONTILE
360
DD87
  3
REFRACTIONTILE
360
DD89
  3
SPECULARTILE
360
DD86
  0
DICTIONARY
  5
15441
330
DDA5
100
AcDbDictionary
280
     1
281
     1
  3
ACAD_ROUNDTRIP_2008_TABLESTYLE_CELLSTYLEMAP
360
15442
  0
XRECORD
  5
DD7D
102
{ACAD_REACTORS
330
DD7B
102
}
330
DD7B
100
AcDbXrecord
280
     1
270
     1
271
     1
  0
XRECORD
  5
DD7C
102
{ACAD_REACTORS
330
DD7B
102
}
330
DD7B
100
AcDbXrecord
280
     1
270
     1
271
     1
  0
XRECORD
  5
DD80
102
{ACAD_REACTORS
330
DD7B
102
}
330
DD7B
100
AcDbXrecord
280
     1
270
     1
271
     1
  0
XRECORD
  5
DD7F
102
{ACAD_REACTORS
330
DD7B
102
}
330
DD7B
100
AcDbXrecord
280
     1
270
     1
271
     1
  0
XRECORD
  5
DD81
102
{ACAD_REACTORS
330
DD7B
102
}
330
DD7B
100
AcDbXrecord
280
     1
270
     1
271
     1
  0
XRECORD
  5
DD7E
102
{ACAD_REACTORS
330
DD7B
102
}
330
DD7B
100
AcDbXrecord
280
     1
270
     1
271
     1
  0
XRECORD
  5
DD75
102
{ACAD_REACTORS
330
DD73
102
}
330
DD73
100
AcDbXrecord
280
     1
270
     1
271
     1
  0
XRECORD
  5
DD74
102
{ACAD_REACTORS
330
DD73
102
}
330
DD73
100
AcDbXrecord
280
     1
270
     1
271
     1
  0
XRECORD
  5
DD78
102
{ACAD_REACTORS
330
DD73
102
}
330
DD73
100
AcDbXrecord
280
     1
270
     1
271
     1
  0
XRECORD
  5
DD77
102
{ACAD_REACTORS
330
DD73
102
}
330
DD73
100
AcDbXrecord
280
     1
270
     1
271
     1
  0
XRECORD
  5
DD79
102
{ACAD_REACTORS
330
DD73
102
}
330
DD73
100
AcDbXrecord
280
     1
270
     1
271
     1
  0
XRECORD
  5
DD76
102
{ACAD_REACTORS
330
DD73
102
}
330
DD73
100
AcDbXrecord
280
     1
270
     1
271
     1
  0
XRECORD
  5
DD85
102
{ACAD_REACTORS
330
DD83
102
}
330
DD83
100
AcDbXrecord
280
     1
270
     1
271
     1
  0
XRECORD
  5
DD84
102
{ACAD_REACTORS
330
DD83
102
}
330
DD83
100
AcDbXrecord
280
     1
270
     1
271
     1
  0
XRECORD
  5
DD88
102
{ACAD_REACTORS
330
DD83
102
}
330
DD83
100
AcDbXrecord
280
     1
270
     1
271
     1
  0
XRECORD
  5
DD87
102
{ACAD_REACTORS
330
DD83
102
}
330
DD83
100
AcDbXrecord
280
     1
270
     1
271
     1
  0
XRECORD
  5
DD89
102
{ACAD_REACTORS
330
DD83
102
}
330
DD83
100
AcDbXrecord
280
     1
270
     1
271
     1
  0
XRECORD
  5
DD86
102
{ACAD_REACTORS
330
DD83
102
}
330
DD83
100
AcDbXrecord
280
     1
270
     1
271
     1
  0
CELLSTYLEMAP
  5
15442
102
{ACAD_REACTORS
330
15441
102
}
330
15441
100
AcDbCellStyleMap
 90
        3
300
CELLSTYLE
  1
TABLEFORMAT_BEGIN
 90
        5
170
     1
 91
        0
 92
    32768
 62
   257
 93
        1
300
CONTENTFORMAT
  1
CONTENTFORMAT_BEGIN
 90
        0
 91
        0
 92
      512
 93
        0
300

 40
0.0
140
1.0
 94
        5
 62
     0
340
F
144
6.0
309
CONTENTFORMAT_END
171
     1
301
MARGIN
  1
CELLMARGIN_BEGIN
 40
1.5
 40
1.5
 40
1.5
 40
1.5
 40
4.5
 40
4.5
309
CELLMARGIN_END
 94
        6
 95
        1
302
GRIDFORMAT
  1
GRIDFORMAT_BEGIN
 90
        0
 91
        1
 62
     0
 92
       -2
340
0
 93
        0
 40
1.125
309
GRIDFORMAT_END
 95
        2
302
GRIDFORMAT
  1
GRIDFORMAT_BEGIN
 90
        0
 91
        1
 62
     0
 92
       -2
340
0
 93
        0
 40
1.125
309
GRIDFORMAT_END
 95
        4
302
GRIDFORMAT
  1
GRIDFORMAT_BEGIN
 90
        0
 91
        1
 62
     0
 92
       -2
340
0
 93
        0
 40
1.125
309
GRIDFORMAT_END
 95
        8
302
GRIDFORMAT
  1
GRIDFORMAT_BEGIN
 90
        0
 91
        1
 62
     0
 92
       -2
340
0
 93
        0
 40
1.125
309
GRIDFORMAT_END
 95
       16
302
GRIDFORMAT
  1
GRIDFORMAT_BEGIN
 90
        0
 91
        1
 62
     0
 92
       -2
340
0
 93
        0
 40
1.125
309
GRIDFORMAT_END
 95
       32
302
GRIDFORMAT
  1
GRIDFORMAT_BEGIN
 90
        0
 91
        1
 62
     0
 92
       -2
340
0
 93
        0
 40
1.125
309
GRIDFORMAT_END
309
TABLEFORMAT_END
  1
CELLSTYLE_BEGIN
 90
        1
 91
        1
300
_TITLE
309
CELLSTYLE_END
300
CELLSTYLE
  1
TABLEFORMAT_BEGIN
 90
        5
170
     1
 91
        0
 92
        0
 62
   257
 93
        1
300
CONTENTFORMAT
  1
CONTENTFORMAT_BEGIN
 90
        0
 91
        0
 92
      512
 93
        0
300

 40
0.0
140
1.0
 94
        5
 62
     0
340
F
144
4.5
309
CONTENTFORMAT_END
171
     1
301
MARGIN
  1
CELLMARGIN_BEGIN
 40
1.5
 40
1.5
 40
1.5
 40
1.5
 40
4.5
 40
4.5
309
CELLMARGIN_END
 94
        6
 95
        1
302
GRIDFORMAT
  1
GRIDFORMAT_BEGIN
 90
        0
 91
        1
 62
     0
 92
       -2
340
0
 93
        0
 40
1.125
309
GRIDFORMAT_END
 95
        2
302
GRIDFORMAT
  1
GRIDFORMAT_BEGIN
 90
        0
 91
        1
 62
     0
 92
       -2
340
0
 93
        0
 40
1.125
309
GRIDFORMAT_END
 95
        4
302
GRIDFORMAT
  1
GRIDFORMAT_BEGIN
 90
        0
 91
        1
 62
     0
 92
       -2
340
0
 93
        0
 40
1.125
309
GRIDFORMAT_END
 95
        8
302
GRIDFORMAT
  1
GRIDFORMAT_BEGIN
 90
        0
 91
        1
 62
     0
 92
       -2
340
0
 93
        0
 40
1.125
309
GRIDFORMAT_END
 95
       16
302
GRIDFORMAT
  1
GRIDFORMAT_BEGIN
 90
        0
 91
        1
 62
     0
 92
       -2
340
0
 93
        0
 40
1.125
309
GRIDFORMAT_END
 95
       32
302
GRIDFORMAT
  1
GRIDFORMAT_BEGIN
 90
        0
 91
        1
 62
     0
 92
       -2
340
0
 93
        0
 40
1.125
309
GRIDFORMAT_END
309
TABLEFORMAT_END
  1
CELLSTYLE_BEGIN
 90
        2
 91
        1
300
_HEADER
309
CELLSTYLE_END
300
CELLSTYLE
  1
TABLEFORMAT_BEGIN
 90
        5
170
     1
 91
        0
 92
        0
 62
   257
 93
        1
300
CONTENTFORMAT
  1
CONTENTFORMAT_BEGIN
 90
        0
 91
        0
 92
      512
 93
        0
300

 40
0.0
140
1.0
 94
        2
 62
     0
340
F
144
4.5
309
CONTENTFORMAT_END
171
     1
301
MARGIN
  1
CELLMARGIN_BEGIN
 40
1.5
 40
1.5
 40
1.5
 40
1.5
 40
4.5
 40
4.5
309
CELLMARGIN_END
 94
        6
 95
        1
302
GRIDFORMAT
  1
GRIDFORMAT_BEGIN
 90
        0
 91
        1
 62
     0
 92
       -2
340
0
 93
        0
 40
1.125
309
GRIDFORMAT_END
 95
        2
302
GRIDFORMAT
  1
GRIDFORMAT_BEGIN
 90
        0
 91
        1
 62
     0
 92
       -2
340
0
 93
        0
 40
1.125
309
GRIDFORMAT_END
 95
        4
302
GRIDFORMAT
  1
GRIDFORMAT_BEGIN
 90
        0
 91
        1
 62
     0
 92
       -2
340
0
 93
        0
 40
1.125
309
GRIDFORMAT_END
 95
        8
302
GRIDFORMAT
  1
GRIDFORMAT_BEGIN
 90
        0
 91
        1
 62
     0
 92
       -2
340
0
 93
        0
 40
1.125
309
GRIDFORMAT_END
 95
       16
302
GRIDFORMAT
  1
GRIDFORMAT_BEGIN
 90
        0
 91
        1
 62
     0
 92
       -2
340
0
 93
        0
 40
1.125
309
GRIDFORMAT_END
 95
       32
302
GRIDFORMAT
  1
GRIDFORMAT_BEGIN
 90
        0
 91
        1
 62
     0
 92
       -2
340
0
 93
        0
 40
1.125
309
GRIDFORMAT_END
309
TABLEFORMAT_END
  1
CELLSTYLE_BEGIN
 90
        3
 91
        2
300
_DATA
309
CELLSTYLE_END
  0
ENDSEC
  0
SECTION
  2
ACDSDATA
 70
     2
 71
     8
  0
ACDSSCHEMA
 90
        0
  1
AcDb_Thumbnail_Schema
  2
AcDbDs::ID
280
    10
 91
        8
  2
Thumbnail_Data
280
    15
 91
        0
101
ACDSRECORD
 95
        0
 90
        1
  2
AcDbDs::TreatedAsObjectData
280
     1
291
     1
101
ACDSRECORD
 95
        0
 90
        2
  2
AcDbDs::Legacy
280
     1
291
     1
101
ACDSRECORD
  1
AcDbDs::ID
 90
        3
  2
AcDs:Indexable
280
     1
291
     1
101
ACDSRECORD
  1
AcDbDs::ID
 90
        4
  2
AcDbDs::HandleAttribute
280
     7
282
     1
  0
ACDSSCHEMA
 90
        1
  1
AcDbDs::TreatedAsObjectDataSchema
  2
AcDbDs::TreatedAsObjectData
280
     1
 91
        0
  0
ACDSSCHEMA
 90
        2
  1
AcDbDs::LegacySchema
  2
AcDbDs::Legacy
280
     1
 91
        0
  0
ACDSSCHEMA
 90
        3
  1
AcDbDs::IndexedPropertySchema
  2
AcDs:Indexable
280
     1
 91
        0
  0
ACDSSCHEMA
 90
        4
  1
AcDbDs::HandleAttributeSchema
  2
AcDbDs::HandleAttribute
280
     7
 91
        1
284
     1
  0
ACDSRECORD
 90
        0
  2
AcDbDs::ID
280
    10
320
DDBC
  2
Thumbnail_Data
280
    15
 94
     1176
310
89504E470D0A1A0A0000000D4948445200000100000000670803000000D82A6C0200000300504C5445000000FFFFFF0000000000000000000000000000000000000000000000000000000000330000660000990000CC0000FF0033000033330033660033990033CC0033FF0066000066330066660066990066CC0066FF0099
310
000099330099660099990099CC0099FF00CC0000CC3300CC6600CC9900CCCC00CCFF00FF0000FF3300FF6600FF9900FFCC00FFFF3300003300333300663300993300CC3300FF3333003333333333663333993333CC3333FF3366003366333366663366993366CC3366FF3399003399333399663399993399CC3399FF33CC00
310
33CC3333CC6633CC9933CCCC33CCFF33FF0033FF3333FF6633FF9933FFCC33FFFF6600006600336600666600996600CC6600FF6633006633336633666633996633CC6633FF6666006666336666666666996666CC6666FF6699006699336699666699996699CC6699FF66CC0066CC3366CC6666CC9966CCCC66CCFF66FF0066
310
FF3366FF6666FF9966FFCC66FFFF9900009900339900669900999900CC9900FF9933009933339933669933999933CC9933FF9966009966339966669966999966CC9966FF9999009999339999669999999999CC9999FF99CC0099CC3399CC6699CC9999CCCC99CCFF99FF0099FF3399FF6699FF9999FFCC99FFFFCC0000CC00
310
33CC0066CC0099CC00CCCC00FFCC3300CC3333CC3366CC3399CC33CCCC33FFCC6600CC6633CC6666CC6699CC66CCCC66FFCC9900CC9933CC9966CC9999CC99CCCC99FFCCCC00CCCC33CCCC66CCCC99CCCCCCCCCCFFCCFF00CCFF33CCFF66CCFF99CCFFCCCCFFFFFF0000FF0033FF0066FF0099FF00CCFF00FFFF3300FF3333
310
FF3366FF3399FF33CCFF33FFFF6600FF6633FF6666FF6699FF66CCFF66FFFF9900FF9933FF9966FF9999FF99CCFF99FFFFCC00FFCC33FFCC66FFCC99FFCCCCFFCCFFFFFF00FFFF33FFFF66FFFF99FFFFCCFFFFFF0000000D0D0D1A1A1A2828283535354343435050505D5D5D6B6B6B787878868686939393A1A1A1AEAEAEBB
310
BBBBC9C9C9D6D6D6E4E4E4F1F1F1FFFFFF0000000000000000000000000000000000000000000000000000000000003AE5ACE9000001404944415478DAEDDC5B6AC3301005502D67F6BFC2521A1A1C8F65392DAD473A977C18233F726C8D8402694D4444444444447E23F17FB909C08257060000C0F6363E0BD2A32AFD6179
310
BAD31B105F9F07445B10E0FBC12FFA062882000000000000000000000000000000C04F8F8CBC511400B8B0827FDC62F097803B02E4AB614702876789743B0ABC01078B61EF01C4733BCA005CE9EE1D80A19E04606680FEE60A00B16BBC5C176827BB00E802C50162A408F6F6D604887C7234154032784732C4B72EC07E0E50
310
06209BBE6C000626D4958B60642DE252914895AA00640F38AE0394AD0167B70E00C0EC00270B2200E6EF02FD016CFA6170376179D913E367D91E1C51E80D789907BE09507349ECECD687BE5B618045AE0C000000000000000000000000000000000000000000000B03ACFE373A222222222222222272EB7C0084189FB18B9D
310
B9390000000049454E44AE426082454E44AE4260820000000049454E44AE426082
  0
ENDSEC
  0
EOF
