  0
SECTION
  2
HEADER
  9
$ACADVER
  1
AC1032
  9
$ACADMAINTVER
 90
      174
  9
$DWGCODEPAGE
  3
ANSI_932
  9
$LASTSAVEDBY
  1
satoshi.ogura
  9
$REQUIREDVERSIONS
160
                 0
  9
$INSBASE
 10
268.4340021441085
 20
176.78614296069
 30
0.0
  9
$EXTMIN
 10
-14.57739389307244
 20
-93.49702159745845
 30
0.0
  9
$EXTMAX
 10
563.7869824327253
 20
566.4442842095032
 30
0.0
  9
$LIMMIN
 10
0.0
 20
0.0
  9
$LIMMAX
 10
554.0
 20
395.0
  9
$ORTHOMODE
 70
     0
  9
$REGENMODE
 70
     1
  9
$FILLMODE
 70
     1
  9
$QTEXTMODE
 70
     0
  9
$MIRRTEXT
 70
     1
  9
$LTSCALE
 40
2.0
  9
$ATTMODE
 70
     1
  9
$TEXTSIZE
 40
10.0
  9
$TRACEWID
 40
0.2
  9
$TEXTSTYLE
  7
KANJI
  9
$CLAYER
  8
1外形線
  9
$CELTYPE
  6
BYLAYER
  9
$CECOLOR
 62
   256
  9
$CELTSCALE
 40
3.0
  9
$DISPSILH
 70
     0
  9
$DIMSCALE
 40
1.0
  9
$DIMASZ
 40
1.0
  9
$DIMEXO
 40
1.0
  9
$DIMDLI
 40
6.0
  9
$DIMRND
 40
0.0
  9
$DIMDLE
 40
0.0
  9
$DIMEXE
 40
1.0
  9
$DIMTP
 40
0.0
  9
$DIMTM
 40
0.0
  9
$DIMTXT
 40
2.5
  9
$DIMCEN
 40
0.0
  9
$DIMTSZ
 40
0.0
  9
$DIMTOL
 70
     0
  9
$DIMLIM
 70
     0
  9
$DIMTIH
 70
     0
  9
$DIMTOH
 70
     0
  9
$DIMSE1
 70
     0
  9
$DIMSE2
 70
     0
  9
$DIMTAD
 70
     1
  9
$DIMZIN
 70
     8
  9
$DIMBLK
  1

  9
$DIMASO
 70
     1
  9
$DIMSHO
 70
     1
  9
$DIMPOST
  1

  9
$DIMAPOST
  1

  9
$DIMALT
 70
     0
  9
$DIMALTD
 70
     2
  9
$DIMALTF
 40
25.4
  9
$DIMLFAC
 40
1.0
  9
$DIMTOFL
 70
     1
  9
$DIMTVP
 40
0.0
  9
$DIMTIX
 70
     0
  9
$DIMSOXD
 70
     0
  9
$DIMSAH
 70
     1
  9
$DIMBLK1
  1
1
  9
$DIMBLK2
  1
1
  9
$DIMSTYLE
  2
STANDARD
  9
$DIMCLRD
 70
     0
  9
$DIMCLRE
 70
     0
  9
$DIMCLRT
 70
     0
  9
$DIMTFAC
 40
1.0
  9
$DIMGAP
 40
0.5
  9
$DIMJUST
 70
     0
  9
$DIMSD1
 70
     0
  9
$DIMSD2
 70
     0
  9
$DIMTOLJ
 70
     1
  9
$DIMTZIN
 70
     8
  9
$DIMALTZ
 70
     8
  9
$DIMALTTZ
 70
     8
  9
$DIMUPT
 70
     0
  9
$DIMDEC
 70
     4
  9
$DIMTDEC
 70
     4
  9
$DIMALTU
 70
     2
  9
$DIMALTTD
 70
     2
  9
$DIMTXSTY
  7
KANJI
  9
$DIMAUNIT
 70
     0
  9
$DIMADEC
 70
     0
  9
$DIMALTRND
 40
0.0
  9
$DIMAZIN
 70
     0
  9
$DIMDSEP
 70
    46
  9
$DIMATFIT
 70
     3
  9
$DIMFRAC
 70
     0
  9
$DIMLDRBLK
  1

  9
$DIMLUNIT
 70
     2
  9
$DIMLWD
 70
    -2
  9
$DIMLWE
 70
    -2
  9
$DIMTMOVE
 70
     0
  9
$DIMFXL
 40
1.0
  9
$DIMFXLON
 70
     0
  9
$DIMJOGANG
 40
0.7853981633974483
  9
$DIMTFILL
 70
     0
  9
$DIMTFILLCLR
 70
     0
  9
$DIMARCSYM
 70
     0
  9
$DIMLTYPE
  6

  9
$DIMLTEX1
  6

  9
$DIMLTEX2
  6

  9
$DIMTXTDIRECTION
 70
     0
  9
$LUNITS
 70
     2
  9
$LUPREC
 70
     4
  9
$SKETCHINC
 40
0.1
  9
$FILLETRAD
 40
0.0
  9
$AUNITS
 70
     0
  9
$AUPREC
 70
     0
  9
$MENU
  1
tcad-s
  9
$ELEVATION
 40
0.0
  9
$PELEVATION
 40
0.0
  9
$THICKNESS
 40
0.0
  9
$LIMCHECK
 70
     0
  9
$CHAMFERA
 40
0.0
  9
$CHAMFERB
 40
0.0
  9
$CHAMFERC
 40
0.0
  9
$CHAMFERD
 40
0.0
  9
$SKPOLY
 70
     0
  9
$TDCREATE
 40
2452045.490312500
  9
$TDUCREATE
 40
2452045.115312500
  9
$TDUPDATE
 40
2459600.740590278
  9
$TDUUPDATE
 40
2459600.365590278
  9
$TDINDWG
 40
0.0607235995
  9
$TDUSRTIMER
 40
0.0607235995
  9
$USRTIMER
 70
     1
  9
$ANGBASE
 50
0.0
  9
$ANGDIR
 70
     0
  9
$PDMODE
 70
     0
  9
$PDSIZE
 40
2.399999999999999
  9
$PLINEWID
 40
0.0
  9
$SPLFRAME
 70
     0
  9
$SPLINETYPE
 70
     6
  9
$SPLINESEGS
 70
     8
  9
$HANDSEED
  5
E16D
  9
$SURFTAB1
 70
     6
  9
$SURFTAB2
 70
     6
  9
$SURFTYPE
 70
     6
  9
$SURFU
 70
     6
  9
$SURFV
 70
     6
  9
$UCSBASE
  2

  9
$UCSNAME
  2

  9
$UCSORG
 10
0.0
 20
0.0
 30
0.0
  9
$UCSXDIR
 10
1.0
 20
0.0
 30
0.0
  9
$UCSYDIR
 10
0.0
 20
1.0
 30
0.0
  9
$UCSORTHOREF
  2

  9
$UCSORTHOVIEW
 70
     0
  9
$UCSORGTOP
 10
0.0
 20
0.0
 30
0.0
  9
$UCSORGBOTTOM
 10
0.0
 20
0.0
 30
0.0
  9
$UCSORGLEFT
 10
0.0
 20
0.0
 30
0.0
  9
$UCSORGRIGHT
 10
0.0
 20
0.0
 30
0.0
  9
$UCSORGFRONT
 10
0.0
 20
0.0
 30
0.0
  9
$UCSORGBACK
 10
0.0
 20
0.0
 30
0.0
  9
$PUCSBASE
  2

  9
$PUCSNAME
  2

  9
$PUCSORG
 10
0.0
 20
0.0
 30
0.0
  9
$PUCSXDIR
 10
1.0
 20
0.0
 30
0.0
  9
$PUCSYDIR
 10
0.0
 20
1.0
 30
0.0
  9
$PUCSORTHOREF
  2

  9
$PUCSORTHOVIEW
 70
     0
  9
$PUCSORGTOP
 10
0.0
 20
0.0
 30
0.0
  9
$PUCSORGBOTTOM
 10
0.0
 20
0.0
 30
0.0
  9
$PUCSORGLEFT
 10
0.0
 20
0.0
 30
0.0
  9
$PUCSORGRIGHT
 10
0.0
 20
0.0
 30
0.0
  9
$PUCSORGFRONT
 10
0.0
 20
0.0
 30
0.0
  9
$PUCSORGBACK
 10
0.0
 20
0.0
 30
0.0
  9
$USERI1
 70
     0
  9
$USERI2
 70
     0
  9
$USERI3
 70
     0
  9
$USERI4
 70
     0
  9
$USERI5
 70
     0
  9
$USERR1
 40
0.0
  9
$USERR2
 40
0.0
  9
$USERR3
 40
0.0
  9
$USERR4
 40
0.0
  9
$USERR5
 40
0.0
  9
$WORLDVIEW
 70
     1
  9
$SHADEDGE
 70
     3
  9
$SHADEDIF
 70
    70
  9
$TILEMODE
 70
     1
  9
$MAXACTVP
 70
    16
  9
$PINSBASE
 10
0.0
 20
0.0
 30
0.0
  9
$PLIMCHECK
 70
     0
  9
$PEXTMIN
 10
1.000000000000000E+20
 20
1.000000000000000E+20
 30
1.000000000000000E+20
  9
$PEXTMAX
 10
-1.000000000000000E+20
 20
-1.000000000000000E+20
 30
-1.000000000000000E+20
  9
$PLIMMIN
 10
0.0
 20
0.0
  9
$PLIMMAX
 10
12.0
 20
9.0
  9
$UNITMODE
 70
     0
  9
$VISRETAIN
 70
     0
  9
$PLINEGEN
 70
     0
  9
$PSLTSCALE
 70
     0
  9
$TREEDEPTH
 70
  3020
  9
$CMLSTYLE
  2
STANDARD
  9
$CMLJUST
 70
     0
  9
$CMLSCALE
 40
1.0
  9
$PROXYGRAPHICS
 70
     1
  9
$MEASUREMENT
 70
     1
  9
$CELWEIGHT
370
    -1
  9
$ENDCAPS
280
     0
  9
$JOINSTYLE
280
     0
  9
$LWDISPLAY
290
     0
  9
$INSUNITS
 70
     0
  9
$HYPERLINKBASE
  1

  9
$STYLESHEET
  1

  9
$XEDIT
290
     1
  9
$CEPSNTYPE
380
     0
  9
$PSTYLEMODE
290
     1
  9
$FINGERPRINTGUID
  2
{AACE368C-E27C-5D4E-90E8-FC71358351B1}
  9
$VERSIONGUID
  2
{D7201299-4778-8E47-8577-00AD7E447F20}
  9
$EXTNAMES
290
     1
  9
$PSVPSCALE
 40
0.0
  9
$OLESTARTUP
290
     0
  9
$SORTENTS
280
    96
  9
$INDEXCTL
280
     0
  9
$HIDETEXT
280
     0
  9
$XCLIPFRAME
280
     2
  9
$HALOGAP
280
     0
  9
$OBSCOLOR
 70
   257
  9
$OBSLTYPE
280
     0
  9
$INTERSECTIONDISPLAY
280
     0
  9
$INTERSECTIONCOLOR
 70
   257
  9
$DIMASSOC
280
     1
  9
$PROJECTNAME
  1

  9
$CAMERADISPLAY
290
     0
  9
$LENSLENGTH
 40
50.0
  9
$CAMERAHEIGHT
 40
0.0
  9
$STEPSPERSEC
 40
2.0
  9
$STEPSIZE
 40
6.0
  9
$3DDWFPREC
 40
2.0
  9
$PSOLWIDTH
 40
0.25
  9
$PSOLHEIGHT
 40
4.0
  9
$LOFTANG1
 40
1.570796326794896
  9
$LOFTANG2
 40
1.570796326794896
  9
$LOFTMAG1
 40
0.0
  9
$LOFTMAG2
 40
0.0
  9
$LOFTPARAM
 70
     7
  9
$LOFTNORMALS
280
     1
  9
$LATITUDE
 40
37.795
  9
$LONGITUDE
 40
-122.394
  9
$NORTHDIRECTION
 40
0.0
  9
$TIMEZONE
 70
 -8000
  9
$LIGHTGLYPHDISPLAY
280
     1
  9
$TILEMODELIGHTSYNCH
280
     1
  9
$CMATERIAL
347
DD9E
  9
$SOLIDHIST
280
     0
  9
$SHOWHIST
280
     1
  9
$DWFFRAME
280
     2
  9
$DGNFRAME
280
     0
  9
$REALWORLDSCALE
290
     1
  9
$INTERFERECOLOR
 62
     1
  9
$INTERFEREOBJVS
345
DDC0
  9
$INTERFEREVPVS
346
DDBD
  9
$CSHADOW
280
     0
  9
$SHADOWPLANELOCATION
 40
0.0
  0
ENDSEC
  0
SECTION
  2
CLASSES
  0
CLASS
  1
DICTIONARYVAR
  2
AcDbDictionaryVar
  3
ObjectDBX Classes
 90
        0
 91
       38
280
     0
281
     0
  0
CLASS
  1
ACDBDICTIONARYWDFLT
  2
AcDbDictionaryWithDefault
  3
ObjectDBX Classes
 90
        0
 91
        1
280
     0
281
     0
  0
CLASS
  1
MATERIAL
  2
AcDbMaterial
  3
ObjectDBX Classes
 90
     1153
 91
        3
280
     0
281
     0
  0
CLASS
  1
VISUALSTYLE
  2
AcDbVisualStyle
  3
ObjectDBX Classes
 90
     4095
 91
       24
280
     0
281
     0
  0
CLASS
  1
TABLESTYLE
  2
AcDbTableStyle
  3
ObjectDBX Classes
 90
     4095
 91
        1
280
     0
281
     0
  0
CLASS
  1
SCALE
  2
AcDbScale
  3
ObjectDBX Classes
 90
     1153
 91
       17
280
     0
281
     0
  0
CLASS
  1
MLEADERSTYLE
  2
AcDbMLeaderStyle
  3
ACDB_MLEADERSTYLE_CLASS
 90
     4095
 91
        1
280
     0
281
     0
  0
CLASS
  1
ACDBSECTIONVIEWSTYLE
  2
AcDbSectionViewStyle
  3
ObjectDBX Classes
 90
     1025
 91
        2
280
     0
281
     0
  0
CLASS
  1
ACDBDETAILVIEWSTYLE
  2
AcDbDetailViewStyle
  3
ObjectDBX Classes
 90
     1025
 91
        2
280
     0
281
     0
  0
CLASS
  1
SORTENTSTABLE
  2
AcDbSortentsTable
  3
ObjectDBX Classes
 90
        0
 91
        1
280
     0
281
     0
  0
CLASS
  1
CELLSTYLEMAP
  2
AcDbCellStyleMap
  3
ObjectDBX Classes
 90
     1152
 91
        2
280
     0
281
     0
  0
ENDSEC
  0
SECTION
  2
TABLES
  0
TABLE
  2
VPORT
  5
8
330
0
100
AcDbSymbolTable
 70
     1
  0
VPORT
  5
DD99
330
8
100
AcDbSymbolTableRecord
100
AcDbViewportTableRecord
  2
*ACTIVE
 70
     0
 10
0.0
 20
0.0
 11
1.0
 21
1.0
 12
98.76381228387481
 22
210.860077798098
 13
0.0
 23
0.0
 14
1.0
 24
1.0
 15
0.0
 25
0.0
 16
0.0
 26
0.0
 36
1.0
 17
0.0
 27
0.0
 37
0.0
 40
545.2459405320241
 41
2.476129032258064
 42
50.0
 43
0.0
 44
0.0
 50
0.0
 51
0.0
 71
     0
 72
  1000
 73
     1
 74
     1
 75
     0
 76
     0
 77
     0
 78
     1
281
     0
 65
     1
110
0.0
120
0.0
130
0.0
111
1.0
121
0.0
131
0.0
112
0.0
122
1.0
132
0.0
 79
     0
146
0.0
348
DDBC
 60
     3
 61
     5
292
     1
282
     1
141
0.0
142
0.0
 63
   250
421
  3355443
1001
ACAD_NAV_VCDISPLAY
1070
     3
  0
ENDTAB
  0
TABLE
  2
LTYPE
  5
5
330
0
100
AcDbSymbolTable
 70
     3
  0
LTYPE
  5
11
330
5
100
AcDbSymbolTableRecord
100
AcDbLinetypeTableRecord
  2
BYBLOCK
 70
     0
  3

 72
    65
 73
     0
 40
0.0
  0
LTYPE
  5
12
330
5
100
AcDbSymbolTableRecord
100
AcDbLinetypeTableRecord
  2
BYLAYER
 70
     0
  3

 72
    65
 73
     0
 40
0.0
  0
LTYPE
  5
13
330
5
100
AcDbSymbolTableRecord
100
AcDbLinetypeTableRecord
  2
CONTINUOUS
 70
     0
  3
Solid line
 72
    65
 73
     0
 40
0.0
  0
LTYPE
  5
DE40
330
5
100
AcDbSymbolTableRecord
100
AcDbLinetypeTableRecord
  2
CENTER
 70
     0
  3
____ _ ____ _ ____ _ ____ _ ____ _ ____ _ ____ 
 72
    65
 73
     4
 40
2.0
 49
1.25
 74
     0
 49
-0.25
 74
     0
 49
0.25
 74
     0
 49
-0.25
 74
     0
  0
ENDTAB
  0
TABLE
  2
LAYER
  5
2
102
{ACAD_XDICTIONARY
360
DE4C
102
}
330
0
100
AcDbSymbolTable
 70
     7
  0
LAYER
  5
E
102
{ACAD_XDICTIONARY
360
DDF2
102
}
330
2
100
AcDbSymbolTableRecord
100
AcDbLayerTableRecord
  2
0
 70
     0
 62
     7
  6
CONTINUOUS
370
    -3
390
DD9C
347
DDAE
348
0
  0
LAYER
  5
40
102
{ACAD_XDICTIONARY
360
DDF4
102
}
330
2
100
AcDbSymbolTableRecord
100
AcDbLayerTableRecord
  2
1外形線
 70
     0
 62
     3
  6
CONTINUOUS
370
    -3
390
DD9C
347
DDAE
348
0
  0
LAYER
  5
DE41
102
{ACAD_XDICTIONARY
360
DE42
102
}
330
2
100
AcDbSymbolTableRecord
100
AcDbLayerTableRecord
  2
C4
 70
     0
 62
     3
  6
CONTINUOUS
370
    -3
390
DD9C
347
DDAE
348
0
  0
LAYER
  5
DE43
330
2
100
AcDbSymbolTableRecord
100
AcDbLayerTableRecord
  2
DEFPOINTS
 70
     0
 62
     7
  6
CONTINUOUS
290
     0
370
    -3
390
DD9C
347
DDAE
348
0
  0
LAYER
  5
DE44
102
{ACAD_XDICTIONARY
360
DE45
102
}
330
2
100
AcDbSymbolTableRecord
100
AcDbLayerTableRecord
  2
2寸法線
 70
     0
 62
     2
  6
CONTINUOUS
370
    -3
390
DD9C
347
DDAE
348
0
  0
LAYER
  5
DE46
330
2
100
AcDbSymbolTableRecord
100
AcDbLayerTableRecord
  2
L7中心
 70
     0
 62
     4
  6
CENTER
370
     9
390
DD9C
347
DDAE
348
0
1001
AcAecLayerStandard
1000

1000

1001
ACCMTRANSPARENCY
1071
        0
  0
LAYER
  5
DE47
102
{ACAD_XDICTIONARY
360
DE48
102
}
330
2
100
AcDbSymbolTableRecord
100
AcDbLayerTableRecord
  2
1ﾀﾞｸﾄｶﾊﾞｰ
 70
     0
 62
     3
  6
CONTINUOUS
370
    -3
390
DD9C
347
DDAE
348
0
  0
ENDTAB
  0
TABLE
  2
STYLE
  5
3
330
0
100
AcDbSymbolTable
 70
     2
  0
STYLE
  5
F
330
3
100
AcDbSymbolTableRecord
100
AcDbTextStyleTableRecord
  2
STANDARD
 70
     0
 40
0.0
 41
1.0
 50
0.0
 71
     0
 42
0.2
  3
txt
  4

  0
STYLE
  5
3B
330
3
100
AcDbSymbolTableRecord
100
AcDbTextStyleTableRecord
  2
KANJI
 70
     0
 40
0.0
 41
1.0
 50
0.0
 71
     0
 42
10.0
  3
simplex
  4
bigfont
  0
ENDTAB
  0
TABLE
  2
VIEW
  5
6
330
0
100
AcDbSymbolTable
 70
     2
  0
ENDTAB
  0
TABLE
  2
UCS
  5
7
330
0
100
AcDbSymbolTable
 70
     0
  0
ENDTAB
  0
TABLE
  2
APPID
  5
9
330
0
100
AcDbSymbolTable
 70
     6
  0
APPID
  5
10
330
9
100
AcDbSymbolTableRecord
100
AcDbRegAppTableRecord
  2
ACAD
 70
     0
  0
APPID
  5
DDF6
330
9
100
AcDbSymbolTableRecord
100
AcDbRegAppTableRecord
  2
ACAD_NAV_VCDISPLAY
 70
     0
  0
APPID
  5
DE49
330
9
100
AcDbSymbolTableRecord
100
AcDbRegAppTableRecord
  2
ACAD_PSEXT
 70
     0
  0
APPID
  5
DE4A
330
9
100
AcDbSymbolTableRecord
100
AcDbRegAppTableRecord
  2
AcAecLayerStandard
 70
     0
  0
APPID
  5
DE4B
330
9
100
AcDbSymbolTableRecord
100
AcDbRegAppTableRecord
  2
ACCMTRANSPARENCY
 70
     0
  0
APPID
  5
E14C
330
9
100
AcDbSymbolTableRecord
100
AcDbRegAppTableRecord
  2
ACAD_EXEMPT_FROM_CAD_STANDARDS
 70
     0
  0
ENDTAB
  0
TABLE
  2
DIMSTYLE
  5
A
330
0
100
AcDbSymbolTable
 70
     1
100
AcDbDimStyleTable
 71
     0
  0
DIMSTYLE
105
E11
330
A
100
AcDbSymbolTableRecord
100
AcDbDimStyleTableRecord
  2
STANDARD
 70
     0
 41
1.0
 42
1.0
 43
6.0
 44
1.0
 73
     0
 74
     0
 77
     1
 78
     8
140
2.5
141
0.0
147
0.5
172
     1
173
     1
284
     8
285
     8
286
     8
340
3B
341
C7B3
343
C7B3
344
C7B3
  0
ENDTAB
  0
TABLE
  2
BLOCK_RECORD
  5
1
330
0
100
AcDbSymbolTable
 70
    13
  0
BLOCK_RECORD
  5
17
330
1
100
AcDbSymbolTableRecord
100
AcDbBlockTableRecord
  2
*MODEL_SPACE
340
DDEC
 70
     0
280
     1
281
     0
  0
BLOCK_RECORD
  5
14
330
1
100
AcDbSymbolTableRecord
100
AcDbBlockTableRecord
  2
*PAPER_SPACE
340
DDED
 70
     0
280
     1
281
     0
  0
BLOCK_RECORD
  5
C7B3
330
1
100
AcDbSymbolTableRecord
100
AcDbBlockTableRecord
  2
1
340
0
102
{BLKREFS
331
E100
331
E101
331
E11B
331
E11C
331
E124
331
E125
331
E12D
331
E12E
331
E136
331
E137
102
}
 70
     0
280
     1
281
     0
  0
BLOCK_RECORD
  5
DE00
330
1
100
AcDbSymbolTableRecord
100
AcDbBlockTableRecord
  2
Y2
340
0
102
{BLKREFS
331
DE09
331
DE0A
331
DE15
331
DE16
331
DE21
331
DE22
331
DE2D
331
DE2E
331
DE39
331
DE3A
102
}
 70
     0
280
     1
281
     0
  0
BLOCK_RECORD
  5
DE04
330
1
100
AcDbSymbolTableRecord
100
AcDbBlockTableRecord
  2
*D2
340
0
 70
     0
280
     1
281
     0
  0
BLOCK_RECORD
  5
DE10
330
1
100
AcDbSymbolTableRecord
100
AcDbBlockTableRecord
  2
*D3
340
0
 70
     0
280
     1
281
     0
  0
BLOCK_RECORD
  5
DE1C
330
1
100
AcDbSymbolTableRecord
100
AcDbBlockTableRecord
  2
*D4
340
0
 70
     0
280
     1
281
     0
  0
BLOCK_RECORD
  5
DE28
330
1
100
AcDbSymbolTableRecord
100
AcDbBlockTableRecord
  2
*D5
340
0
 70
     0
280
     1
281
     0
  0
BLOCK_RECORD
  5
DE34
330
1
100
AcDbSymbolTableRecord
100
AcDbBlockTableRecord
  2
*D6
340
0
 70
     0
280
     1
281
     0
  0
BLOCK_RECORD
  5
E094
330
1
100
AcDbSymbolTableRecord
100
AcDbBlockTableRecord
  2
*D8
340
0
 70
     0
280
     1
281
     0
  0
BLOCK_RECORD
  5
E0A0
330
1
100
AcDbSymbolTableRecord
100
AcDbBlockTableRecord
  2
*D9
340
0
 70
     0
280
     1
281
     0
  0
BLOCK_RECORD
  5
E0AC
330
1
100
AcDbSymbolTableRecord
100
AcDbBlockTableRecord
  2
*D10
340
0
 70
     0
280
     1
281
     0
  0
BLOCK_RECORD
  5
E0B8
330
1
100
AcDbSymbolTableRecord
100
AcDbBlockTableRecord
  2
*D11
340
0
 70
     0
280
     1
281
     0
  0
BLOCK_RECORD
  5
E0C4
330
1
100
AcDbSymbolTableRecord
100
AcDbBlockTableRecord
  2
*D12
340
0
 70
     0
280
     1
281
     0
  0
ENDTAB
  0
ENDSEC
  0
SECTION
  2
BLOCKS
  0
BLOCK
  5
4F
330
17
100
AcDbEntity
  8
0
100
AcDbBlockBegin
  2
*MODEL_SPACE
 70
     0
 10
0.0
 20
0.0
 30
0.0
  3
*MODEL_SPACE
  1

  0
ENDBLK
  5
50
330
17
100
AcDbEntity
  8
0
100
AcDbBlockEnd
  0
BLOCK
  5
4D
330
14
100
AcDbEntity
 67
     1
  8
0
100
AcDbBlockBegin
  2
*PAPER_SPACE
 70
     0
 10
0.0
 20
0.0
 30
0.0
  3
*PAPER_SPACE
  1

  0
ENDBLK
  5
4E
330
14
100
AcDbEntity
 67
     1
  8
0
100
AcDbBlockEnd
  0
BLOCK
  5
C7B4
330
C7B3
100
AcDbEntity
  8
0
 48
2.0
100
AcDbBlockBegin
  2
1
 70
     0
 10
0.0
 20
0.0
 30
0.0
  3
1
  1

  0
SOLID
  5
C7B5
330
C7B3
100
AcDbEntity
  8
0
  6
ByBlock
 62
     0
100
AcDbTrace
 10
-1.811110924292052
 20
0.4852857095671653
 30
0.0
 11
-1.811110924292052
 21
-0.4852857095673642
 31
0.0
 12
0.0
 22
0.0
 32
0.0
 13
0.0
 23
0.0
 33
0.0
  0
ENDBLK
  5
C7B6
330
C7B3
100
AcDbEntity
  8
0
 48
2.0
100
AcDbBlockEnd
  0
BLOCK
  5
DE01
330
DE00
100
AcDbEntity
  8
0
 48
2.0
100
AcDbBlockBegin
  2
Y2
 70
     0
 10
0.0
 20
0.0
 30
0.0
  3
Y2
  1

  0
SOLID
  5
DE02
330
DE00
100
AcDbEntity
  8
0
  6
ByBlock
 62
     0
100
AcDbTrace
 10
-1.811110924292108
 20
0.485285709567151
 30
0.0
 11
-1.811110924292108
 21
-0.4852857095673784
 31
0.0
 12
-0.0000000000000568
 22
-0.0000000000000142
 32
0.0
 13
-0.0000000000000568
 23
-0.0000000000000142
 33
0.0
  0
ENDBLK
  5
DE03
330
DE00
100
AcDbEntity
  8
0
 48
2.0
100
AcDbBlockEnd
  0
BLOCK
  5
DE05
330
DE04
100
AcDbEntity
  8
0
 48
2.0
100
AcDbBlockBegin
  2
*D2
 70
     1
 10
0.0
 20
0.0
 30
0.0
  3
*D2
  1

  0
LINE
  5
DE06
330
DE04
100
AcDbEntity
  8
2寸法線
 62
     0
440
 16777216
 48
3.0
370
    -2
100
AcDbLine
 10
111.5040817999488
 20
194.9530185184412
 30
0.0
 11
111.5040817999488
 21
183.5137472988392
 31
0.0
  0
LINE
  5
DE07
330
DE04
100
AcDbEntity
  8
2寸法線
 62
     0
440
 16777216
 48
3.0
370
    -2
100
AcDbLine
 10
191.5040817999488
 20
194.9530185184412
 30
0.0
 11
191.5040817999488
 21
183.5137472988392
 31
0.0
  0
LINE
  5
DE08
330
DE04
100
AcDbEntity
  8
2寸法線
 62
     0
440
 16777216
 48
3.0
370
    -2
100
AcDbLine
 10
113.0040817999488
 20
184.5137472988392
 30
0.0
 11
190.0040817999488
 21
184.5137472988392
 31
0.0
  0
INSERT
  5
DE09
330
DE04
100
AcDbEntity
  8
2寸法線
 62
     0
440
 16777216
 48
3.0
370
    -2
100
AcDbBlockReference
  2
Y2
 10
111.5040817999488
 20
184.5137472988392
 30
0.0
 41
1.5
 42
1.5
 43
1.5
 50
180.0
  0
INSERT
  5
DE0A
330
DE04
100
AcDbEntity
  8
2寸法線
 62
     0
440
 16777216
 48
3.0
370
    -2
100
AcDbBlockReference
  2
Y2
 10
191.5040817999488
 20
184.5137472988392
 30
0.0
 41
1.5
 42
1.5
 43
1.5
  0
MTEXT
  5
DE0B
330
DE04
100
AcDbEntity
  8
2寸法線
 62
     1
440
 16777216
 48
3.0
100
AcDbMText
 10
151.5040817999488
 20
187.2637472988392
 30
0.0
 40
3.5
 41
0.0
 46
0.0
 71
     5
 72
     1
  1
\A1;80
  7
KANJI
 73
     1
 44
1.0
  0
POINT
  5
DE0C
330
DE04
100
AcDbEntity
  8
DEFPOINTS
 62
     0
440
 16777216
 48
3.0
100
AcDbPoint
 10
111.5040817999488
 20
196.9530185184412
 30
0.0
  0
POINT
  5
DE0D
330
DE04
100
AcDbEntity
  8
DEFPOINTS
 62
     0
440
 16777216
 48
3.0
100
AcDbPoint
 10
191.5040817999488
 20
196.9530185184412
 30
0.0
  0
POINT
  5
DE0E
330
DE04
100
AcDbEntity
  8
DEFPOINTS
 62
     0
440
 16777216
 48
3.0
100
AcDbPoint
 10
191.5040817999488
 20
184.5137472988392
 30
0.0
  0
ENDBLK
  5
DE0F
330
DE04
100
AcDbEntity
  8
0
 48
2.0
100
AcDbBlockEnd
  0
BLOCK
  5
DE11
330
DE10
100
AcDbEntity
  8
0
 48
2.0
100
AcDbBlockBegin
  2
*D3
 70
     1
 10
0.0
 20
0.0
 30
0.0
  3
*D3
  1

  0
LINE
  5
DE12
330
DE10
100
AcDbEntity
  8
2寸法線
 62
     0
440
 16777216
 48
3.0
370
    -2
100
AcDbLine
 10
250.1973935212228
 20
198.9530185184412
 30
0.0
 11
250.1973935212228
 21
255.0926936112967
 31
0.0
  0
LINE
  5
DE13
330
DE10
100
AcDbEntity
  8
2寸法線
 62
     0
440
 16777216
 48
3.0
370
    -2
100
AcDbLine
 10
338.6973940576647
 20
198.9530185184412
 30
0.0
 11
338.6973940576647
 21
255.0926936112967
 31
0.0
  0
LINE
  5
DE14
330
DE10
100
AcDbEntity
  8
2寸法線
 62
     0
440
 16777216
 48
3.0
370
    -2
100
AcDbLine
 10
251.6973935212228
 20
254.0926936112967
 30
0.0
 11
337.1973940576647
 21
254.0926936112967
 31
0.0
  0
INSERT
  5
DE15
330
DE10
100
AcDbEntity
  8
2寸法線
 62
     0
440
 16777216
 48
3.0
370
    -2
100
AcDbBlockReference
  2
Y2
 10
250.1973935212228
 20
254.0926936112967
 30
0.0
 41
1.5
 42
1.5
 43
1.5
 50
180.0
  0
INSERT
  5
DE16
330
DE10
100
AcDbEntity
  8
2寸法線
 62
     0
440
 16777216
 48
3.0
370
    -2
100
AcDbBlockReference
  2
Y2
 10
338.6973940576647
 20
254.0926936112967
 30
0.0
 41
1.5
 42
1.5
 43
1.5
  0
MTEXT
  5
DE17
330
DE10
100
AcDbEntity
  8
2寸法線
 62
     1
440
 16777216
 48
3.0
100
AcDbMText
 10
294.4473937894438
 20
256.8426936112967
 30
0.0
 40
3.5
 41
0.0
 46
0.0
 71
     5
 72
     1
  1
\A1;89
  7
KANJI
 73
     1
 44
1.0
  0
POINT
  5
DE18
330
DE10
100
AcDbEntity
  8
DEFPOINTS
 62
     0
440
 16777216
 48
3.0
100
AcDbPoint
 10
250.1973935212228
 20
196.9530185184412
 30
0.0
  0
POINT
  5
DE19
330
DE10
100
AcDbEntity
  8
DEFPOINTS
 62
     0
440
 16777216
 48
3.0
100
AcDbPoint
 10
338.6973940576647
 20
196.9530185184412
 30
0.0
  0
POINT
  5
DE1A
330
DE10
100
AcDbEntity
  8
DEFPOINTS
 62
     0
440
 16777216
 48
3.0
100
AcDbPoint
 10
338.6973940576647
 20
254.0926936112967
 30
0.0
  0
ENDBLK
  5
DE1B
330
DE10
100
AcDbEntity
  8
0
 48
2.0
100
AcDbBlockEnd
  0
BLOCK
  5
DE1D
330
DE1C
100
AcDbEntity
  8
0
 48
2.0
100
AcDbBlockBegin
  2
*D4
 70
     1
 10
0.0
 20
0.0
 30
0.0
  3
*D4
  1

  0
LINE
  5
DE1E
330
DE1C
100
AcDbEntity
  8
2寸法線
 62
     0
440
 16777216
 48
3.0
370
    -2
100
AcDbLine
 10
296.4483894787371
 20
242.0530185181874
 30
0.0
 11
350.0961612783779
 21
242.0530185181874
 31
0.0
  0
LINE
  5
DE1F
330
DE1C
100
AcDbEntity
  8
2寸法線
 62
     0
440
 16777216
 48
3.0
370
    -2
100
AcDbLine
 10
340.6973940576647
 20
196.9530185184412
 30
0.0
 11
350.0961612783779
 21
196.9530185184412
 31
0.0
  0
LINE
  5
DE20
330
DE1C
100
AcDbEntity
  8
2寸法線
 62
     0
440
 16777216
 48
3.0
370
    -2
100
AcDbLine
 10
349.096161278378
 20
240.5530185181874
 30
0.0
 11
349.096161278378
 21
198.4530185184412
 31
0.0
  0
INSERT
  5
DE21
330
DE1C
100
AcDbEntity
  8
2寸法線
 62
     0
440
 16777216
 48
3.0
370
    -2
100
AcDbBlockReference
  2
Y2
 10
349.096161278378
 20
242.0530185181874
 30
0.0
 41
1.5
 42
1.5
 43
1.5
 50
90.0
  0
INSERT
  5
DE22
330
DE1C
100
AcDbEntity
  8
2寸法線
 62
     0
440
 16777216
 48
3.0
370
    -2
100
AcDbBlockReference
  2
Y2
 10
349.096161278378
 20
196.9530185184412
 30
0.0
 41
1.5
 42
1.5
 43
1.5
 50
270.0
  0
MTEXT
  5
DE23
330
DE1C
100
AcDbEntity
  8
2寸法線
 62
     1
440
 16777216
 48
3.0
100
AcDbMText
 10
346.3461612783779
 20
219.5030185183143
 30
0.0
 40
3.5
 41
0.0
 46
0.0
 71
     5
 72
     1
  1
\A1;45
  7
KANJI
 11
0.0000000000000001
 21
1.0
 31
0.0
 73
     1
 44
1.0
  0
POINT
  5
DE24
330
DE1C
100
AcDbEntity
  8
DEFPOINTS
 62
     0
440
 16777216
 48
3.0
100
AcDbPoint
 10
294.4483894787371
 20
242.0530185181874
 30
0.0
  0
POINT
  5
DE25
330
DE1C
100
AcDbEntity
  8
DEFPOINTS
 62
     0
440
 16777216
 48
3.0
100
AcDbPoint
 10
338.6973940576647
 20
196.9530185184412
 30
0.0
  0
POINT
  5
DE26
330
DE1C
100
AcDbEntity
  8
DEFPOINTS
 62
     0
440
 16777216
 48
3.0
100
AcDbPoint
 10
349.096161278378
 20
196.9530185184412
 30
0.0
  0
ENDBLK
  5
DE27
330
DE1C
100
AcDbEntity
  8
0
 48
2.0
100
AcDbBlockEnd
  0
BLOCK
  5
DE29
330
DE28
100
AcDbEntity
  8
0
 48
2.0
100
AcDbBlockBegin
  2
*D5
 70
     1
 10
0.0
 20
0.0
 30
0.0
  3
*D5
  1

  0
LINE
  5
DE2A
330
DE28
100
AcDbEntity
  8
2寸法線
 62
     0
440
 16777216
 48
3.0
370
    -2
100
AcDbLine
 10
161.0040817999496
 20
142.5728943812064
 30
0.0
 11
210.4343579337402
 21
142.5728943812064
 31
0.0
  0
LINE
  5
DE2B
330
DE28
100
AcDbEntity
  8
2寸法線
 62
     0
440
 16777216
 48
3.0
370
    -2
100
AcDbLine
 10
161.0040817999496
 20
84.57289438120641
 30
0.0
 11
210.4343579337402
 21
84.57289438120641
 31
0.0
  0
LINE
  5
DE2C
330
DE28
100
AcDbEntity
  8
2寸法線
 62
     0
440
 16777216
 48
3.0
370
    -2
100
AcDbLine
 10
209.4343579337402
 20
141.0728943812064
 30
0.0
 11
209.4343579337402
 21
86.07289438120641
 31
0.0
  0
INSERT
  5
DE2D
330
DE28
100
AcDbEntity
  8
2寸法線
 62
     0
440
 16777216
 48
3.0
370
    -2
100
AcDbBlockReference
  2
Y2
 10
209.4343579337402
 20
142.5728943812064
 30
0.0
 41
1.5
 42
1.5
 43
1.5
 50
90.0
  0
INSERT
  5
DE2E
330
DE28
100
AcDbEntity
  8
2寸法線
 62
     0
440
 16777216
 48
3.0
370
    -2
100
AcDbBlockReference
  2
Y2
 10
209.4343579337402
 20
84.57289438120641
 30
0.0
 41
1.5
 42
1.5
 43
1.5
 50
270.0
  0
MTEXT
  5
DE2F
330
DE28
100
AcDbEntity
  8
2寸法線
 62
     1
440
 16777216
 48
3.0
100
AcDbMText
 10
206.6843579337402
 20
113.5728943812064
 30
0.0
 40
3.5
 41
0.0
 46
0.0
 71
     5
 72
     1
  1
\A1;58
  7
KANJI
 11
0.0000000000000001
 21
1.0
 31
0.0
 73
     1
 44
1.0
  0
POINT
  5
DE30
330
DE28
100
AcDbEntity
  8
DEFPOINTS
 62
     0
440
 16777216
 48
3.0
100
AcDbPoint
 10
159.0040817999495
 20
142.5728943812064
 30
0.0
  0
POINT
  5
DE31
330
DE28
100
AcDbEntity
  8
DEFPOINTS
 62
     0
440
 16777216
 48
3.0
100
AcDbPoint
 10
159.0040817999495
 20
84.57289438120643
 30
0.0
  0
POINT
  5
DE32
330
DE28
100
AcDbEntity
  8
DEFPOINTS
 62
     0
440
 16777216
 48
3.0
100
AcDbPoint
 10
209.4343579337402
 20
84.57289438120641
 30
0.0
  0
ENDBLK
  5
DE33
330
DE28
100
AcDbEntity
  8
0
 48
2.0
100
AcDbBlockEnd
  0
BLOCK
  5
DE35
330
DE34
100
AcDbEntity
  8
0
 48
2.0
100
AcDbBlockBegin
  2
*D6
 70
     1
 10
0.0
 20
0.0
 30
0.0
  3
*D6
  1

  0
LINE
  5
DE36
330
DE34
100
AcDbEntity
  8
2寸法線
 62
     0
440
 16777216
 48
3.0
370
    -2
100
AcDbLine
 10
191.5040806674609
 20
69.04700847889944
 30
0.0
 11
191.5040806674609
 21
57.59703807934783
 31
0.0
  0
LINE
  5
DE37
330
DE34
100
AcDbEntity
  8
2寸法線
 62
     0
440
 16777216
 48
3.0
370
    -2
100
AcDbLine
 10
181.5040794679174
 20
91.32289597191903
 30
0.0
 11
181.5040794679174
 21
57.59703807934783
 31
0.0
  0
LINE
  5
DE38
330
DE34
100
AcDbEntity
  8
2寸法線
 62
     0
440
 16777216
 48
3.0
370
    -2
100
AcDbLine
 10
190.0040806674608
 20
58.59703807934784
 30
0.0
 11
183.0040794679174
 21
58.59703807934784
 31
0.0
  0
INSERT
  5
DE39
330
DE34
100
AcDbEntity
  8
2寸法線
 62
     0
440
 16777216
 48
3.0
370
    -2
100
AcDbBlockReference
  2
Y2
 10
191.5040806674609
 20
58.59703807934784
 30
0.0
 41
1.5
 42
1.5
 43
1.5
  0
INSERT
  5
DE3A
330
DE34
100
AcDbEntity
  8
2寸法線
 62
     0
440
 16777216
 48
3.0
370
    -2
100
AcDbBlockReference
  2
Y2
 10
181.5040794679174
 20
58.59703807934784
 30
0.0
 41
1.5
 42
1.5
 43
1.5
 50
180.0
  0
MTEXT
  5
DE3B
330
DE34
100
AcDbEntity
  8
2寸法線
 62
     1
440
 16777216
 48
3.0
100
AcDbMText
 10
186.5040800676891
 20
61.34703807934783
 30
0.0
 40
3.5
 41
0.0
 46
0.0
 71
     5
 72
     1
  1
\A1;10
  7
KANJI
 73
     1
 44
1.0
  0
POINT
  5
DE3C
330
DE34
100
AcDbEntity
  8
DEFPOINTS
 62
     0
440
 16777216
 48
3.0
100
AcDbPoint
 10
191.5040806674609
 20
71.04700847889944
 30
0.0
  0
POINT
  5
DE3D
330
DE34
100
AcDbEntity
  8
DEFPOINTS
 62
     0
440
 16777216
 48
3.0
100
AcDbPoint
 10
181.5040794679174
 20
93.32289597191902
 30
0.0
  0
POINT
  5
DE3E
330
DE34
100
AcDbEntity
  8
DEFPOINTS
 62
     0
440
 16777216
 48
3.0
100
AcDbPoint
 10
181.5040794679174
 20
58.59703807934784
 30
0.0
  0
ENDBLK
  5
DE3F
330
DE34
100
AcDbEntity
  8
0
 48
2.0
100
AcDbBlockEnd
  0
BLOCK
  5
E095
330
E094
100
AcDbEntity
  8
0
 48
3.0
100
AcDbBlockBegin
  2
*D8
 70
     1
 10
0.0
 20
0.0
 30
0.0
  3
*D8
  1

  0
LINE
  5
E0FD
330
E094
100
AcDbEntity
  8
2寸法線
 62
     0
440
 16777216
 48
3.0
370
    -2
100
AcDbLine
 10
19.39641261433752
 20
238.2978388616568
 30
0.0
 11
19.39641261433752
 21
226.8585676420548
 31
0.0
  0
LINE
  5
E0FE
330
E094
100
AcDbEntity
  8
2寸法線
 62
     0
440
 16777216
 48
3.0
370
    -2
100
AcDbLine
 10
99.39641261433752
 20
238.2978388616568
 30
0.0
 11
99.39641261433752
 21
226.8585676420548
 31
0.0
  0
LINE
  5
E0FF
330
E094
100
AcDbEntity
  8
2寸法線
 62
     0
440
 16777216
 48
3.0
370
    -2
100
AcDbLine
 10
20.89641261433752
 20
227.8585676420548
 30
0.0
 11
97.89641261433752
 21
227.8585676420548
 31
0.0
  0
INSERT
  5
E100
330
E094
100
AcDbEntity
  8
2寸法線
 62
     0
440
 16777216
 48
3.0
370
    -2
100
AcDbBlockReference
  2
1
 10
19.39641261433752
 20
227.8585676420548
 30
0.0
 41
1.5
 42
1.5
 43
1.5
 50
180.0
  0
INSERT
  5
E101
330
E094
100
AcDbEntity
  8
2寸法線
 62
     0
440
 16777216
 48
3.0
370
    -2
100
AcDbBlockReference
  2
1
 10
99.39641261433752
 20
227.8585676420548
 30
0.0
 41
1.5
 42
1.5
 43
1.5
  0
MTEXT
  5
E102
330
E094
100
AcDbEntity
  8
2寸法線
 62
     1
440
 16777216
 48
3.0
100
AcDbMText
 10
59.39641261433752
 20
230.6085676420548
 30
0.0
 40
3.5
 41
0.0
 46
0.0
 71
     5
 72
     1
  1
\A1;80
  7
KANJI
 73
     1
 44
1.0
  0
POINT
  5
E103
330
E094
100
AcDbEntity
  8
DEFPOINTS
 62
     0
440
 16777216
 48
3.0
100
AcDbPoint
 10
19.39641261433752
 20
240.2978388616568
 30
0.0
  0
POINT
  5
E104
330
E094
100
AcDbEntity
  8
DEFPOINTS
 62
     0
440
 16777216
 48
3.0
100
AcDbPoint
 10
99.39641261433752
 20
240.2978388616568
 30
0.0
  0
POINT
  5
E105
330
E094
100
AcDbEntity
  8
DEFPOINTS
 62
     0
440
 16777216
 48
3.0
100
AcDbPoint
 10
99.39641261433752
 20
227.8585676420548
 30
0.0
  0
ENDBLK
  5
E096
330
E094
100
AcDbEntity
  8
0
 48
3.0
100
AcDbBlockEnd
  0
BLOCK
  5
E0A1
330
E0A0
100
AcDbEntity
  8
0
 48
3.0
100
AcDbBlockBegin
  2
*D9
 70
     1
 10
0.0
 20
0.0
 30
0.0
  3
*D9
  1

  0
LINE
  5
E12A
330
E0A0
100
AcDbEntity
  8
2寸法線
 62
     0
440
 16777216
 48
3.0
370
    -2
100
AcDbLine
 10
149.621447476454
 20
242.2978388616568
 30
0.0
 11
149.621447476454
 21
298.4375139545123
 31
0.0
  0
LINE
  5
E12B
330
E0A0
100
AcDbEntity
  8
2寸法線
 62
     0
440
 16777216
 48
3.0
370
    -2
100
AcDbLine
 10
238.121448012896
 20
242.2978388616568
 30
0.0
 11
238.121448012896
 21
298.4375139545123
 31
0.0
  0
LINE
  5
E12C
330
E0A0
100
AcDbEntity
  8
2寸法線
 62
     0
440
 16777216
 48
3.0
370
    -2
100
AcDbLine
 10
151.1214474764541
 20
297.4375139545123
 30
0.0
 11
236.621448012896
 21
297.4375139545123
 31
0.0
  0
INSERT
  5
E12D
330
E0A0
100
AcDbEntity
  8
2寸法線
 62
     0
440
 16777216
 48
3.0
370
    -2
100
AcDbBlockReference
  2
1
 10
149.621447476454
 20
297.4375139545123
 30
0.0
 41
1.5
 42
1.5
 43
1.5
 50
180.0
  0
INSERT
  5
E12E
330
E0A0
100
AcDbEntity
  8
2寸法線
 62
     0
440
 16777216
 48
3.0
370
    -2
100
AcDbBlockReference
  2
1
 10
238.121448012896
 20
297.4375139545123
 30
0.0
 41
1.5
 42
1.5
 43
1.5
  0
MTEXT
  5
E12F
330
E0A0
100
AcDbEntity
  8
2寸法線
 62
     1
440
 16777216
 48
3.0
100
AcDbMText
 10
193.871447744675
 20
300.1875139545123
 30
0.0
 40
3.5
 41
0.0
 46
0.0
 71
     5
 72
     1
  1
\A1;89
  7
KANJI
 73
     1
 44
1.0
  0
POINT
  5
E130
330
E0A0
100
AcDbEntity
  8
DEFPOINTS
 62
     0
440
 16777216
 48
3.0
100
AcDbPoint
 10
149.621447476454
 20
240.2978388616568
 30
0.0
  0
POINT
  5
E131
330
E0A0
100
AcDbEntity
  8
DEFPOINTS
 62
     0
440
 16777216
 48
3.0
100
AcDbPoint
 10
238.121448012896
 20
240.2978388616568
 30
0.0
  0
POINT
  5
E132
330
E0A0
100
AcDbEntity
  8
DEFPOINTS
 62
     0
440
 16777216
 48
3.0
100
AcDbPoint
 10
238.121448012896
 20
297.4375139545123
 30
0.0
  0
ENDBLK
  5
E0A2
330
E0A0
100
AcDbEntity
  8
0
 48
3.0
100
AcDbBlockEnd
  0
BLOCK
  5
E0AD
330
E0AC
100
AcDbEntity
  8
0
 48
3.0
100
AcDbBlockBegin
  2
*D10
 70
     1
 10
0.0
 20
0.0
 30
0.0
  3
*D10
  1

  0
LINE
  5
E133
330
E0AC
100
AcDbEntity
  8
2寸法線
 62
     0
440
 16777216
 48
3.0
370
    -2
100
AcDbLine
 10
195.8724434339685
 20
285.3978388614031
 30
0.0
 11
249.5202152336099
 21
285.3978388614031
 31
0.0
  0
LINE
  5
E134
330
E0AC
100
AcDbEntity
  8
2寸法線
 62
     0
440
 16777216
 48
3.0
370
    -2
100
AcDbLine
 10
240.1214480128962
 20
240.297838861657
 30
0.0
 11
249.5202152336099
 21
240.297838861657
 31
0.0
  0
LINE
  5
E135
330
E0AC
100
AcDbEntity
  8
2寸法線
 62
     0
440
 16777216
 48
3.0
370
    -2
100
AcDbLine
 10
248.5202152336098
 20
283.8978388614031
 30
0.0
 11
248.5202152336098
 21
241.7978388616569
 31
0.0
  0
INSERT
  5
E136
330
E0AC
100
AcDbEntity
  8
2寸法線
 62
     0
440
 16777216
 48
3.0
370
    -2
100
AcDbBlockReference
  2
1
 10
248.5202152336098
 20
285.3978388614031
 30
0.0
 41
1.5
 42
1.5
 43
1.5
 50
90.0
  0
INSERT
  5
E137
330
E0AC
100
AcDbEntity
  8
2寸法線
 62
     0
440
 16777216
 48
3.0
370
    -2
100
AcDbBlockReference
  2
1
 10
248.5202152336098
 20
240.297838861657
 30
0.0
 41
1.5
 42
1.5
 43
1.5
 50
270.0
  0
MTEXT
  5
E138
330
E0AC
100
AcDbEntity
  8
2寸法線
 62
     1
440
 16777216
 48
3.0
100
AcDbMText
 10
245.7702152336099
 20
262.8478388615299
 30
0.0
 40
3.5
 41
0.0
 46
0.0
 71
     5
 72
     1
  1
\A1;45
  7
KANJI
 11
0.0000000000000001
 21
1.0
 31
0.0
 73
     1
 44
1.0
  0
POINT
  5
E139
330
E0AC
100
AcDbEntity
  8
DEFPOINTS
 62
     0
440
 16777216
 48
3.0
100
AcDbPoint
 10
193.8724434339685
 20
285.3978388614031
 30
0.0
  0
POINT
  5
E13A
330
E0AC
100
AcDbEntity
  8
DEFPOINTS
 62
     0
440
 16777216
 48
3.0
100
AcDbPoint
 10
238.1214480128962
 20
240.297838861657
 30
0.0
  0
POINT
  5
E13B
330
E0AC
100
AcDbEntity
  8
DEFPOINTS
 62
     0
440
 16777216
 48
3.0
100
AcDbPoint
 10
248.5202152336098
 20
240.297838861657
 30
0.0
  0
ENDBLK
  5
E0AE
330
E0AC
100
AcDbEntity
  8
0
 48
3.0
100
AcDbBlockEnd
  0
BLOCK
  5
E0B9
330
E0B8
100
AcDbEntity
  8
0
 48
3.0
100
AcDbBlockBegin
  2
*D11
 70
     1
 10
0.0
 20
0.0
 30
0.0
  3
*D11
  1

  0
LINE
  5
E118
330
E0B8
100
AcDbEntity
  8
2寸法線
 62
     0
440
 16777216
 48
3.0
370
    -2
100
AcDbLine
 10
68.89641261433829
 20
185.917714724422
 30
0.0
 11
118.3266887481292
 21
185.917714724422
 31
0.0
  0
LINE
  5
E119
330
E0B8
100
AcDbEntity
  8
2寸法線
 62
     0
440
 16777216
 48
3.0
370
    -2
100
AcDbLine
 10
68.89641261433829
 20
127.9177147244221
 30
0.0
 11
118.3266887481292
 21
127.9177147244221
 31
0.0
  0
LINE
  5
E11A
330
E0B8
100
AcDbEntity
  8
2寸法線
 62
     0
440
 16777216
 48
3.0
370
    -2
100
AcDbLine
 10
117.3266887481292
 20
184.417714724422
 30
0.0
 11
117.3266887481292
 21
129.417714724422
 31
0.0
  0
INSERT
  5
E11B
330
E0B8
100
AcDbEntity
  8
2寸法線
 62
     0
440
 16777216
 48
3.0
370
    -2
100
AcDbBlockReference
  2
1
 10
117.3266887481292
 20
185.917714724422
 30
0.0
 41
1.5
 42
1.5
 43
1.5
 50
90.0
  0
INSERT
  5
E11C
330
E0B8
100
AcDbEntity
  8
2寸法線
 62
     0
440
 16777216
 48
3.0
370
    -2
100
AcDbBlockReference
  2
1
 10
117.3266887481292
 20
127.9177147244221
 30
0.0
 41
1.5
 42
1.5
 43
1.5
 50
270.0
  0
MTEXT
  5
E11D
330
E0B8
100
AcDbEntity
  8
2寸法線
 62
     1
440
 16777216
 48
3.0
100
AcDbMText
 10
114.5766887481292
 20
156.917714724422
 30
0.0
 40
3.5
 41
0.0
 46
0.0
 71
     5
 72
     1
  1
\A1;58
  7
KANJI
 11
0.0000000000000001
 21
1.0
 31
0.0
 73
     1
 44
1.0
  0
POINT
  5
E11E
330
E0B8
100
AcDbEntity
  8
DEFPOINTS
 62
     0
440
 16777216
 48
3.0
100
AcDbPoint
 10
66.89641261433829
 20
185.917714724422
 30
0.0
  0
POINT
  5
E11F
330
E0B8
100
AcDbEntity
  8
DEFPOINTS
 62
     0
440
 16777216
 48
3.0
100
AcDbPoint
 10
66.89641261433829
 20
127.9177147244221
 30
0.0
  0
POINT
  5
E120
330
E0B8
100
AcDbEntity
  8
DEFPOINTS
 62
     0
440
 16777216
 48
3.0
100
AcDbPoint
 10
117.3266887481292
 20
127.9177147244221
 30
0.0
  0
ENDBLK
  5
E0BA
330
E0B8
100
AcDbEntity
  8
0
 48
3.0
100
AcDbBlockEnd
  0
BLOCK
  5
E0C5
330
E0C4
100
AcDbEntity
  8
0
 48
3.0
100
AcDbBlockBegin
  2
*D12
 70
     1
 10
0.0
 20
0.0
 30
0.0
  3
*D12
  1

  0
LINE
  5
E121
330
E0C4
100
AcDbEntity
  8
2寸法線
 62
     0
440
 16777216
 48
3.0
370
    -2
100
AcDbLine
 10
99.39641148184955
 20
112.391828822115
 30
0.0
 11
99.39641148184955
 21
100.9418584225634
 31
0.0
  0
LINE
  5
E122
330
E0C4
100
AcDbEntity
  8
2寸法線
 62
     0
440
 16777216
 48
3.0
370
    -2
100
AcDbLine
 10
89.39641028230608
 20
134.6677163151346
 30
0.0
 11
89.39641028230608
 21
100.9418584225634
 31
0.0
  0
LINE
  5
E123
330
E0C4
100
AcDbEntity
  8
2寸法線
 62
     0
440
 16777216
 48
3.0
370
    -2
100
AcDbLine
 10
97.89641148184955
 20
101.9418584225634
 30
0.0
 11
90.89641028230607
 21
101.9418584225634
 31
0.0
  0
INSERT
  5
E124
330
E0C4
100
AcDbEntity
  8
2寸法線
 62
     0
440
 16777216
 48
3.0
370
    -2
100
AcDbBlockReference
  2
1
 10
99.39641148184955
 20
101.9418584225634
 30
0.0
 41
1.5
 42
1.5
 43
1.5
  0
INSERT
  5
E125
330
E0C4
100
AcDbEntity
  8
2寸法線
 62
     0
440
 16777216
 48
3.0
370
    -2
100
AcDbBlockReference
  2
1
 10
89.39641028230608
 20
101.9418584225634
 30
0.0
 41
1.5
 42
1.5
 43
1.5
 50
180.0
  0
MTEXT
  5
E126
330
E0C4
100
AcDbEntity
  8
2寸法線
 62
     1
440
 16777216
 48
3.0
100
AcDbMText
 10
94.39641088207782
 20
104.6918584225634
 30
0.0
 40
3.5
 41
0.0
 46
0.0
 71
     5
 72
     1
  1
\A1;10
  7
KANJI
 73
     1
 44
1.0
  0
POINT
  5
E127
330
E0C4
100
AcDbEntity
  8
DEFPOINTS
 62
     0
440
 16777216
 48
3.0
100
AcDbPoint
 10
99.39641148184955
 20
114.391828822115
 30
0.0
  0
POINT
  5
E128
330
E0C4
100
AcDbEntity
  8
DEFPOINTS
 62
     0
440
 16777216
 48
3.0
100
AcDbPoint
 10
89.39641028230608
 20
136.6677163151346
 30
0.0
  0
POINT
  5
E129
330
E0C4
100
AcDbEntity
  8
DEFPOINTS
 62
     0
440
 16777216
 48
3.0
100
AcDbPoint
 10
89.39641028230608
 20
101.9418584225634
 30
0.0
  0
ENDBLK
  5
E0C6
330
E0C4
100
AcDbEntity
  8
0
 48
3.0
100
AcDbBlockEnd
  0
ENDSEC
  0
SECTION
  2
ENTITIES
  0
LINE
  5
DF75
330
17
100
AcDbEntity
  8
C4
100
AcDbLine
 10
88.24944718667751
 20
285.3978388616567
 30
0.0
 11
30.54337804199753
 21
285.3978388616567
 31
0.0
  0
ARC
  5
DF76
330
17
100
AcDbEntity
  8
C4
100
AcDbCircle
 10
87.9003707676822
 20
255.3978388616567
 30
0.0
 40
30.0
100
AcDbArc
 50
84.29027121121801
 51
90.0
  0
LINE
  5
DF77
330
17
100
AcDbEntity
  8
C4
100
AcDbLine
 10
98.67600357426381
 20
284.4700211485781
 30
0.0
 11
90.53768757160872
 21
285.2837287488599
 31
0.0
  0
LINE
  5
DF78
330
17
100
AcDbEntity
  8
C4
100
AcDbLine
 10
28.25514013667356
 20
285.2837289967827
 30
0.0
 11
20.11682165441124
 21
284.4700211485781
 31
0.0
  0
ARC
  5
DF79
330
17
100
AcDbEntity
  8
C4
100
AcDbCircle
 10
30.89245446099375
 20
255.3978388616567
 30
0.0
 40
30.0
100
AcDbArc
 50
90.0
 51
95.70972878878198
  0
LINE
  5
DF7A
330
17
100
AcDbEntity
  8
C4
100
AcDbLine
 10
30.54337805212839
 20
240.2978388616568
 30
0.0
 11
88.24944717654664
 21
240.2978388616568
 31
0.0
  0
LINE
  5
DF7B
330
17
100
AcDbEntity
  8
C4
100
AcDbLine
 10
30.54337805212839
 20
240.2978388616568
 30
0.0
 11
28.25513762697296
 21
240.2978388616568
 31
0.0
  0
LINE
  5
DF7C
330
17
100
AcDbEntity
  8
C4
100
AcDbLine
 10
90.53768760170209
 20
240.2978388616568
 30
0.0
 11
88.24944717654664
 21
240.2978388616568
 31
0.0
  0
SPLINE
  5
DF7D
330
17
100
AcDbEntity
  8
C4
100
AcDbSpline
210
0.0
220
0.0
230
1.0
 70
    24
 71
     3
 72
    28
 73
    24
 74
     0
 42
0.000000001
 43
0.0000000001
 40
0.0
 40
0.0
 40
0.0
 40
0.0
 40
0.1249999999999995
 40
0.1249999999999995
 40
0.1874999999999992
 40
0.1874999999999992
 40
0.249999999999999
 40
0.249999999999999
 40
0.3749999999999987
 40
0.3749999999999987
 40
0.4374999999999988
 40
0.4374999999999988
 40
0.499999999999999
 40
0.499999999999999
 40
0.6249999999999991
 40
0.6249999999999991
 40
0.6874999999999993
 40
0.6874999999999993
 40
0.7499999999999993
 40
0.7499999999999993
 40
0.8749999999999996
 40
0.8749999999999996
 40
1.0
 40
1.0
 40
1.0
 40
1.0
 10
99.39641261433752
 20
283.5708200345482
 30
0.0
 10
99.39641261433752
 20
283.5570207331805
 30
0.0
 10
99.39641261433752
 20
283.4042194863162
 30
0.0
 10
99.39641261433752
 20
282.9750968128017
 30
0.0
 10
99.39641261433752
 20
282.7984962550024
 30
0.0
 10
99.39641261433752
 20
282.3767623118613
 30
0.0
 10
99.39641261433752
 20
282.1302043700709
 30
0.0
 10
99.39641261433752
 20
281.3014931333562
 30
0.0
 10
99.39641261433752
 20
280.6286783821126
 30
0.0
 10
99.39641261433752
 20
279.4414570002657
 30
0.0
 10
99.39641261433752
 20
279.015848595028
 30
0.0
 10
99.39641261433752
 20
278.102765374895
 30
0.0
 10
99.39641261433752
 20
277.6227770822741
 30
0.0
 10
99.39641261433752
 20
276.1151471099749
 30
0.0
 10
99.39641261433752
 20
275.0203377300047
 30
0.0
 10
99.39641261433752
 20
273.2416686803674
 30
0.0
 10
99.39641261433752
 20
272.6230702070254
 30
0.0
 10
99.39641261433752
 20
271.3646250239992
 30
0.0
 10
99.39641261433752
 20
270.7224713882176
 30
0.0
 10
99.39641261433752
 20
268.758021404951
 30
0.0
 10
99.39641261433752
 20
267.3980973264718
 30
0.0
 10
99.39641261433752
 20
264.5733718857516
 30
0.0
 10
99.39641261433752
 20
263.144682611781
 30
0.0
 10
99.39641261433752
 20
261.7000855025174
 30
0.0
  0
SPLINE
  5
DF7E
330
17
100
AcDbEntity
  8
C4
100
AcDbSpline
210
0.0
220
0.0
230
1.0
 70
    24
 71
     3
 72
    28
 73
    24
 74
     0
 42
0.000000001
 43
0.0000000001
 40
0.0
 40
0.0
 40
0.0
 40
0.0
 40
0.1250000000000003
 40
0.1250000000000003
 40
0.1875000000000003
 40
0.1875000000000003
 40
0.2500000000000004
 40
0.2500000000000004
 40
0.3750000000000009
 40
0.3750000000000009
 40
0.4375000000000015
 40
0.4375000000000015
 40
0.5000000000000019
 40
0.5000000000000019
 40
0.625000000000002
 40
0.625000000000002
 40
0.6875000000000018
 40
0.6875000000000018
 40
0.7500000000000016
 40
0.7500000000000016
 40
0.8750000000000007
 40
0.8750000000000007
 40
1.0
 40
1.0
 40
1.0
 40
1.0
 10
19.39641261433752
 20
261.7000855025174
 30
0.0
 10
19.39641261433752
 20
263.1446828280889
 30
0.0
 10
19.39641261433752
 20
264.5630443046218
 30
0.0
 10
19.39641261433752
 20
266.6528524758098
 30
0.0
 10
19.39641261433752
 20
267.3431209899975
 30
0.0
 10
19.39641261433752
 20
268.7107228095385
 30
0.0
 10
19.39641261433752
 20
269.390731031672
 30
0.0
 10
19.39641261433752
 20
271.3696159345911
 30
0.0
 10
19.39641261433752
 20
272.6196377851167
 30
0.0
 10
19.39641261433752
 20
274.3922634319454
 30
0.0
 10
19.39641261433752
 20
274.9659549213559
 30
0.0
 10
19.39641261433752
 20
276.0777447084144
 30
0.0
 10
19.39641261433752
 20
276.6067205036554
 30
0.0
 10
19.39641261433752
 20
278.1153813450303
 30
0.0
 10
19.39641261433752
 20
279.0176381170001
 30
0.0
 10
19.39641261433752
 20
280.2135890590905
 30
0.0
 10
19.39641261433752
 20
280.5870157381507
 30
0.0
 10
19.39641261433752
 20
281.2651939408194
 30
0.0
 10
19.39641261433752
 20
281.571840426074
 30
0.0
 10
19.39641261433752
 20
282.3964693225273
 30
0.0
 10
19.39641261433752
 20
282.8200477509993
 30
0.0
 10
19.39641261433752
 20
283.4040786048747
 30
0.0
 10
19.39641261433752
 20
283.5570207311141
 30
0.0
 10
19.39641261433752
 20
283.5708200345482
 30
0.0
  0
LINE
  5
DF7F
330
17
100
AcDbEntity
  8
C4
100
AcDbLine
 10
28.25513762697296
 20
240.2978388616568
 30
0.0
 11
20.11682164302778
 21
240.2978388616568
 31
0.0
  0
LINE
  5
DF80
330
17
100
AcDbEntity
  8
C4
100
AcDbLine
 10
90.53768760170209
 20
240.2978388616568
 30
0.0
 11
98.67600358564727
 21
240.2978388616568
 31
0.0
  0
LINE
  5
DF81
330
17
100
AcDbEntity
  8
C4
100
AcDbLine
 10
99.39641261433752
 20
261.700085499095
 30
0.0
 11
99.39641261433752
 21
240.2978388616568
 31
0.0
  0
LINE
  5
DF82
330
17
100
AcDbEntity
  8
C4
100
AcDbLine
 10
99.39641261433752
 20
240.2978388616568
 30
0.0
 11
98.67600358564727
 21
240.2978388616568
 31
0.0
  0
LINE
  5
DF83
330
17
100
AcDbEntity
  8
C4
100
AcDbLine
 10
19.39641261433752
 20
240.2978388616568
 30
0.0
 11
19.39641261433752
 21
261.700085499095
 31
0.0
  0
LINE
  5
DF84
330
17
100
AcDbEntity
  8
C4
100
AcDbLine
 10
20.11682164302778
 20
240.2978388616568
 30
0.0
 11
19.39641261433752
 21
240.2978388616568
 31
0.0
  0
SPLINE
  5
DF85
330
17
100
AcDbEntity
  8
C4
100
AcDbSpline
210
0.0
220
0.0
230
1.0
 70
    24
 71
     3
 72
     9
 73
     5
 74
     0
 42
0.000000001
 43
0.0000000001
 40
0.0
 40
0.0
 40
0.0
 40
0.0
 40
0.4995708181928659
 40
1.0
 40
1.0
 40
1.0
 40
1.0
 10
99.39641261433752
 20
283.673946651955
 30
0.0
 10
99.39641261433752
 20
283.6696733488909
 30
0.0
 10
99.39641261433752
 20
283.6611194003647
 30
0.0
 10
99.39641261433752
 20
283.600937042602
 30
0.0
 10
99.39641261433752
 20
283.5708200345482
 30
0.0
  0
SPLINE
  5
DF86
330
17
100
AcDbEntity
  8
C4
100
AcDbSpline
210
0.0
220
0.0
230
1.0
 70
    24
 71
     3
 72
     8
 73
     4
 74
     0
 42
0.000000001
 43
0.0000000001
 40
0.0
 40
0.0
 40
0.0
 40
0.0
 40
1.0
 40
1.0
 40
1.0
 40
1.0
 10
19.39641261433752
 20
283.5708202328931
 30
0.0
 10
19.39641261433752
 20
283.6396528716448
 30
0.0
 10
19.39641261433752
 20
283.6740410267855
 30
0.0
 10
19.39641261433752
 20
283.6739901553649
 30
0.0
  0
LINE
  5
DF87
330
17
100
AcDbEntity
  8
C4
100
AcDbLine
 10
235.7479227689723
 20
261.679632018587
 30
0.0
 11
236.1211433568083
 21
240.2978388616568
 31
0.0
  0
ARC
  5
DF88
330
17
100
AcDbEntity
  8
C4
100
AcDbCircle
 10
213.7512734755317
 20
261.295679076967
 30
0.0
 40
21.99999999999997
100
AcDbArc
 50
1.000000000001761
 51
89.41113436978991
  0
ARC
  5
DF89
330
17
100
AcDbEntity
  8
C4
100
AcDbCircle
 10
193.871448012896
 20
-1672.914661138342
 30
0.0
 40
1956.3125
100
AcDbArc
 50
89.41113436978991
 51
90.58886563021008
  0
ARC
  5
DF8A
330
17
100
AcDbEntity
  8
C4
100
AcDbCircle
 10
173.9916225502604
 20
261.295679076967
 30
0.0
 40
22.00000000000001
100
AcDbArc
 50
90.58886563021008
 51
178.9999999999982
  0
LINE
  5
DF8B
330
17
100
AcDbEntity
  8
C4
100
AcDbLine
 10
151.9949732568197
 20
261.679632018587
 30
0.0
 11
151.6217526689838
 21
240.2978388616568
 31
0.0
  0
LINE
  5
DF8C
330
17
100
AcDbEntity
  8
C4
100
AcDbLine
 10
151.345559320332
 20
240.2978388616568
 30
0.0
 11
151.6217526689838
 21
240.2978388616568
 31
0.0
  0
LINE
  5
DF8D
330
17
100
AcDbEntity
  8
C4
100
AcDbLine
 10
236.1211433568083
 20
240.2978388616568
 30
0.0
 11
236.39733670546
 21
240.2978388616568
 31
0.0
  0
LINE
  5
DF8E
330
17
100
AcDbEntity
  8
C4
100
AcDbLine
 10
237.1934889157651
 20
240.2978388616568
 30
0.0
 11
236.39733670546
 21
240.2978388616568
 31
0.0
  0
LINE
  5
DF8F
330
17
100
AcDbEntity
  8
C4
100
AcDbLine
 10
151.345559320332
 20
240.2978388616568
 30
0.0
 11
150.5494071100269
 21
240.2978388616568
 31
0.0
  0
LINE
  5
DF90
330
17
100
AcDbEntity
  8
C4
100
AcDbLine
 10
237.1934889157651
 20
240.2978388616568
 30
0.0
 11
238.0073205141596
 21
240.2978388616568
 31
0.0
  0
LINE
  5
DF91
330
17
100
AcDbEntity
  8
C4
100
AcDbLine
 10
149.7355755116324
 20
240.2978388616568
 30
0.0
 11
150.5494071100269
 21
240.2978388616568
 31
0.0
  0
ARC
  5
DF92
330
17
100
AcDbEntity
  8
C4
100
AcDbCircle
 10
193.871448012896
 20
-1672.914661138342
 30
0.0
 40
1958.3125
100
AcDbArc
 50
89.41113436978991
 51
90.58880735127077
  0
LINE
  5
DF93
330
17
100
AcDbEntity
  8
C4
100
AcDbLine
 10
237.7476529209793
 20
261.7125453353285
 30
0.0
 11
238.121448012896
 21
240.2978388616568
 31
0.0
  0
LINE
  5
DF94
330
17
100
AcDbEntity
  8
C4
100
AcDbLine
 10
238.121448012896
 20
240.2978388616568
 30
0.0
 11
238.0073205141596
 21
240.2978388616568
 31
0.0
  0
SPLINE
  5
DF95
330
17
100
AcDbEntity
  8
C4
100
AcDbSpline
210
0.0
220
0.0
230
1.0
 70
    24
 71
     3
 72
     8
 73
     4
 74
     0
 42
0.000000001
 43
0.0000000001
 40
0.0
 40
0.0
 40
0.0
 40
0.0
 40
0.0000019915197881
 40
0.0000019915197881
 40
0.0000019915197881
 40
0.0000019915197881
 10
237.7476181592852
 20
261.7145368314616
 30
0.0
 10
237.7476297448893
 20
261.7138730926383
 30
0.0
 10
237.7476413310676
 20
261.7132093209341
 30
0.0
 10
237.7476529143744
 20
261.7125457137229
 30
0.0
  0
ARC
  5
DF96
330
17
100
AcDbEntity
  8
C4
100
AcDbCircle
 10
173.9916225502604
 20
261.295679076967
 30
0.0
 40
24.00000000000023
100
AcDbArc
 50
90.58886563021008
 51
178.9999999999982
  0
LINE
  5
DF97
330
17
100
AcDbEntity
  8
C4
100
AcDbLine
 10
149.621448012896
 20
240.2978388616568
 30
0.0
 11
149.9952778665069
 21
261.7145368314616
 31
0.0
  0
LINE
  5
DF98
330
17
100
AcDbEntity
  8
C4
100
AcDbLine
 10
149.7355755116324
 20
240.2978388616568
 30
0.0
 11
149.621448012896
 21
240.2978388616568
 31
0.0
  0
ARC
  5
DF99
330
17
100
AcDbEntity
  8
C4
100
AcDbCircle
 10
213.7512734755317
 20
261.295679076967
 30
0.0
 40
24.00000000000029
100
AcDbArc
 50
1.000000000001761
 51
89.41113436978991
  0
LINE
  5
DF9A
330
17
100
AcDbEntity
  8
C4
100
AcDbLine
 10
99.39641261433752
 20
114.6680193805007
 30
0.0
 11
19.39641261433752
 21
114.6680193805007
 31
0.0
  0
LINE
  5
DF9B
330
17
100
AcDbEntity
  8
C4
100
AcDbLine
 10
99.39641261433752
 20
114.6680193805007
 30
0.0
 11
99.39641261433752
 21
114.3918260318489
 31
0.0
  0
ELLIPSE
  5
DF9C
330
17
100
AcDbEntity
  8
C4
100
AcDbEllipse
 10
98.59641261433768
 20
114.3918260318489
 30
0.0
 11
0.0
 21
0.8001218624351196
 31
0.0
210
0.0
220
0.0
230
1.0
 40
0.9998476951564136
 41
3.241246226370742
 42
4.712388980384703
  0
LINE
  5
DF9D
330
17
100
AcDbEntity
  8
C4
100
AcDbLine
 10
98.67600358564727
 20
113.5956738215438
 30
0.0
 11
90.53768760170299
 21
112.7818422231496
 31
0.0
  0
LINE
  5
DF9E
330
17
100
AcDbEntity
  8
C4
100
AcDbLine
 10
20.11682164302778
 20
113.5956738215438
 30
0.0
 11
28.25513762697204
 21
112.7818422231496
 31
0.0
  0
ELLIPSE
  5
DF9F
330
17
100
AcDbEntity
  8
C4
100
AcDbEllipse
 10
20.19641261433759
 20
114.3918260318489
 30
0.0
 11
0.0
 21
-0.8001218624351196
 31
0.0
210
0.0
220
0.0
230
1.0
 40
0.9998476951563958
 41
4.712388980384703
 42
6.183531734398663
  0
LINE
  5
DFA0
330
17
100
AcDbEntity
  8
C4
100
AcDbLine
 10
19.39641261433752
 20
114.3918260318489
 30
0.0
 11
19.39641261433752
 21
114.6680193805007
 31
0.0
  0
ELLIPSE
  5
DFA1
330
17
100
AcDbEntity
  8
C4
100
AcDbEllipse
 10
30.54337805212759
 20
135.671218269423
 30
0.0
 11
-0.0000000000014069
 21
23.00350354500988
 31
0.0
210
0.0
220
0.0
230
1.0
 40
0.9998476951563903
 41
3.041939080808795
 42
3.141592653589732
  0
ELLIPSE
  5
DFA2
330
17
100
AcDbEntity
  8
C4
100
AcDbEllipse
 10
88.24944717654767
 20
135.671218269423
 30
0.0
 11
-0.0000000000014211
 21
-23.00350354500988
 31
0.0
210
0.0
220
0.0
230
1.0
 40
0.9998476951563912
 41
0.0
 42
0.0996535727809996
  0
LINE
  5
DFA3
330
17
100
AcDbEntity
  8
C4
100
AcDbLine
 10
88.24944717654757
 20
112.6677147244129
 30
0.0
 11
30.54337805212748
 21
112.6677147244129
 31
0.0
  0
LINE
  5
DFA4
330
17
100
AcDbEntity
  8
C4
100
AcDbLine
 10
99.39641261433752
 20
115.0412399683366
 30
0.0
 11
99.39641261433752
 21
114.6680193805007
 31
0.0
  0
LINE
  5
DFA5
330
17
100
AcDbEntity
  8
C4
100
AcDbLine
 10
19.39641261433752
 20
115.0412399683366
 30
0.0
 11
19.39641261433752
 21
114.6680193805007
 31
0.0
  0
LINE
  5
DFA6
330
17
100
AcDbEntity
  8
C4
100
AcDbLine
 10
19.39641261433752
 20
199.1674100683251
 30
0.0
 11
99.39641261433752
 21
199.1674100683251
 31
0.0
  0
LINE
  5
DFA7
330
17
100
AcDbEntity
  8
C4
100
AcDbLine
 10
99.39641261433752
 20
198.7941894804892
 30
0.0
 11
99.39641261433752
 21
199.1674100683251
 31
0.0
  0
LINE
  5
DFA8
330
17
100
AcDbEntity
  8
C4
100
AcDbLine
 10
19.39641261433752
 20
198.7941894804892
 30
0.0
 11
19.39641261433752
 21
199.1674100683251
 31
0.0
  0
ELLIPSE
  5
DFA9
330
17
100
AcDbEntity
  8
C4
100
AcDbEllipse
 10
20.19641261433759
 20
199.4436034169769
 30
0.0
 11
0.0
 21
-0.8001218624351196
 31
0.0
210
0.0
220
0.0
230
1.0
 40
0.9998476951563958
 41
3.241246226370743
 42
4.712388980384703
  0
ELLIPSE
  5
DFAA
330
17
100
AcDbEntity
  8
C4
100
AcDbEllipse
 10
98.59641261433768
 20
199.4436034169769
 30
0.0
 11
0.0
 21
0.8001218624351196
 31
0.0
210
0.0
220
0.0
230
1.0
 40
0.9998476951564136
 41
4.712388980384703
 42
6.183531734398665
  0
ELLIPSE
  5
DFAB
330
17
100
AcDbEntity
  8
C4
100
AcDbEllipse
 10
30.5433780521285
 20
178.1642111794033
 30
0.0
 11
0.0000000000014211
 21
23.00350354500988
 31
0.0
210
0.0
220
0.0
230
1.0
 40
0.9998476951563912
 41
0.0
 42
0.099653572780999
  0
LINE
  5
DFAC
330
17
100
AcDbEntity
  8
C4
100
AcDbLine
 10
30.54337805212839
 20
201.1677147244129
 30
0.0
 11
88.24944717654664
 21
201.1677147244129
 31
0.0
  0
ELLIPSE
  5
DFAD
330
17
100
AcDbEntity
  8
C4
100
AcDbEllipse
 10
88.24944717654677
 20
178.1642111794033
 30
0.0
 11
0.0000000000014211
 21
-23.00350354500986
 31
0.0
210
0.0
220
0.0
230
1.0
 40
0.9998476951563917
 41
3.041939080808794
 42
3.141592653589731
  0
LINE
  5
DFAE
330
17
100
AcDbEntity
  8
C4
100
AcDbLine
 10
90.53768760170209
 20
201.0535872256767
 30
0.0
 11
98.67600358564727
 21
200.239755627282
 31
0.0
  0
LINE
  5
DFAF
330
17
100
AcDbEntity
  8
C4
100
AcDbLine
 10
28.25513762697296
 20
201.0535872256767
 30
0.0
 11
20.11682164302778
 21
200.239755627282
 31
0.0
  0
LINE
  5
DFB0
330
17
100
AcDbEntity
  8
C4
100
AcDbLine
 10
99.39641261433752
 20
199.4436034169769
 30
0.0
 11
99.39641261433752
 21
199.1674100683251
 31
0.0
  0
LINE
  5
DFB1
330
17
100
AcDbEntity
  8
C4
100
AcDbLine
 10
19.39641261433752
 20
199.1674100683251
 30
0.0
 11
19.39641261433752
 21
199.4436034169769
 31
0.0
  0
LINE
  5
DFC3
330
17
100
AcDbEntity
  8
C4
100
AcDbLine
 10
19.39641261433752
 20
136.811785072213
 30
0.0
 11
19.39641261433752
 21
115.0412399683366
 31
0.0
  0
LINE
  5
DFC4
330
17
100
AcDbEntity
  8
C4
100
AcDbLine
 10
99.39641261433752
 20
115.0412399683366
 30
0.0
 11
99.39641261433752
 21
136.811785072213
 31
0.0
  0
LINE
  5
DFC5
330
17
100
AcDbEntity
  8
C4
100
AcDbLine
 10
19.39641261433752
 20
198.7941894804892
 30
0.0
 11
19.39641261433752
 21
177.0236443766137
 31
0.0
  0
LINE
  5
DFC6
330
17
100
AcDbEntity
  8
C4
100
AcDbLine
 10
99.39641261433752
 20
177.0236443766137
 30
0.0
 11
99.39641261433752
 21
198.7941894804892
 31
0.0
  0
LINE
  5
DFC7
330
17
100
AcDbEntity
  8
C4
100
AcDbLine
 10
99.39641261433752
 20
136.811785072213
 30
0.0
 11
99.39641261433752
 21
177.0236443766137
 31
0.0
  0
LINE
  5
DFC8
330
17
100
AcDbEntity
  8
C4
100
AcDbLine
 10
19.39641261433752
 20
136.811785072213
 30
0.0
 11
19.39641261433752
 21
177.0236443766137
 31
0.0
  0
ARC
  5
DFC9
330
17
100
AcDbEntity
  8
C4
100
AcDbCircle
 10
20.39641261433752
 20
283.4929899384331
 30
0.0
 40
1.0
100
AcDbArc
 50
95.70972878878198
 51
180.0
  0
ARC
  5
DFCA
330
17
100
AcDbEntity
  8
C4
100
AcDbCircle
 10
98.39641261433797
 20
283.4929899384335
 30
0.0
 40
1.0
100
AcDbArc
 50
0.0
 51
84.29027121124418
  0
LINE
  5
DFFE
330
17
100
AcDbEntity
  8
1外形線
  6
Continuous
370
    15
100
AcDbLine
 10
194.5214480128962
 20
240.2978388616568
 30
0.0
 11
195.5214480128962
 21
240.2978388616568
 31
0.0
  0
LINE
  5
DFFF
330
17
100
AcDbEntity
  8
1外形線
  6
Continuous
370
    15
100
AcDbLine
 10
194.5214480128962
 20
240.2978388616568
 30
0.0
 11
193.221448012896
 21
240.2978388616568
 31
0.0
  0
LINE
  5
E000
330
17
100
AcDbEntity
  8
1外形線
  6
Continuous
370
    15
100
AcDbLine
 10
192.221448012896
 20
240.2978388616568
 30
0.0
 11
193.221448012896
 21
240.2978388616568
 31
0.0
  0
LINE
  5
E001
330
17
100
AcDbEntity
  8
1外形線
  6
Continuous
370
    15
100
AcDbLine
 10
195.5214480128962
 20
240.2978388616568
 30
0.0
 11
196.5214480128962
 21
240.2978388616568
 31
0.0
  0
LINE
  5
E002
330
17
100
AcDbEntity
  8
1外形線
  6
Continuous
370
    15
100
AcDbLine
 10
191.221448012896
 20
240.2978388616568
 30
0.0
 11
192.221448012896
 21
240.2978388616568
 31
0.0
  0
LINE
  5
E004
330
17
100
AcDbEntity
  8
1外形線
  6
Continuous
370
    15
100
AcDbLine
 10
235.6213718488734
 20
240.2978388616568
 30
0.0
 11
236.1214480128956
 21
240.2978388616568
 31
0.0
  0
LINE
  5
E005
330
17
100
AcDbEntity
  8
1外形線
  6
Continuous
370
    15
100
AcDbLine
 10
231.1195248221661
 20
250.2978388616568
 30
0.0
 11
233.6129777521364
 21
250.2978388616568
 31
0.0
  0
LINE
  5
E006
330
17
100
AcDbEntity
  8
1外形線
  6
Continuous
370
    15
100
AcDbLine
 10
235.6213718488734
 20
240.2978388616568
 30
0.0
 11
196.5214480128962
 21
240.2978388616568
 31
0.0
  0
LINE
  5
E007
330
17
100
AcDbEntity
  8
1外形線
  6
Continuous
370
    15
100
AcDbLine
 10
151.6214480128956
 20
240.2978388616568
 30
0.0
 11
152.1215241769178
 21
240.2978388616568
 31
0.0
  0
LINE
  5
E008
330
17
100
AcDbEntity
  8
1外形線
  6
Continuous
370
    15
100
AcDbLine
 10
154.1299182736558
 20
250.2978388616568
 30
0.0
 11
156.6733712036265
 21
250.2978388616568
 31
0.0
  0
LINE
  5
E009
330
17
100
AcDbEntity
  8
1外形線
  6
Continuous
370
    15
100
AcDbLine
 10
191.221448012896
 20
240.2978388616568
 30
0.0
 11
152.1215241769178
 21
240.2978388616568
 31
0.0
  0
LINE
  5
E00A
330
17
100
AcDbEntity
  8
1外形線
  6
Continuous
370
    15
100
AcDbLine
 10
193.3714480128974
 20
244.2978388616559
 30
0.0
 11
188.8714480128955
 21
244.2978388616559
 31
0.0
  0
LINE
  5
E00B
330
17
100
AcDbEntity
  8
1外形線
  6
Continuous
370
    15
100
AcDbLine
 10
195.5214480128962
 20
240.7978388616559
 30
0.0
 11
195.5214480128962
 21
243.2978388616559
 31
0.0
  0
ARC
  5
E00C
330
17
100
AcDbEntity
  8
1外形線
  6
Continuous
370
    15
100
AcDbCircle
 10
194.5214480128962
 20
243.2978388616559
 30
0.0
 40
1.0
100
AcDbArc
 50
0.0
 51
90.0
  0
LINE
  5
E00D
330
17
100
AcDbEntity
  8
1外形線
  6
Continuous
370
    15
100
AcDbLine
 10
192.221448012896
 20
243.2978388616559
 30
0.0
 11
192.221448012896
 21
240.7978388616559
 31
0.0
  0
ARC
  5
E00E
330
17
100
AcDbEntity
  8
1外形線
  6
Continuous
370
    15
100
AcDbCircle
 10
193.221448012896
 20
243.2978388616559
 30
0.0
 40
1.0
100
AcDbArc
 50
90.0
 51
180.0
  0
LINE
  5
E00F
330
17
100
AcDbEntity
  8
1外形線
  6
Continuous
370
    15
100
AcDbLine
 10
194.5214480128962
 20
244.2978388616559
 30
0.0
 11
194.3714480128947
 21
244.2978388616559
 31
0.0
  0
LINE
  5
E010
330
17
100
AcDbEntity
  8
1外形線
 48
2.0
100
AcDbLine
 10
195.5214480128962
 20
240.7978388616559
 30
0.0
 11
195.1714480128958
 21
240.7978388616559
 31
0.0
  0
ARC
  5
E011
330
17
100
AcDbEntity
  8
1外形線
 48
2.0
100
AcDbCircle
 10
195.1714480128958
 20
240.4978388616562
 30
0.0
 40
0.3
100
AcDbArc
 50
90.0
 51
180.0
  0
LINE
  5
E012
330
17
100
AcDbEntity
  8
1外形線
 48
2.0
100
AcDbLine
 10
192.5714480128954
 20
240.7978388616559
 30
0.0
 11
192.221448012896
 21
240.7978388616559
 31
0.0
  0
ARC
  5
E013
330
17
100
AcDbEntity
  8
1外形線
 48
2.0
100
AcDbCircle
 10
192.5714480128954
 20
240.4978388616557
 30
0.0
 40
0.3
100
AcDbArc
 50
0.0
 51
90.0
  0
LINE
  5
E014
330
17
100
AcDbEntity
  8
1外形線
  6
CENTER
 48
3.0
100
AcDbLine
 10
187.8714480128955
 20
243.2978388616559
 30
0.0
 11
187.8714480128955
 21
242.2978388616591
 31
0.0
  0
ARC
  5
E015
330
17
100
AcDbEntity
  8
1外形線
 48
3.0
100
AcDbCircle
 10
188.8714480128955
 20
243.2978388616559
 30
0.0
 40
1.0
100
AcDbArc
 50
90.0
 51
180.0
  0
LINE
  5
E016
330
17
100
AcDbEntity
  8
1外形線
  6
CENTER
 48
3.0
100
AcDbLine
 10
192.8714480128956
 20
240.4978388616557
 30
0.0
 11
192.8714480128956
 21
240.2978388616568
 31
0.0
  0
LINE
  5
E017
330
17
100
AcDbEntity
  8
1外形線
  6
CENTER
 48
3.0
100
AcDbLine
 10
194.8714480128956
 20
240.4978388616562
 30
0.0
 11
194.8714480128956
 21
240.2978388616568
 31
0.0
  0
LINE
  5
E018
330
17
100
AcDbEntity
  8
1外形線
100
AcDbLine
 10
193.73002665666
 20
243.9392602178943
 30
0.0
 11
193.3714480128956
 21
244.2978388616577
 31
0.0
  0
ARC
  5
E019
330
17
100
AcDbEntity
  8
1外形線
100
AcDbCircle
 10
193.8714480128965
 20
244.0806815741319
 30
0.0
 40
0.2
100
AcDbArc
 50
225.0000000000498
 51
315.0000000001713
  0
LINE
  5
E01A
330
17
100
AcDbEntity
  8
1外形線
100
AcDbLine
 10
194.3714480128956
 20
244.2978388616577
 30
0.0
 11
194.012869369135
 21
243.9392602178943
 31
0.0
  0
ARC
  5
E01B
330
17
100
AcDbEntity
  8
C4
100
AcDbCircle
 10
235.4758839348924
 20
248.6328358714002
 30
0.0
 40
0.5000000000000063
100
AcDbArc
 50
1.000000000001761
 51
55.71312302277525
  0
LINE
  5
E01C
330
17
100
AcDbEntity
  8
C4
100
AcDbLine
 10
235.7575523472133
 20
249.0459495428033
 30
0.0
 11
234.1763145767782
 21
250.1240662044641
 31
0.0
  0
ARC
  5
E01D
330
17
100
AcDbEntity
  8
C4
100
AcDbCircle
 10
233.6129777521364
 20
249.2978388616568
 30
0.0
 40
1.0
100
AcDbArc
 50
55.71312302277525
 51
90.0
  0
ARC
  5
E01F
330
17
100
AcDbEntity
  8
C4
100
AcDbCircle
 10
152.2670120908997
 20
248.6328358714002
 30
0.0
 40
0.5000000000000063
100
AcDbArc
 50
124.2868769772247
 51
178.9999999999982
  0
LINE
  5
E020
330
17
100
AcDbEntity
  8
C4
100
AcDbLine
 10
151.9853436785789
 20
249.0459495428033
 30
0.0
 11
153.566581449014
 21
250.1240662044641
 31
0.0
  0
ARC
  5
E021
330
17
100
AcDbEntity
  8
C4
100
AcDbCircle
 10
154.1299182736557
 20
249.2978388616568
 30
0.0
 40
1.0
100
AcDbArc
 50
90.0
 51
124.2868769772247
  0
LINE
  5
E026
330
17
100
AcDbEntity
  8
1外形線
 48
2.0
100
AcDbLine
 10
172.8714480128953
 20
242.2978388616586
 30
0.0
 11
187.8714480128956
 21
242.2978388616586
 31
0.0
  0
LINE
  5
E027
330
17
100
AcDbEntity
  8
1外形線
 48
2.0
100
AcDbLine
 10
214.8714480128958
 20
242.2978388616586
 30
0.0
 11
199.8714480128983
 21
242.2978388616586
 31
0.0
  0
ARC
  5
E028
330
17
100
AcDbEntity
  8
1外形線
 48
2.0
100
AcDbCircle
 10
214.8714480128958
 20
261.7978388616586
 30
0.0
 40
19.5
100
AcDbArc
 50
270.0
 51
322.4281306803082
  0
ARC
  5
E029
330
17
100
AcDbEntity
  8
1外形線
 48
2.0
100
AcDbCircle
 10
231.1195248221661
 20
249.2978388616564
 30
0.0
 40
1.0
100
AcDbArc
 50
90.0
 51
142.4281306802766
  0
ARC
  5
E02A
330
17
100
AcDbEntity
  8
1外形線
 48
2.0
100
AcDbCircle
 10
172.8714480128954
 20
261.7978388616586
 30
0.0
 40
19.5
100
AcDbArc
 50
217.5718693196911
 51
270.0
  0
ARC
  5
E02B
330
17
100
AcDbEntity
  8
1外形線
 48
2.0
100
AcDbCircle
 10
156.6233712036251
 20
249.2978388616564
 30
0.0
 40
1.0
100
AcDbArc
 50
37.57186931972338
 51
90.0
  0
LINE
  5
E02C
330
17
100
AcDbEntity
  8
1外形線
  6
Continuous
370
    15
100
AcDbLine
 10
194.3714480128963
 20
244.2978388616559
 30
0.0
 11
198.8714480128983
 21
244.2978388616559
 31
0.0
  0
LINE
  5
E02D
330
17
100
AcDbEntity
  8
1外形線
  6
CENTER
 48
3.0
100
AcDbLine
 10
199.8714480128983
 20
243.2978388616559
 30
0.0
 11
199.8714480128983
 21
242.2978388616586
 31
0.0
  0
ARC
  5
E02E
330
17
100
AcDbEntity
  8
1外形線
 48
3.0
100
AcDbCircle
 10
198.8714480128983
 20
243.2978388616559
 30
0.0
 40
1.0
100
AcDbArc
 50
0.0
 51
90.0
  0
LINE
  5
E02F
330
17
100
AcDbEntity
  8
C4
100
AcDbLine
 10
87.89641261432933
 20
114.667714724412
 30
0.0
 11
69.89641261432933
 21
114.667714724412
 31
0.0
  0
LINE
  5
E030
330
17
100
AcDbEntity
  8
C4
100
AcDbLine
 10
48.89641261432934
 20
114.667714724412
 30
0.0
 11
30.89641261432934
 21
114.667714724412
 31
0.0
  0
LINE
  5
E031
330
17
100
AcDbEntity
  8
C4
100
AcDbLine
 10
30.39641261432934
 20
115.167714724412
 30
0.0
 11
30.39641261432934
 21
135.6677147244138
 31
0.0
  0
ARC
  5
E032
330
17
100
AcDbEntity
  8
C4
100
AcDbCircle
 10
30.89641261432934
 20
115.167714724412
 30
0.0
 40
0.5
100
AcDbArc
 50
180.0
 51
270.0
  0
LINE
  5
E033
330
17
100
AcDbEntity
  8
C4
100
AcDbLine
 10
30.39641261432934
 20
137.6677147244138
 30
0.0
 11
30.39641261432934
 21
154.417714724412
 31
0.0
  0
LINE
  5
E034
330
17
100
AcDbEntity
  8
C4
100
AcDbLine
 10
19.39641261432933
 20
156.417714724412
 30
0.0
 11
19.39641261432933
 21
157.417714724412
 31
0.0
  0
LINE
  5
E035
330
17
100
AcDbEntity
  8
C4
100
AcDbLine
 10
30.39641261432934
 20
159.417714724412
 30
0.0
 11
30.39641261432934
 21
176.1677147244129
 31
0.0
  0
LINE
  5
E036
330
17
100
AcDbEntity
  8
C4
100
AcDbLine
 10
30.39641261432934
 20
178.1677147244124
 30
0.0
 11
30.39641261432934
 21
198.667714724412
 31
0.0
  0
ARC
  5
E037
330
17
100
AcDbEntity
  8
C4
100
AcDbCircle
 10
30.89641261432934
 20
198.667714724412
 30
0.0
 40
0.5
100
AcDbArc
 50
90.0
 51
180.0
  0
LINE
  5
E038
330
17
100
AcDbEntity
  8
C4
100
AcDbLine
 10
31.39641261432934
 20
199.167714724412
 30
0.0
 11
31.39641261432934
 21
199.167714724412
 31
0.0
  0
LINE
  5
E03C
330
17
100
AcDbEntity
  8
C4
100
AcDbLine
 10
86.39641261432933
 20
199.167714724412
 30
0.0
 11
87.89641261432933
 21
199.167714724412
 31
0.0
  0
ARC
  5
E03D
330
17
100
AcDbEntity
  8
C4
100
AcDbCircle
 10
87.89641261432933
 20
198.667714724412
 30
0.0
 40
0.5
100
AcDbArc
 50
0.0
 51
90.0
  0
LINE
  5
E03E
330
17
100
AcDbEntity
  8
C4
100
AcDbLine
 10
48.89641261432934
 20
114.667714724412
 30
0.0
 11
69.89641261432933
 21
114.667714724412
 31
0.0
  0
LINE
  5
E03F
330
17
100
AcDbEntity
  8
C4
100
AcDbLine
 10
86.39641261432933
 20
199.167714724412
 30
0.0
 11
30.89641261432934
 21
199.167714724412
 31
0.0
  0
LINE
  5
E040
330
17
100
AcDbEntity
  8
1外形線
  6
Continuous
370
    15
100
AcDbLine
 10
30.39641261432979
 20
137.6677147244138
 30
0.0
 11
30.39641261432934
 21
154.9177147244102
 31
0.0
  0
LINE
  5
E041
330
17
100
AcDbEntity
  8
1外形線
  6
Continuous
370
    15
100
AcDbLine
 10
28.39641261432979
 20
155.2677147244132
 30
0.0
 11
20.39641261432979
 21
155.2677147244132
 31
0.0
  0
ARC
  5
E042
330
17
100
AcDbEntity
  8
1外形線
  6
Continuous
370
    15
100
AcDbCircle
 10
20.39641261432979
 20
156.2677147244133
 30
0.0
 40
1.0
100
AcDbArc
 50
180.0
 51
269.999999999987
  0
LINE
  5
E043
330
17
100
AcDbEntity
  8
1外形線
  6
Continuous
370
    15
100
AcDbLine
 10
19.39641261432979
 20
156.2677147244133
 30
0.0
 11
19.39641261432979
 21
157.5677147244134
 31
0.0
  0
ARC
  5
E044
330
17
100
AcDbEntity
  8
1外形線
  6
Continuous
370
    15
100
AcDbCircle
 10
20.39641261432979
 20
157.5677147244134
 30
0.0
 40
1.0
100
AcDbArc
 50
90.0
 51
180.0
  0
LINE
  5
E045
330
17
100
AcDbEntity
  8
1外形線
  6
Continuous
370
    15
100
AcDbLine
 10
28.39641261432979
 20
158.5677147244134
 30
0.0
 11
20.39641261432979
 21
158.5677147244134
 31
0.0
  0
LINE
  5
E046
330
17
100
AcDbEntity
  8
1外形線
  6
Continuous
370
    15
100
AcDbLine
 10
30.39641261432934
 20
158.9177147244092
 30
0.0
 11
30.39641261432979
 21
176.1677147244129
 31
0.0
  0
ARC
  5
E047
330
17
100
AcDbEntity
  8
1外形線
 48
3.0
100
AcDbCircle
 10
30.39641261432979
 20
177.1677147244129
 30
0.0
 40
1.0
100
AcDbArc
 50
90.0
 51
270.0
  0
ARC
  5
E048
330
17
100
AcDbEntity
  8
1外形線
 48
3.0
100
AcDbCircle
 10
30.39641261432979
 20
136.6677147244138
 30
0.0
 40
1.0
100
AcDbArc
 50
90.0
 51
270.0
  0
LINE
  5
E049
330
17
100
AcDbEntity
  8
1外形線
  6
Continuous
370
    15
100
AcDbLine
 10
28.39641261432934
 20
158.5677147244134
 30
0.0
 11
20.39641261432934
 21
158.5677147244134
 31
0.0
  0
ARC
  5
E04A
330
17
100
AcDbEntity
  8
1外形線
  6
Continuous
370
    15
100
AcDbCircle
 10
20.39641261432934
 20
157.5677147244134
 30
0.0
 40
1.000000000000056
100
AcDbArc
 50
90.00000000002605
 51
180.0
  0
LINE
  5
E04B
330
17
100
AcDbEntity
  8
1外形線
  6
Continuous
370
    15
100
AcDbLine
 10
19.39641261432933
 20
156.2677147244133
 30
0.0
 11
19.39641261432933
 21
157.5677147244134
 31
0.0
  0
ARC
  5
E04C
330
17
100
AcDbEntity
  8
1外形線
  6
Continuous
370
    15
100
AcDbCircle
 10
20.39641261432934
 20
156.2677147244133
 30
0.0
 40
1.000000000000056
100
AcDbArc
 50
180.0
 51
270.0
  0
LINE
  5
E04D
330
17
100
AcDbEntity
  8
1外形線
  6
Continuous
370
    15
100
AcDbLine
 10
28.39641261432934
 20
155.2677147244132
 30
0.0
 11
20.39641261432934
 21
155.2677147244132
 31
0.0
  0
ARC
  5
E04E
330
17
100
AcDbEntity
  8
1外形線
370
    15
100
AcDbCircle
 10
29.39641261432934
 20
154.9177147244092
 30
0.0
 40
1.0
100
AcDbArc
 50
0.0
 51
90.0
  0
ARC
  5
E04F
330
17
100
AcDbEntity
  8
1外形線
  6
Continuous
370
    15
100
AcDbCircle
 10
29.39641261432934
 20
154.2677147244124
 30
0.0
 40
1.0
100
AcDbArc
 50
0.0
 51
90.0
  0
LINE
  5
E050
330
17
100
AcDbEntity
  8
1外形線
  6
Continuous
370
    15
100
AcDbLine
 10
20.39641261432934
 20
158.5677147244125
 30
0.0
 11
29.39641261432934
 21
158.5677147244125
 31
0.0
  0
ARC
  5
E051
330
17
100
AcDbEntity
  8
1外形線
  6
Continuous
370
    15
100
AcDbCircle
 10
29.39641261432934
 20
159.5677147244125
 30
0.0
 40
1.0
100
AcDbArc
 50
270.0
 51
0.0
  0
LINE
  5
E052
330
17
100
AcDbEntity
  8
1外形線
  6
Continuous
370
    15
100
AcDbLine
 10
29.39641261432934
 20
155.2677147244123
 30
0.0
 11
20.39641261432934
 21
155.2677147244123
 31
0.0
  0
LINE
  5
E053
330
17
100
AcDbEntity
  8
1外形線
  6
Continuous
370
    15
100
AcDbLine
 10
19.39641261432933
 20
156.4177147244129
 30
0.0
 11
19.39641261432933
 21
156.4177147244129
 31
0.0
  0
ARC
  5
E054
330
17
100
AcDbEntity
  8
1外形線
  6
Continuous
370
    15
100
AcDbCircle
 10
20.39641261432934
 20
156.2677147244123
 30
0.0
 40
1.0
100
AcDbArc
 50
180.0
 51
270.0
  0
ARC
  5
E055
330
17
100
AcDbEntity
  8
1外形線
  6
Continuous
370
    15
100
AcDbCircle
 10
20.39641261432934
 20
157.5677147244125
 30
0.0
 40
1.0
100
AcDbArc
 50
90.0
 51
180.0
  0
LINE
  5
E056
330
17
100
AcDbEntity
  8
1外形線
 48
3.0
100
AcDbLine
 10
29.39641261432934
 20
157.9177147244092
 30
0.0
 11
19.53038721054525
 21
157.9177147244092
 31
0.0
  0
ARC
  5
E057
330
17
100
AcDbEntity
  8
1外形線
 48
3.0
100
AcDbCircle
 10
29.39641261432934
 20
158.9177147244092
 30
0.0
 40
1.0
100
AcDbArc
 50
270.0
 51
0.0
  0
LINE
  5
E058
330
17
100
AcDbEntity
  8
1外形線
 48
3.0
100
AcDbLine
 10
19.53038721054571
 20
155.9177147244092
 30
0.0
 11
29.39641261432934
 21
155.9177147244092
 31
0.0
  0
LINE
  5
E059
330
17
100
AcDbEntity
  8
1外形線
 48
3.0
100
AcDbLine
 10
19.39641261432933
 20
156.2677147244123
 30
0.0
 11
19.39641261432933
 21
157.5677147244125
 31
0.0
  0
LINE
  5
E05A
330
17
100
AcDbEntity
  8
C4
100
AcDbLine
 10
88.39641261432934
 20
115.167714724412
 30
0.0
 11
88.39641261432934
 21
135.6677147244138
 31
0.0
  0
ARC
  5
E05B
330
17
100
AcDbEntity
  8
C4
100
AcDbCircle
 10
87.89641261432933
 20
115.167714724412
 30
0.0
 40
0.5
100
AcDbArc
 50
270.0
 51
0.0
  0
LINE
  5
E05C
330
17
100
AcDbEntity
  8
C4
100
AcDbLine
 10
88.39641261432934
 20
137.6677147244138
 30
0.0
 11
88.39641261432934
 21
154.417714724412
 31
0.0
  0
LINE
  5
E05D
330
17
100
AcDbEntity
  8
C4
100
AcDbLine
 10
99.39641261432933
 20
156.417714724412
 30
0.0
 11
99.39641261432933
 21
157.417714724412
 31
0.0
  0
LINE
  5
E05E
330
17
100
AcDbEntity
  8
C4
100
AcDbLine
 10
88.39641261432934
 20
159.417714724412
 30
0.0
 11
88.39641261432934
 21
176.1677147244129
 31
0.0
  0
LINE
  5
E05F
330
17
100
AcDbEntity
  8
C4
100
AcDbLine
 10
88.39641261432934
 20
178.1677147244124
 30
0.0
 11
88.39641261432934
 21
198.667714724412
 31
0.0
  0
LINE
  5
E060
330
17
100
AcDbEntity
  8
1外形線
  6
Continuous
370
    15
100
AcDbLine
 10
88.39641261432888
 20
137.6677147244138
 30
0.0
 11
88.39641261432934
 21
154.9177147244102
 31
0.0
  0
LINE
  5
E061
330
17
100
AcDbEntity
  8
1外形線
  6
Continuous
370
    15
100
AcDbLine
 10
90.39641261432889
 20
155.2677147244132
 30
0.0
 11
98.39641261432888
 21
155.2677147244132
 31
0.0
  0
ARC
  5
E062
330
17
100
AcDbEntity
  8
1外形線
  6
Continuous
370
    15
100
AcDbCircle
 10
98.39641261432888
 20
156.2677147244133
 30
0.0
 40
1.0
100
AcDbArc
 50
270.000000000013
 51
0.0
  0
LINE
  5
E063
330
17
100
AcDbEntity
  8
1外形線
  6
Continuous
370
    15
100
AcDbLine
 10
99.39641261432889
 20
156.2677147244133
 30
0.0
 11
99.39641261432889
 21
157.5677147244134
 31
0.0
  0
ARC
  5
E064
330
17
100
AcDbEntity
  8
1外形線
  6
Continuous
370
    15
100
AcDbCircle
 10
98.39641261432888
 20
157.5677147244134
 30
0.0
 40
1.0
100
AcDbArc
 50
0.0
 51
90.0
  0
LINE
  5
E065
330
17
100
AcDbEntity
  8
1外形線
  6
Continuous
370
    15
100
AcDbLine
 10
90.39641261432889
 20
158.5677147244134
 30
0.0
 11
98.39641261432888
 21
158.5677147244134
 31
0.0
  0
LINE
  5
E066
330
17
100
AcDbEntity
  8
1外形線
  6
Continuous
370
    15
100
AcDbLine
 10
88.39641261432934
 20
158.9177147244092
 30
0.0
 11
88.39641261432888
 21
176.1677147244129
 31
0.0
  0
ARC
  5
E067
330
17
100
AcDbEntity
  8
1外形線
 48
3.0
100
AcDbCircle
 10
88.39641261432888
 20
177.1677147244129
 30
0.0
 40
1.0
100
AcDbArc
 50
270.0
 51
90.0
  0
ARC
  5
E068
330
17
100
AcDbEntity
  8
1外形線
 48
3.0
100
AcDbCircle
 10
88.39641261432888
 20
136.6677147244138
 30
0.0
 40
1.0
100
AcDbArc
 50
270.0
 51
90.0
  0
LINE
  5
E069
330
17
100
AcDbEntity
  8
1外形線
  6
Continuous
370
    15
100
AcDbLine
 10
90.39641261432933
 20
158.5677147244134
 30
0.0
 11
98.39641261432934
 21
158.5677147244134
 31
0.0
  0
ARC
  5
E06A
330
17
100
AcDbEntity
  8
1外形線
  6
Continuous
370
    15
100
AcDbCircle
 10
98.39641261432934
 20
157.5677147244134
 30
0.0
 40
1.000000000000056
100
AcDbArc
 50
0.0
 51
89.99999999997395
  0
LINE
  5
E06B
330
17
100
AcDbEntity
  8
1外形線
  6
Continuous
370
    15
100
AcDbLine
 10
99.39641261432933
 20
156.2677147244133
 30
0.0
 11
99.39641261432933
 21
157.5677147244134
 31
0.0
  0
ARC
  5
E06C
330
17
100
AcDbEntity
  8
1外形線
  6
Continuous
370
    15
100
AcDbCircle
 10
98.39641261432934
 20
156.2677147244133
 30
0.0
 40
1.000000000000056
100
AcDbArc
 50
270.0
 51
0.0
  0
LINE
  5
E06D
330
17
100
AcDbEntity
  8
1外形線
  6
Continuous
370
    15
100
AcDbLine
 10
90.39641261432933
 20
155.2677147244132
 30
0.0
 11
98.39641261432934
 21
155.2677147244132
 31
0.0
  0
ARC
  5
E06E
330
17
100
AcDbEntity
  8
1外形線
370
    15
100
AcDbCircle
 10
89.39641261432933
 20
154.9177147244092
 30
0.0
 40
1.0
100
AcDbArc
 50
90.0
 51
180.0
  0
ARC
  5
E06F
330
17
100
AcDbEntity
  8
1外形線
  6
Continuous
370
    15
100
AcDbCircle
 10
89.39641261432933
 20
154.2677147244124
 30
0.0
 40
1.0
100
AcDbArc
 50
90.0
 51
180.0
  0
LINE
  5
E070
330
17
100
AcDbEntity
  8
1外形線
  6
Continuous
370
    15
100
AcDbLine
 10
98.39641261432934
 20
158.5677147244125
 30
0.0
 11
89.39641261432933
 21
158.5677147244125
 31
0.0
  0
ARC
  5
E071
330
17
100
AcDbEntity
  8
1外形線
  6
Continuous
370
    15
100
AcDbCircle
 10
89.39641261432933
 20
159.5677147244125
 30
0.0
 40
1.0
100
AcDbArc
 50
180.0
 51
270.0
  0
LINE
  5
E072
330
17
100
AcDbEntity
  8
1外形線
  6
Continuous
370
    15
100
AcDbLine
 10
89.39641261432933
 20
155.2677147244123
 30
0.0
 11
98.39641261432934
 21
155.2677147244123
 31
0.0
  0
LINE
  5
E073
330
17
100
AcDbEntity
  8
1外形線
  6
Continuous
370
    15
100
AcDbLine
 10
99.39641261432933
 20
156.4177147244129
 30
0.0
 11
99.39641261432933
 21
156.4177147244129
 31
0.0
  0
ARC
  5
E074
330
17
100
AcDbEntity
  8
1外形線
  6
Continuous
370
    15
100
AcDbCircle
 10
98.39641261432934
 20
156.2677147244123
 30
0.0
 40
1.0
100
AcDbArc
 50
270.0
 51
0.0
  0
ARC
  5
E075
330
17
100
AcDbEntity
  8
1外形線
  6
Continuous
370
    15
100
AcDbCircle
 10
98.39641261432934
 20
157.5677147244125
 30
0.0
 40
1.0
100
AcDbArc
 50
0.0
 51
90.0
  0
LINE
  5
E076
330
17
100
AcDbEntity
  8
1外形線
 48
3.0
100
AcDbLine
 10
89.39641261432933
 20
157.9177147244092
 30
0.0
 11
99.26243801811342
 21
157.9177147244092
 31
0.0
  0
ARC
  5
E077
330
17
100
AcDbEntity
  8
1外形線
 48
3.0
100
AcDbCircle
 10
89.39641261432933
 20
158.9177147244092
 30
0.0
 40
1.0
100
AcDbArc
 50
180.0
 51
270.0
  0
LINE
  5
E078
330
17
100
AcDbEntity
  8
1外形線
 48
3.0
100
AcDbLine
 10
99.26243801811295
 20
155.9177147244092
 30
0.0
 11
89.39641261432933
 21
155.9177147244092
 31
0.0
  0
LINE
  5
E079
330
17
100
AcDbEntity
  8
1外形線
 48
3.0
100
AcDbLine
 10
99.39641261432933
 20
156.2677147244123
 30
0.0
 11
99.39641261432933
 21
157.5677147244125
 31
0.0
  0
ARC
  5
E07D
330
17
100
AcDbEntity
  8
1ﾀﾞｸﾄｶﾊﾞｰ
100
AcDbCircle
 10
56.99641261433743
 20
185.917714724422
 30
0.0
 40
2.100000000000022
100
AcDbArc
 50
90.0
 51
270.0
  0
LINE
  5
E07E
330
17
100
AcDbEntity
  8
1ﾀﾞｸﾄｶﾊﾞｰ
100
AcDbLine
 10
56.99641261433743
 20
183.8177147244216
 30
0.0
 11
61.79641261433761
 21
183.8177147244216
 31
0.0
  0
LINE
  5
E07F
330
17
100
AcDbEntity
  8
1ﾀﾞｸﾄｶﾊﾞｰ
100
AcDbLine
 10
61.79641261433761
 20
188.0177147244214
 30
0.0
 11
56.99641261433743
 21
188.0177147244214
 31
0.0
  0
ARC
  5
E080
330
17
100
AcDbEntity
  8
1ﾀﾞｸﾄｶﾊﾞｰ
100
AcDbCircle
 10
61.79641261433761
 20
185.917714724422
 30
0.0
 40
2.100000000000022
100
AcDbArc
 50
270.0
 51
90.0
  0
ARC
  5
E081
330
17
100
AcDbEntity
  8
1ﾀﾞｸﾄｶﾊﾞｰ
100
AcDbCircle
 10
56.99641261433743
 20
127.9177147244038
 30
0.0
 40
2.100000000000022
100
AcDbArc
 50
90.0
 51
270.0
  0
LINE
  5
E082
330
17
100
AcDbEntity
  8
1ﾀﾞｸﾄｶﾊﾞｰ
100
AcDbLine
 10
56.99641261433743
 20
130.0177147244042
 30
0.0
 11
61.79641261433761
 21
130.0177147244042
 31
0.0
  0
LINE
  5
E083
330
17
100
AcDbEntity
  8
1ﾀﾞｸﾄｶﾊﾞｰ
100
AcDbLine
 10
61.79641261433761
 20
125.8177147244043
 30
0.0
 11
56.99641261433743
 21
125.8177147244043
 31
0.0
  0
ARC
  5
E084
330
17
100
AcDbEntity
  8
1ﾀﾞｸﾄｶﾊﾞｰ
100
AcDbCircle
 10
61.79641261433761
 20
127.9177147244038
 30
0.0
 40
2.100000000000022
100
AcDbArc
 50
270.0
 51
90.0
  0
ENDSEC
  0
SECTION
  2
OBJECTS
  0
DICTIONARY
  5
C
330
0
100
AcDbDictionary
281
     1
  3
ACAD_CIP_PREVIOUS_PRODUCT_INFO
350
DDF1
  3
ACAD_COLOR
350
DDCF
  3
ACAD_DETAILVIEWSTYLE
350
DDE9
  3
ACAD_GROUP
350
D
  3
ACAD_LAYOUT
350
DDD0
  3
ACAD_MATERIAL
350
DD9D
  3
ACAD_MLEADERSTYLE
350
DDE5
  3
ACAD_MLINESTYLE
350
1A
  3
ACAD_PLOTSETTINGS
350
DDEB
  3
ACAD_PLOTSTYLENAME
350
DD9B
  3
ACAD_SCALELIST
350
DDD3
  3
ACAD_SECTIONVIEWSTYLE
350
DDE7
  3
ACAD_TABLESTYLE
350
DDD1
  3
ACAD_VISUALSTYLE
350
DDB6
  3
ACDB_RECOMPOSE_DATA
350
E16C
  3
ACDBVARIABLEDICTIONARY
350
51
  0
DICTIONARY
  5
DE4C
330
2
100
AcDbDictionary
280
     1
281
     1
  3
ACAD_LAYERSTATES
360
DE4D
  0
DICTIONARY
  5
DDF2
330
E
100
AcDbDictionary
280
     1
281
     1
  3
ADSK_XREC_LAYER_RECONCILED
360
DDF3
  0
DICTIONARY
  5
DDF4
330
40
100
AcDbDictionary
280
     1
281
     1
  3
ADSK_XREC_LAYER_RECONCILED
360
DDF5
  0
DICTIONARY
  5
DE42
330
DE41
100
AcDbDictionary
280
     1
281
     1
  0
DICTIONARY
  5
DE45
330
DE44
100
AcDbDictionary
280
     1
281
     1
  0
DICTIONARY
  5
DE48
330
DE47
100
AcDbDictionary
280
     1
281
     1
  0
XRECORD
  5
DDF1
102
{ACAD_REACTORS
330
C
102
}
330
C
100
AcDbXrecord
280
     1
300
ACDLT
300
2021
300

  0
DICTIONARY
  5
DDCF
102
{ACAD_REACTORS
330
C
102
}
330
C
100
AcDbDictionary
281
     1
  0
DICTIONARY
  5
DDE9
102
{ACAD_REACTORS
330
C
102
}
330
C
100
AcDbDictionary
281
     1
  3
Imperial24
350
DE4F
  3
Metric50
350
DDEA
  0
DICTIONARY
  5
D
102
{ACAD_REACTORS
330
C
102
}
330
C
100
AcDbDictionary
281
     1
  0
DICTIONARY
  5
DDD0
102
{ACAD_REACTORS
330
C
102
}
330
C
100
AcDbDictionary
281
     1
  3
Model
350
DDEC
  3
レイアウト1
350
DDED
  0
DICTIONARY
  5
DD9D
102
{ACAD_REACTORS
330
C
102
}
330
C
100
AcDbDictionary
281
     1
  3
ByBlock
350
DDA6
  3
ByLayer
350
DD9E
  3
Global
350
DDAE
  0
DICTIONARY
  5
DDE5
102
{ACAD_REACTORS
330
C
102
}
330
C
100
AcDbDictionary
281
     1
  3
Standard
350
DDE6
  0
DICTIONARY
  5
1A
102
{ACAD_REACTORS
330
C
102
}
330
C
100
AcDbDictionary
281
     1
  3
STANDARD
350
1B
  0
DICTIONARY
  5
DDEB
102
{ACAD_REACTORS
330
C
102
}
330
C
100
AcDbDictionary
281
     1
  0
ACDBDICTIONARYWDFLT
  5
DD9B
102
{ACAD_REACTORS
330
C
102
}
330
C
100
AcDbDictionary
281
     1
  3
Normal
350
DD9C
100
AcDbDictionaryWithDefault
340
DD9C
  0
DICTIONARY
  5
DDD3
102
{ACAD_REACTORS
330
C
102
}
330
C
100
AcDbDictionary
281
     1
  3
A0
350
DDD4
  3
A1
350
DDD5
  3
A2
350
DDD6
  3
A3
350
DDD7
  3
A4
350
DDD8
  3
A5
350
DDD9
  3
A6
350
DDDA
  3
A7
350
DDDB
  3
A8
350
DDDC
  3
A9
350
DDDD
  3
B0
350
DDDE
  3
B1
350
DDDF
  3
B2
350
DDE0
  3
B3
350
DDE1
  3
B4
350
DDE2
  3
B5
350
DDE3
  3
B6
350
DDE4
  0
DICTIONARY
  5
DDE7
102
{ACAD_REACTORS
330
C
102
}
330
C
100
AcDbDictionary
281
     1
  3
Imperial24
350
DE4E
  3
Metric50
350
DDE8
  0
DICTIONARY
  5
DDD1
102
{ACAD_REACTORS
330
C
102
}
330
C
100
AcDbDictionary
281
     1
  3
Standard
350
DDD2
  0
DICTIONARY
  5
DDB6
102
{ACAD_REACTORS
330
C
102
}
330
C
100
AcDbDictionary
281
     1
  3
2dWireframe
350
DDBC
  3
Basic
350
DDBB
  3
Brighten
350
DDC2
  3
ColorChange
350
DDC6
  3
Conceptual
350
DDBF
  3
Dim
350
DDC1
  3
EdgeColorOff
350
DDCE
  3
Facepattern
350
DDC5
  3
Flat
350
DDB7
  3
FlatWithEdges
350
DDB8
  3
Gouraud
350
DDB9
  3
GouraudWithEdges
350
DDBA
  3
Hidden
350
DDBE
  3
JitterOff
350
DDCC
  3
Linepattern
350
DDC4
  3
OverhangOff
350
DDCD
  3
Realistic
350
DDC0
  3
Shaded
350
DDCB
  3
Shaded with edges
350
DDCA
  3
Shades of Gray
350
DDC7
  3
Sketchy
350
DDC8
  3
Thicken
350
DDC3
  3
Wireframe
350
DDBD
  3
X-Ray
350
DDC9
  0
XRECORD
  5
E16C
102
{ACAD_REACTORS
330
C
102
}
330
C
100
AcDbXrecord
280
     1
 90
        1
330
DDD2
  0
DICTIONARY
  5
51
102
{ACAD_REACTORS
330
C
102
}
330
C
100
AcDbDictionary
281
     1
  3
CANNOSCALE
350
E163
  3
CMLEADERSTYLE
350
E15F
  3
CTABLESTYLE
350
E15E
  3
CVIEWDETAILSTYLE
350
E160
  3
CVIEWSECTIONSTYLE
350
E161
  3
DIMADEC
350
52
  3
LAYEREVAL
350
E165
  3
LAYERNOTIFY
350
E166
  3
LIGHTINGUNITS
350
E164
  3
MSLTSCALE
350
E162
  3
SORTENTS
350
D1FE
  0
DICTIONARY
  5
DE4D
102
{ACAD_REACTORS
330
DE4C
102
}
330
DE4C
100
AcDbDictionary
281
     1
  0
XRECORD
  5
DDF3
102
{ACAD_REACTORS
330
DDF2
102
}
330
DDF2
100
AcDbXrecord
280
     1
290
     1
  0
XRECORD
  5
DDF5
102
{ACAD_REACTORS
330
DDF4
102
}
330
DDF4
100
AcDbXrecord
280
     1
290
     1
  0
ACDBDETAILVIEWSTYLE
  5
DE4F
102
{ACAD_REACTORS
330
DDE9
102
}
330
DDE9
100
AcDbModelDocViewStyle
 70
     0
  3
Imperial24
290
     0
300
Imperial24
 90
        0
100
AcDbDetailViewStyle
 70
     0
 71
     0
 90
        3
 71
     1
340
F
 62
   256
 40
0.24
340
0
 62
   256
 40
0.24
300

 40
0.36
280
     3
 71
     2
340
13
 90
       25
 62
   256
 71
     3
340
F
 62
   256
 40
0.24
 90
        1
 40
0.75
 90
        1
300
%<\AcVar ViewType \f "%tc1">% %<\AcVar ViewDetailId>%\PSCALE %<\AcVar ViewScale \f "%sn">%
 71
     4
340
13
 90
       25
 62
   256
340
13
 90
       25
 62
   256
280
     0
  0
ACDBDETAILVIEWSTYLE
  5
DDEA
102
{ACAD_REACTORS
330
DDE9
102
}
330
DDE9
100
AcDbModelDocViewStyle
 70
     0
  3
Metric50
290
     1
300
Metric50
 90
        0
100
AcDbDetailViewStyle
 70
     0
 71
     0
 90
        3
 71
     1
340
F
 62
   256
 40
5.0
340
0
 62
   256
 40
5.0
300

 40
0.0
280
     1
 71
     2
340
13
 90
       25
 62
   256
 71
     3
340
F
 62
   256
 40
5.0
 90
        0
 40
15.0
 90
        1
300
%<\AcVar ViewDetailId>% (%<\AcVar ViewScale \f "%sn">%)
 71
     4
340
13
 90
       25
 62
   256
340
13
 90
       25
 62
   256
280
     0
  0
LAYOUT
  5
DDEC
102
{ACAD_REACTORS
330
DDD0
102
}
330
DDD0
100
AcDbPlotSettings
  1

  2
OneNote for Windows 10
  4

  6

 40
0.0
 41
0.0
 42
0.0
 43
0.0
 44
0.0
 45
0.0
 46
0.0
 47
0.0
 48
0.0
 49
0.0
140
0.0
141
0.0
142
1.0
143
1.0
 70
  1712
 72
     0
 73
     0
 74
     0
  7

 75
     0
147
1.0
 76
     0
 77
     2
 78
   300
148
0.0
149
0.0
100
AcDbLayout
  1
Model
 70
     1
 71
     0
 10
0.0
 20
0.0
 11
12.0
 21
9.0
 12
0.0
 22
0.0
 32
0.0
 14
0.0
 24
0.0
 34
0.0
 15
0.0
 25
0.0
 35
0.0
146
0.0
 13
0.0
 23
0.0
 33
0.0
 16
1.0
 26
0.0
 36
0.0
 17
0.0
 27
1.0
 37
0.0
 76
     0
330
17
331
DD99
  0
LAYOUT
  5
DDED
102
{ACAD_REACTORS
330
DDD0
102
}
330
DDD0
100
AcDbPlotSettings
  1

  2
OneNote for Windows 10
  4

  6

 40
0.0
 41
0.0
 42
0.0
 43
0.0
 44
0.0
 45
0.0
 46
0.0
 47
0.0
 48
0.0
 49
0.0
140
0.0
141
0.0
142
1.0
143
1.0
 70
   688
 72
     0
 73
     0
 74
     5
  7

 75
    16
147
1.0
 76
     0
 77
     2
 78
   300
148
0.0
149
0.0
100
AcDbLayout
  1
レイアウト1
 70
     0
 71
     1
 10
0.0
 20
0.0
 11
12.0
 21
9.0
 12
0.0
 22
0.0
 32
0.0
 14
1.000000000000000E+20
 24
1.000000000000000E+20
 34
1.000000000000000E+20
 15
-1.000000000000000E+20
 25
-1.000000000000000E+20
 35
-1.000000000000000E+20
146
0.0
 13
0.0
 23
0.0
 33
0.0
 16
1.0
 26
0.0
 36
0.0
 17
0.0
 27
1.0
 37
0.0
 76
     0
330
14
  0
MATERIAL
  5
DDA6
102
{ACAD_XDICTIONARY
360
DDA7
102
}
102
{ACAD_REACTORS
330
DD9D
102
}
330
DD9D
100
AcDbMaterial
  1
ByBlock
 72
     0
 43
0.0208333333333333
 43
0.0
 43
0.0
 43
0.0
 43
0.0
 43
0.0208333333333333
 43
0.0
 43
0.0
 43
0.0
 43
0.0
 43
1.0
 43
0.0
 43
0.0
 43
0.0
 43
0.0
 43
1.0
 77
     0
 47
0.0208333333333333
 47
0.0
 47
0.0
 47
0.0
 47
0.0
 47
0.0208333333333333
 47
0.0
 47
0.0
 47
0.0
 47
0.0
 47
1.0
 47
0.0
 47
0.0
 47
0.0
 47
0.0
 47
1.0
171
     0
 49
0.0208333333333333
 49
0.0
 49
0.0
 49
0.0
 49
0.0
 49
0.0208333333333333
 49
0.0
 49
0.0
 49
0.0
 49
0.0
 49
1.0
 49
0.0
 49
0.0
 49
0.0
 49
0.0
 49
1.0
175
     0
142
0.0208333333333333
142
0.0
142
0.0
142
0.0
142
0.0
142
0.0208333333333333
142
0.0
142
0.0
142
0.0
142
0.0
142
1.0
142
0.0
142
0.0
142
0.0
142
0.0
142
1.0
179
     0
144
0.0208333333333333
144
0.0
144
0.0
144
0.0
144
0.0
144
0.0208333333333333
144
0.0
144
0.0
144
0.0
144
0.0
144
1.0
144
0.0
144
0.0
144
0.0
144
0.0
144
1.0
147
0.0208333333333333
147
0.0
147
0.0
147
0.0
147
0.0
147
0.0208333333333333
147
0.0
147
0.0
147
0.0
147
0.0
147
1.0
147
0.0
147
0.0
147
0.0
147
0.0
147
1.0
  0
MATERIAL
  5
DD9E
102
{ACAD_XDICTIONARY
360
DD9F
102
}
102
{ACAD_REACTORS
330
DD9D
102
}
330
DD9D
100
AcDbMaterial
  1
ByLayer
 72
     0
 43
0.0208333333333333
 43
0.0
 43
0.0
 43
0.0
 43
0.0
 43
0.0208333333333333
 43
0.0
 43
0.0
 43
0.0
 43
0.0
 43
1.0
 43
0.0
 43
0.0
 43
0.0
 43
0.0
 43
1.0
 77
     0
 47
0.0208333333333333
 47
0.0
 47
0.0
 47
0.0
 47
0.0
 47
0.0208333333333333
 47
0.0
 47
0.0
 47
0.0
 47
0.0
 47
1.0
 47
0.0
 47
0.0
 47
0.0
 47
0.0
 47
1.0
171
     0
 49
0.0208333333333333
 49
0.0
 49
0.0
 49
0.0
 49
0.0
 49
0.0208333333333333
 49
0.0
 49
0.0
 49
0.0
 49
0.0
 49
1.0
 49
0.0
 49
0.0
 49
0.0
 49
0.0
 49
1.0
175
     0
142
0.0208333333333333
142
0.0
142
0.0
142
0.0
142
0.0
142
0.0208333333333333
142
0.0
142
0.0
142
0.0
142
0.0
142
1.0
142
0.0
142
0.0
142
0.0
142
0.0
142
1.0
179
     0
144
0.0208333333333333
144
0.0
144
0.0
144
0.0
144
0.0
144
0.0208333333333333
144
0.0
144
0.0
144
0.0
144
0.0
144
1.0
144
0.0
144
0.0
144
0.0
144
0.0
144
1.0
147
0.0208333333333333
147
0.0
147
0.0
147
0.0
147
0.0
147
0.0208333333333333
147
0.0
147
0.0
147
0.0
147
0.0
147
1.0
147
0.0
147
0.0
147
0.0
147
0.0
147
1.0
  0
MATERIAL
  5
DDAE
102
{ACAD_XDICTIONARY
360
DDAF
102
}
102
{ACAD_REACTORS
330
DD9D
102
}
330
DD9D
100
AcDbMaterial
  1
Global
 72
     0
 43
0.0208333333333333
 43
0.0
 43
0.0
 43
0.0
 43
0.0
 43
0.0208333333333333
 43
0.0
 43
0.0
 43
0.0
 43
0.0
 43
1.0
 43
0.0
 43
0.0
 43
0.0
 43
0.0
 43
1.0
 77
     0
 47
0.0208333333333333
 47
0.0
 47
0.0
 47
0.0
 47
0.0
 47
0.0208333333333333
 47
0.0
 47
0.0
 47
0.0
 47
0.0
 47
1.0
 47
0.0
 47
0.0
 47
0.0
 47
0.0
 47
1.0
171
     0
 49
0.0208333333333333
 49
0.0
 49
0.0
 49
0.0
 49
0.0
 49
0.0208333333333333
 49
0.0
 49
0.0
 49
0.0
 49
0.0
 49
1.0
 49
0.0
 49
0.0
 49
0.0
 49
0.0
 49
1.0
175
     0
142
0.0208333333333333
142
0.0
142
0.0
142
0.0
142
0.0
142
0.0208333333333333
142
0.0
142
0.0
142
0.0
142
0.0
142
1.0
142
0.0
142
0.0
142
0.0
142
0.0
142
1.0
179
     0
144
0.0208333333333333
144
0.0
144
0.0
144
0.0
144
0.0
144
0.0208333333333333
144
0.0
144
0.0
144
0.0
144
0.0
144
1.0
144
0.0
144
0.0
144
0.0
144
0.0
144
1.0
147
0.0208333333333333
147
0.0
147
0.0
147
0.0
147
0.0
147
0.0208333333333333
147
0.0
147
0.0
147
0.0
147
0.0
147
1.0
147
0.0
147
0.0
147
0.0
147
0.0
147
1.0
  0
MLEADERSTYLE
  5
DDE6
102
{ACAD_REACTORS
330
DDE5
102
}
330
DDE5
100
AcDbMLeaderStyle
179
     2
170
     2
171
     1
172
     0
 90
        2
 40
0.0
 41
0.0
173
     1
 91
-1056964608
340
11
 92
       -2
290
     1
 42
2.0
291
     1
 43
0.36
  3
Standard
 44
4.0
300

342
F
174
     1
178
     6
175
     1
176
     0
 93
-1056964608
 45
4.0
292
     0
297
     0
 46
4.0
 94
-1056964608
 47
1.0
 49
1.0
140
1.0
293
     1
141
0.0
294
     1
177
     0
142
1.0
295
     1
296
     0
143
0.125
271
     0
272
     9
273
     9
298
     1
  0
MLINESTYLE
  5
1B
102
{ACAD_REACTORS
330
1A
102
}
330
1A
100
AcDbMlineStyle
  2
STANDARD
 70
     0
  3

 62
   256
 51
90.0
 52
90.0
 71
     2
 49
0.5
 62
   256
  6
BYLAYER
 49
-0.5
 62
   256
  6
BYLAYER
  0
ACDBPLACEHOLDER
  5
DD9C
102
{ACAD_REACTORS
330
DD9B
102
}
330
DD9B
  0
SCALE
  5
DDD4
102
{ACAD_REACTORS
330
DDD3
102
}
330
DDD3
100
AcDbScale
 70
     0
300
1:1
140
1.0
141
1.0
290
     1
  0
SCALE
  5
DDD5
102
{ACAD_REACTORS
330
DDD3
102
}
330
DDD3
100
AcDbScale
 70
     0
300
1:2
140
1.0
141
2.0
290
     0
  0
SCALE
  5
DDD6
102
{ACAD_REACTORS
330
DDD3
102
}
330
DDD3
100
AcDbScale
 70
     0
300
1:4
140
1.0
141
4.0
290
     0
  0
SCALE
  5
DDD7
102
{ACAD_REACTORS
330
DDD3
102
}
330
DDD3
100
AcDbScale
 70
     0
300
1:5
140
1.0
141
5.0
290
     0
  0
SCALE
  5
DDD8
102
{ACAD_REACTORS
330
DDD3
102
}
330
DDD3
100
AcDbScale
 70
     0
300
1:8
140
1.0
141
8.0
290
     0
  0
SCALE
  5
DDD9
102
{ACAD_REACTORS
330
DDD3
102
}
330
DDD3
100
AcDbScale
 70
     0
300
1:10
140
1.0
141
10.0
290
     0
  0
SCALE
  5
DDDA
102
{ACAD_REACTORS
330
DDD3
102
}
330
DDD3
100
AcDbScale
 70
     0
300
1:16
140
1.0
141
16.0
290
     0
  0
SCALE
  5
DDDB
102
{ACAD_REACTORS
330
DDD3
102
}
330
DDD3
100
AcDbScale
 70
     0
300
1:20
140
1.0
141
20.0
290
     0
  0
SCALE
  5
DDDC
102
{ACAD_REACTORS
330
DDD3
102
}
330
DDD3
100
AcDbScale
 70
     0
300
1:30
140
1.0
141
30.0
290
     0
  0
SCALE
  5
DDDD
102
{ACAD_REACTORS
330
DDD3
102
}
330
DDD3
100
AcDbScale
 70
     0
300
1:40
140
1.0
141
40.0
290
     0
  0
SCALE
  5
DDDE
102
{ACAD_REACTORS
330
DDD3
102
}
330
DDD3
100
AcDbScale
 70
     0
300
1:50
140
1.0
141
50.0
290
     0
  0
SCALE
  5
DDDF
102
{ACAD_REACTORS
330
DDD3
102
}
330
DDD3
100
AcDbScale
 70
     0
300
1:100
140
1.0
141
100.0
290
     0
  0
SCALE
  5
DDE0
102
{ACAD_REACTORS
330
DDD3
102
}
330
DDD3
100
AcDbScale
 70
     0
300
2:1
140
2.0
141
1.0
290
     0
  0
SCALE
  5
DDE1
102
{ACAD_REACTORS
330
DDD3
102
}
330
DDD3
100
AcDbScale
 70
     0
300
4:1
140
4.0
141
1.0
290
     0
  0
SCALE
  5
DDE2
102
{ACAD_REACTORS
330
DDD3
102
}
330
DDD3
100
AcDbScale
 70
     0
300
8:1
140
8.0
141
1.0
290
     0
  0
SCALE
  5
DDE3
102
{ACAD_REACTORS
330
DDD3
102
}
330
DDD3
100
AcDbScale
 70
     0
300
10:1
140
10.0
141
1.0
290
     0
  0
SCALE
  5
DDE4
102
{ACAD_REACTORS
330
DDD3
102
}
330
DDD3
100
AcDbScale
 70
     0
300
100:1
140
100.0
141
1.0
290
     0
  0
ACDBSECTIONVIEWSTYLE
  5
DE4E
102
{ACAD_REACTORS
330
DDE7
102
}
330
DDE7
100
AcDbModelDocViewStyle
 70
     0
  3
Imperial24
290
     0
300
Imperial24
 90
        0
100
AcDbSectionViewStyle
 70
     0
 71
     0
 90
       78
 71
     1
340
F
 62
   256
 40
0.24
340
0
340
0
 62
   256
 40
0.24
300
I, O, Q, S, X, Z
 40
0.48
 90
        3
 40
0.18
 90
        1
 71
     2
340
13
 90
       25
 62
   256
340
13
 90
       50
 62
   256
 40
0.24
 40
0.0
 40
0.24
 71
     3
340
F
 62
   256
 40
0.24
 90
        1
 40
0.75
 90
        1
300
%<\AcVar ViewType \f "%tc1">% %<\AcVar ViewSectionStartId>%-%<\AcVar ViewSectionEndId>%\PSCALE %<\AcVar ViewScale \f "%sn">%
 71
     4
 62
   256
 62
   257
300
ANSI31
 40
1.0
 90
        0
290
     0
290
     0
 90
        6
 40
0.0
 40
1.570796326794896
 40
0.2617993877991494
 40
1.308996938995747
 40
-0.2617993877991494
 40
1.832595714594046
  0
ACDBSECTIONVIEWSTYLE
  5
DDE8
102
{ACAD_REACTORS
330
DDE7
102
}
330
DDE7
100
AcDbModelDocViewStyle
 70
     0
  3
Metric50
290
     1
300
Metric50
 90
        0
100
AcDbSectionViewStyle
 70
     0
 71
     0
 90
      102
 71
     1
340
F
 62
   256
 40
5.0
340
0
340
0
 62
   256
 40
5.0
300
I, O, Q, S, X, Z
 40
10.0
 90
        0
 40
2.5
 90
        0
 71
     2
340
13
 90
       25
 62
   256
340
13
 90
       50
 62
   256
 40
5.0
 40
2.5
 40
5.0
 71
     3
340
F
 62
   256
 40
5.0
 90
        0
 40
15.0
 90
        1
300
%<\AcVar ViewSectionStartId>%-%<\AcVar ViewSectionEndId>% (%<\AcVar ViewScale \f "%sn">%)
 71
     4
 62
   256
 62
   257
300
ANSI31
 40
1.0
 90
        0
290
     0
290
     0
 90
        6
 40
0.0
 40
1.570796326794896
 40
0.2617993877991494
 40
1.308996938995747
 40
-0.2617993877991494
 40
1.832595714594046
  0
TABLESTYLE
  5
DDD2
102
{ACAD_XDICTIONARY
360
E16A
102
}
102
{ACAD_REACTORS
330
DDD1
102
}
330
DDD1
100
AcDbTableStyle
280
     0
  3
Standard
 70
     0
 71
     0
 40
1.5
 41
1.5
280
     0
281
     0
  7
STANDARD
140
4.5
170
     2
 62
     0
 63
     7
283
     0
 90
      512
 91
        0
  1

274
    -2
284
     1
 64
     0
275
    -2
285
     1
 65
     0
276
    -2
286
     1
 66
     0
277
    -2
287
     1
 67
     0
278
    -2
288
     1
 68
     0
279
    -2
289
     1
 69
     0
  7
STANDARD
140
6.0
170
     5
 62
     0
 63
     7
283
     0
 90
      512
 91
        0
  1

274
    -2
284
     1
 64
     0
275
    -2
285
     1
 65
     0
276
    -2
286
     1
 66
     0
277
    -2
287
     1
 67
     0
278
    -2
288
     1
 68
     0
279
    -2
289
     1
 69
     0
  7
STANDARD
140
4.5
170
     5
 62
     0
 63
     7
283
     0
 90
      512
 91
        0
  1

274
    -2
284
     1
 64
     0
275
    -2
285
     1
 65
     0
276
    -2
286
     1
 66
     0
277
    -2
287
     1
 67
     0
278
    -2
288
     1
 68
     0
279
    -2
289
     1
 69
     0
  0
VISUALSTYLE
  5
DDBC
102
{ACAD_REACTORS
330
DDB6
102
}
330
DDB6
100
AcDbVisualStyle
  2
2dWireframe
 70
     4
177
     3
291
     0
 70
    58
 90
        0
176
     1
 90
        2
176
     1
 90
        0
176
     1
 90
        0
176
     1
 40
0.6
176
     1
 40
30.0
176
     1
 62
     7
420
 16777215
176
     1
 90
        1
176
     1
 90
        4
176
     1
 62
     7
176
     1
 62
   257
176
     1
 90
        1
176
     1
 90
        1
176
     1
 40
1.0
176
     1
 90
        0
176
     1
 62
   257
176
     1
 40
1.0
176
     1
 90
        1
176
     1
 90
        6
176
     1
 90
        2
176
     1
 62
     7
176
     1
 90
        5
176
     1
 90
        0
176
     1
 90
        0
176
     1
290
     0
176
     1
 90
        1
176
     1
 40
0.0
176
     1
 90
        0
176
     1
290
     1
176
     1
290
     1
176
     1
290
     0
176
     1
290
     0
176
     1
290
     0
176
     1
290
     0
176
     1
290
     0
176
     1
290
     0
176
     1
290
     0
176
     1
 90
       50
176
     1
 40
0.0
176
     1
 40
1.0
176
     1
 90
        0
176
     1
 62
    18
420
        0
176
     1
 90
       50
176
     1
 90
        3
176
     1
 62
     5
420
      255
176
     1
290
     0
176
     1
 90
       50
176
     1
 90
       50
176
     1
 90
       50
176
     1
290
     0
176
     1
 90
       50
176
     1
 62
   256
176
     0
 40
1.0
176
     0
 90
        2
176
     1
  1
strokes_ogs.tif
176
     1
290
     0
176
     1
 40
1.0
176
     1
 40
1.0
176
     1
  0
VISUALSTYLE
  5
DDBB
102
{ACAD_REACTORS
330
DDB6
102
}
330
DDB6
100
AcDbVisualStyle
  2
Basic
 70
     7
177
     3
291
     1
 70
    58
 90
        1
176
     1
 90
        0
176
     1
 90
        1
176
     1
 90
        0
176
     1
 40
0.6
176
     1
 40
30.0
176
     1
 62
     7
420
 16777215
176
     1
 90
        0
176
     1
 90
        4
176
     1
 62
     7
176
     1
 62
   257
176
     1
 90
        1
176
     1
 90
        1
176
     1
 40
1.0
176
     1
 90
        8
176
     1
 62
     7
176
     1
 40
1.0
176
     1
 90
        1
176
     1
 90
        6
176
     1
 90
        2
176
     1
 62
     7
176
     1
 90
        5
176
     1
 90
        0
176
     1
 90
        0
176
     1
290
     0
176
     1
 90
        1
176
     1
 40
0.0
176
     1
 90
        0
176
     1
290
     0
176
     1
290
     1
176
     1
290
     1
176
     1
290
     0
176
     1
290
     0
176
     1
290
     0
176
     1
290
     0
176
     1
290
     0
176
     1
290
     0
176
     1
 90
       50
176
     1
 40
0.0
176
     1
 40
1.0
176
     1
 90
        0
176
     1
 62
    18
420
        0
176
     1
 90
       50
176
     1
 90
        3
176
     1
 62
     5
420
      255
176
     1
290
     0
176
     1
 90
       50
176
     1
 90
       50
176
     1
 90
       50
176
     1
290
     0
176
     1
 90
       50
176
     1
 62
   256
176
     0
 40
1.0
176
     0
 90
        2
176
     1
  1
strokes_ogs.tif
176
     1
290
     0
176
     1
 40
1.0
176
     1
 40
1.0
176
     1
  0
VISUALSTYLE
  5
DDC2
102
{ACAD_REACTORS
330
DDB6
102
}
330
DDB6
100
AcDbVisualStyle
  2
Brighten
 70
    12
177
     3
291
     1
 70
    58
 90
        2
176
     1
 90
        2
176
     1
 90
        0
176
     1
 90
        0
176
     1
 40
0.6
176
     1
 40
30.0
176
     1
 62
     7
420
 16777215
176
     1
 90
        1
176
     1
 90
        4
176
     1
 62
     7
176
     1
 62
   257
176
     1
 90
        1
176
     1
 90
        1
176
     1
 40
1.0
176
     1
 90
        8
176
     1
 62
     7
176
     1
 40
1.0
176
     1
 90
        1
176
     1
 90
        6
176
     1
 90
        2
176
     1
 62
     7
176
     1
 90
        5
176
     1
 90
        0
176
     1
 90
        0
176
     1
290
     0
176
     1
 90
        1
176
     1
 40
50.0
176
     1
 90
        0
176
     1
290
     0
176
     1
290
     1
176
     1
290
     1
176
     1
290
     0
176
     1
290
     0
176
     1
290
     0
176
     1
290
     0
176
     1
290
     0
176
     1
290
     0
176
     1
 90
       50
176
     1
 40
0.0
176
     1
 40
1.0
176
     1
 90
        0
176
     1
 62
    18
420
        0
176
     1
 90
       50
176
     1
 90
        3
176
     1
 62
     5
420
      255
176
     1
290
     0
176
     1
 90
       50
176
     1
 90
       50
176
     1
 90
       50
176
     1
290
     0
176
     1
 90
       50
176
     1
 62
   256
176
     0
 40
1.0
176
     0
 90
        2
176
     1
  1
strokes_ogs.tif
176
     1
290
     0
176
     1
 40
1.0
176
     1
 40
1.0
176
     1
  0
VISUALSTYLE
  5
DDC6
102
{ACAD_REACTORS
330
DDB6
102
}
330
DDB6
100
AcDbVisualStyle
  2
ColorChange
 70
    16
177
     3
291
     1
 70
    58
 90
        2
176
     1
 90
        2
176
     1
 90
        3
176
     1
 90
        0
176
     1
 40
0.6
176
     1
 40
30.0
176
     1
 62
     8
420
  8421504
176
     1
 90
        1
176
     1
 90
        4
176
     1
 62
     7
176
     1
 62
   257
176
     1
 90
        1
176
     1
 90
        1
176
     1
 40
1.0
176
     1
 90
        8
176
     1
 62
     8
420
  8421504
176
     1
 40
1.0
176
     1
 90
        1
176
     1
 90
        6
176
     1
 90
        2
176
     1
 62
     7
176
     1
 90
        5
176
     1
 90
        0
176
     1
 90
        0
176
     1
290
     0
176
     1
 90
        1
176
     1
 40
0.0
176
     1
 90
        0
176
     1
290
     0
176
     1
290
     1
176
     1
290
     1
176
     1
290
     0
176
     1
290
     0
176
     1
290
     0
176
     1
290
     0
176
     1
290
     0
176
     1
290
     0
176
     1
 90
       50
176
     1
 40
0.0
176
     1
 40
1.0
176
     1
 90
        0
176
     1
 62
    18
420
        0
176
     1
 90
       50
176
     1
 90
        3
176
     1
 62
     5
420
      255
176
     1
290
     0
176
     1
 90
       50
176
     1
 90
       50
176
     1
 90
       50
176
     1
290
     0
176
     1
 90
       50
176
     1
 62
   256
176
     0
 40
1.0
176
     0
 90
        2
176
     1
  1
strokes_ogs.tif
176
     1
290
     0
176
     1
 40
1.0
176
     1
 40
1.0
176
     1
  0
VISUALSTYLE
  5
DDBF
102
{ACAD_REACTORS
330
DDB6
102
}
330
DDB6
100
AcDbVisualStyle
  2
Conceptual
 70
     9
177
     3
291
     0
 70
    58
 90
        3
176
     1
 90
        2
176
     1
 90
        0
176
     1
 90
        0
176
     1
 40
0.6
176
     1
 40
30.0
176
     1
 62
     7
420
 16777215
176
     1
 90
        2
176
     1
 90
        2
176
     1
 62
     7
176
     1
 62
   257
176
     1
 90
        1
176
     1
 90
        1
176
     1
 40
179.0
176
     1
 90
        8
176
     1
 62
     7
176
     1
 40
1.0
176
     1
 90
        1
176
     1
 90
        6
176
     1
 90
        2
176
     1
 62
     7
176
     1
 90
        3
176
     1
 90
        0
176
     1
 90
        0
176
     1
290
     0
176
     1
 90
        1
176
     1
 40
0.0
176
     1
 90
        0
176
     1
290
     0
176
     1
290
     1
176
     1
290
     1
176
     1
290
     0
176
     1
290
     0
176
     1
290
     0
176
     1
290
     0
176
     1
290
     0
176
     1
290
     0
176
     1
 90
       50
176
     1
 40
0.0
176
     1
 40
1.0
176
     1
 90
        0
176
     1
 62
    18
420
        0
176
     1
 90
       50
176
     1
 90
        3
176
     1
 62
     5
420
      255
176
     1
290
     0
176
     1
 90
       50
176
     1
 90
       50
176
     1
 90
       50
176
     1
290
     0
176
     1
 90
       50
176
     1
 62
   256
176
     0
 40
1.0
176
     0
 90
        2
176
     1
  1
strokes_ogs.tif
176
     1
290
     0
176
     1
 40
1.0
176
     1
 40
1.0
176
     1
  0
VISUALSTYLE
  5
DDC1
102
{ACAD_REACTORS
330
DDB6
102
}
330
DDB6
100
AcDbVisualStyle
  2
Dim
 70
    11
177
     3
291
     1
 70
    58
 90
        2
176
     1
 90
        2
176
     1
 90
        0
176
     1
 90
        0
176
     1
 40
0.6
176
     1
 40
30.0
176
     1
 62
     7
420
 16777215
176
     1
 90
        1
176
     1
 90
        4
176
     1
 62
     7
176
     1
 62
   257
176
     1
 90
        1
176
     1
 90
        1
176
     1
 40
1.0
176
     1
 90
        8
176
     1
 62
     7
176
     1
 40
1.0
176
     1
 90
        1
176
     1
 90
        6
176
     1
 90
        2
176
     1
 62
     7
176
     1
 90
        5
176
     1
 90
        0
176
     1
 90
        0
176
     1
290
     0
176
     1
 90
        1
176
     1
 40
-50.0
176
     1
 90
        0
176
     1
290
     0
176
     1
290
     1
176
     1
290
     1
176
     1
290
     0
176
     1
290
     0
176
     1
290
     0
176
     1
290
     0
176
     1
290
     0
176
     1
290
     0
176
     1
 90
       50
176
     1
 40
0.0
176
     1
 40
1.0
176
     1
 90
        0
176
     1
 62
    18
420
        0
176
     1
 90
       50
176
     1
 90
        3
176
     1
 62
     5
420
      255
176
     1
290
     0
176
     1
 90
       50
176
     1
 90
       50
176
     1
 90
       50
176
     1
290
     0
176
     1
 90
       50
176
     1
 62
   256
176
     0
 40
1.0
176
     0
 90
        2
176
     1
  1
strokes_ogs.tif
176
     1
290
     0
176
     1
 40
1.0
176
     1
 40
1.0
176
     1
  0
VISUALSTYLE
  5
DDCE
102
{ACAD_REACTORS
330
DDB6
102
}
330
DDB6
100
AcDbVisualStyle
  2
EdgeColorOff
 70
    22
177
     3
291
     1
 70
    58
 90
        2
176
     0
 90
        2
176
     0
 90
        0
176
     0
 90
        0
176
     0
 40
0.6
176
     0
 40
30.0
176
     0
 62
     7
420
 16777215
176
     0
 90
        1
176
     0
 90
        4
176
     0
 62
     7
176
     0
 62
   257
176
     0
 90
        1
176
     0
 90
        1
176
     0
 40
1.0
176
     0
 90
        8
176
     2
 62
     7
176
     0
 40
1.0
176
     0
 90
        1
176
     0
 90
        6
176
     0
 90
        2
176
     0
 62
     7
176
     0
 90
        5
176
     0
 90
        0
176
     0
 90
        0
176
     0
290
     0
176
     0
 90
        1
176
     0
 40
0.0
176
     0
 90
        0
176
     0
290
     0
176
     0
290
     1
176
     0
290
     1
176
     0
290
     0
176
     0
290
     0
176
     0
290
     0
176
     0
290
     0
176
     0
290
     0
176
     0
290
     0
176
     0
 90
       50
176
     0
 40
0.0
176
     0
 40
1.0
176
     0
 90
        0
176
     0
 62
    18
420
        0
176
     0
 90
       50
176
     0
 90
        3
176
     0
 62
     5
420
      255
176
     0
290
     0
176
     0
 90
       50
176
     0
 90
       50
176
     0
 90
       50
176
     0
290
     0
176
     0
 90
       50
176
     0
 62
   256
176
     0
 40
1.0
176
     0
 90
        2
176
     0
  1
strokes_ogs.tif
176
     0
290
     0
176
     0
 40
1.0
176
     0
 40
1.0
176
     0
  0
VISUALSTYLE
  5
DDC5
102
{ACAD_REACTORS
330
DDB6
102
}
330
DDB6
100
AcDbVisualStyle
  2
Facepattern
 70
    15
177
     3
291
     1
 70
    58
 90
        2
176
     1
 90
        2
176
     1
 90
        0
176
     1
 90
        0
176
     1
 40
0.6
176
     1
 40
30.0
176
     1
 62
     7
420
 16777215
176
     1
 90
        1
176
     1
 90
        4
176
     1
 62
     7
176
     1
 62
   257
176
     1
 90
        1
176
     1
 90
        1
176
     1
 40
1.0
176
     1
 90
        8
176
     1
 62
     7
176
     1
 40
1.0
176
     1
 90
        1
176
     1
 90
        6
176
     1
 90
        2
176
     1
 62
     7
176
     1
 90
        5
176
     1
 90
        0
176
     1
 90
        0
176
     1
290
     0
176
     1
 90
        1
176
     1
 40
0.0
176
     1
 90
        0
176
     1
290
     0
176
     1
290
     1
176
     1
290
     1
176
     1
290
     0
176
     1
290
     0
176
     1
290
     0
176
     1
290
     0
176
     1
290
     0
176
     1
290
     0
176
     1
 90
       50
176
     1
 40
0.0
176
     1
 40
1.0
176
     1
 90
        0
176
     1
 62
    18
420
        0
176
     1
 90
       50
176
     1
 90
        3
176
     1
 62
     5
420
      255
176
     1
290
     0
176
     1
 90
       50
176
     1
 90
       50
176
     1
 90
       50
176
     1
290
     0
176
     1
 90
       50
176
     1
 62
   256
176
     0
 40
1.0
176
     0
 90
        2
176
     1
  1
strokes_ogs.tif
176
     1
290
     0
176
     1
 40
1.0
176
     1
 40
1.0
176
     1
  0
VISUALSTYLE
  5
DDB7
102
{ACAD_REACTORS
330
DDB6
102
}
330
DDB6
100
AcDbVisualStyle
  2
Flat
 70
     0
177
     3
291
     1
 70
    58
 90
        2
176
     1
 90
        1
176
     1
 90
        1
176
     1
 90
        2
176
     1
 40
0.6
176
     1
 40
30.0
176
     1
 62
     7
420
 16777215
176
     1
 90
        0
176
     1
 90
        0
176
     1
 62
     7
176
     1
 62
   257
176
     1
 90
        1
176
     1
 90
        1
176
     1
 40
1.0
176
     1
 90
        8
176
     1
 62
     7
176
     1
 40
1.0
176
     1
 90
        1
176
     1
 90
        6
176
     1
 90
        2
176
     1
 62
     7
176
     1
 90
        5
176
     1
 90
        0
176
     1
 90
        0
176
     1
290
     0
176
     1
 90
       13
176
     1
 40
0.0
176
     1
 90
        0
176
     1
290
     0
176
     1
290
     1
176
     1
290
     1
176
     1
290
     0
176
     1
290
     0
176
     1
290
     0
176
     1
290
     0
176
     1
290
     0
176
     1
290
     0
176
     1
 90
       50
176
     1
 40
0.0
176
     1
 40
1.0
176
     1
 90
        0
176
     1
 62
    18
420
        0
176
     1
 90
       50
176
     1
 90
        3
176
     1
 62
     5
420
      255
176
     1
290
     0
176
     1
 90
       50
176
     1
 90
       50
176
     1
 90
       50
176
     1
290
     0
176
     1
 90
       50
176
     1
 62
   256
176
     0
 40
1.0
176
     0
 90
        2
176
     1
  1
strokes_ogs.tif
176
     1
290
     0
176
     1
 40
1.0
176
     1
 40
1.0
176
     1
  0
VISUALSTYLE
  5
DDB8
102
{ACAD_REACTORS
330
DDB6
102
}
330
DDB6
100
AcDbVisualStyle
  2
FlatWithEdges
 70
     1
177
     3
291
     1
 70
    58
 90
        2
176
     1
 90
        1
176
     1
 90
        1
176
     1
 90
        2
176
     1
 40
0.6
176
     1
 40
30.0
176
     1
 62
     7
420
 16777215
176
     1
 90
        1
176
     1
 90
        0
176
     1
 62
     7
176
     1
 62
   257
176
     1
 90
        1
176
     1
 90
        1
176
     1
 40
1.0
176
     1
 90
        0
176
     1
 62
   257
176
     1
 40
1.0
176
     1
 90
        1
176
     1
 90
        6
176
     1
 90
        2
176
     1
 62
     7
176
     1
 90
        5
176
     1
 90
        0
176
     1
 90
        0
176
     1
290
     0
176
     1
 90
       13
176
     1
 40
0.0
176
     1
 90
        0
176
     1
290
     0
176
     1
290
     1
176
     1
290
     1
176
     1
290
     0
176
     1
290
     0
176
     1
290
     0
176
     1
290
     0
176
     1
290
     0
176
     1
290
     0
176
     1
 90
       50
176
     1
 40
0.0
176
     1
 40
1.0
176
     1
 90
        0
176
     1
 62
    18
420
        0
176
     1
 90
       50
176
     1
 90
        3
176
     1
 62
     5
420
      255
176
     1
290
     0
176
     1
 90
       50
176
     1
 90
       50
176
     1
 90
       50
176
     1
290
     0
176
     1
 90
       50
176
     1
 62
   256
176
     0
 40
1.0
176
     0
 90
        2
176
     1
  1
strokes_ogs.tif
176
     1
290
     0
176
     1
 40
1.0
176
     1
 40
1.0
176
     1
  0
VISUALSTYLE
  5
DDB9
102
{ACAD_REACTORS
330
DDB6
102
}
330
DDB6
100
AcDbVisualStyle
  2
Gouraud
 70
     2
177
     3
291
     1
 70
    58
 90
        2
176
     1
 90
        2
176
     1
 90
        1
176
     1
 90
        2
176
     1
 40
0.6
176
     1
 40
30.0
176
     1
 62
     7
420
 16777215
176
     1
 90
        0
176
     1
 90
        0
176
     1
 62
     7
176
     1
 62
   257
176
     1
 90
        1
176
     1
 90
        1
176
     1
 40
1.0
176
     1
 90
        0
176
     1
 62
     7
176
     1
 40
1.0
176
     1
 90
        1
176
     1
 90
        6
176
     1
 90
        2
176
     1
 62
     7
176
     1
 90
        5
176
     1
 90
        0
176
     1
 90
        0
176
     1
290
     0
176
     1
 90
       13
176
     1
 40
0.0
176
     1
 90
        0
176
     1
290
     0
176
     1
290
     1
176
     1
290
     1
176
     1
290
     0
176
     1
290
     0
176
     1
290
     0
176
     1
290
     0
176
     1
290
     0
176
     1
290
     0
176
     1
 90
       50
176
     1
 40
0.0
176
     1
 40
1.0
176
     1
 90
        0
176
     1
 62
    18
420
        0
176
     1
 90
       50
176
     1
 90
        3
176
     1
 62
     5
420
      255
176
     1
290
     0
176
     1
 90
       50
176
     1
 90
       50
176
     1
 90
       50
176
     1
290
     0
176
     1
 90
       50
176
     1
 62
   256
176
     0
 40
1.0
176
     0
 90
        2
176
     1
  1
strokes_ogs.tif
176
     1
290
     0
176
     1
 40
1.0
176
     1
 40
1.0
176
     1
  0
VISUALSTYLE
  5
DDBA
102
{ACAD_REACTORS
330
DDB6
102
}
330
DDB6
100
AcDbVisualStyle
  2
GouraudWithEdges
 70
     3
177
     3
291
     1
 70
    58
 90
        2
176
     1
 90
        2
176
     1
 90
        1
176
     1
 90
        2
176
     1
 40
0.6
176
     1
 40
30.0
176
     1
 62
     7
420
 16777215
176
     1
 90
        1
176
     1
 90
        0
176
     1
 62
     7
176
     1
 62
   257
176
     1
 90
        1
176
     1
 90
        1
176
     1
 40
1.0
176
     1
 90
        0
176
     1
 62
   257
176
     1
 40
1.0
176
     1
 90
        1
176
     1
 90
        6
176
     1
 90
        2
176
     1
 62
     7
176
     1
 90
        5
176
     1
 90
        0
176
     1
 90
        0
176
     1
290
     0
176
     1
 90
       13
176
     1
 40
0.0
176
     1
 90
        0
176
     1
290
     0
176
     1
290
     1
176
     1
290
     1
176
     1
290
     0
176
     1
290
     0
176
     1
290
     0
176
     1
290
     0
176
     1
290
     0
176
     1
290
     0
176
     1
 90
       50
176
     1
 40
0.0
176
     1
 40
1.0
176
     1
 90
        0
176
     1
 62
    18
420
        0
176
     1
 90
       50
176
     1
 90
        3
176
     1
 62
     5
420
      255
176
     1
290
     0
176
     1
 90
       50
176
     1
 90
       50
176
     1
 90
       50
176
     1
290
     0
176
     1
 90
       50
176
     1
 62
   256
176
     0
 40
1.0
176
     0
 90
        2
176
     1
  1
strokes_ogs.tif
176
     1
290
     0
176
     1
 40
1.0
176
     1
 40
1.0
176
     1
  0
VISUALSTYLE
  5
DDBE
102
{ACAD_REACTORS
330
DDB6
102
}
330
DDB6
100
AcDbVisualStyle
  2
Hidden
 70
     6
177
     3
291
     0
 70
    58
 90
        1
176
     1
 90
        2
176
     1
 90
        2
176
     1
 90
        0
176
     1
 40
0.6
176
     1
 40
30.0
176
     1
 62
     7
420
 16777215
176
     1
 90
        2
176
     1
 90
        2
176
     1
 62
     7
176
     1
 62
   257
176
     1
 90
        2
176
     1
 90
        1
176
     1
 40
40.0
176
     1
 90
        0
176
     1
 62
   257
176
     1
 40
1.0
176
     1
 90
        1
176
     1
 90
        6
176
     1
 90
        2
176
     1
 62
     7
176
     1
 90
        3
176
     1
 90
        0
176
     1
 90
        0
176
     1
290
     0
176
     1
 90
        1
176
     1
 40
0.0
176
     1
 90
        0
176
     1
290
     0
176
     1
290
     1
176
     1
290
     1
176
     1
290
     0
176
     1
290
     0
176
     1
290
     0
176
     1
290
     0
176
     1
290
     0
176
     1
290
     0
176
     1
 90
       50
176
     1
 40
0.0
176
     1
 40
1.0
176
     1
 90
        0
176
     1
 62
    18
420
        0
176
     1
 90
       50
176
     1
 90
        3
176
     1
 62
     5
420
      255
176
     1
290
     0
176
     1
 90
       50
176
     1
 90
       50
176
     1
 90
       50
176
     1
290
     0
176
     1
 90
       50
176
     1
 62
   256
176
     0
 40
1.0
176
     0
 90
        2
176
     1
  1
strokes_ogs.tif
176
     1
290
     0
176
     1
 40
1.0
176
     1
 40
1.0
176
     1
  0
VISUALSTYLE
  5
DDCC
102
{ACAD_REACTORS
330
DDB6
102
}
330
DDB6
100
AcDbVisualStyle
  2
JitterOff
 70
    20
177
     3
291
     1
 70
    58
 90
        2
176
     0
 90
        2
176
     0
 90
        0
176
     0
 90
        0
176
     0
 40
0.6
176
     0
 40
30.0
176
     0
 62
     7
420
 16777215
176
     0
 90
        1
176
     0
 90
        4
176
     0
 62
     7
176
     0
 62
   257
176
     0
 90
        1
176
     0
 90
        1
176
     0
 40
1.0
176
     0
 90
       10
176
     2
 62
     7
176
     0
 40
1.0
176
     0
 90
        1
176
     0
 90
        6
176
     0
 90
        2
176
     0
 62
     7
176
     0
 90
        5
176
     0
 90
        0
176
     0
 90
        0
176
     0
290
     0
176
     0
 90
        1
176
     0
 40
0.0
176
     0
 90
        0
176
     0
290
     0
176
     0
290
     1
176
     0
290
     1
176
     0
290
     0
176
     0
290
     0
176
     0
290
     0
176
     0
290
     0
176
     0
290
     0
176
     0
290
     0
176
     0
 90
       50
176
     0
 40
0.0
176
     0
 40
1.0
176
     0
 90
        0
176
     0
 62
    18
420
        0
176
     0
 90
       50
176
     0
 90
        3
176
     0
 62
     5
420
      255
176
     0
290
     0
176
     0
 90
       50
176
     0
 90
       50
176
     0
 90
       50
176
     0
290
     0
176
     0
 90
       50
176
     0
 62
   256
176
     0
 40
1.0
176
     0
 90
        2
176
     0
  1
strokes_ogs.tif
176
     0
290
     0
176
     0
 40
1.0
176
     0
 40
1.0
176
     0
  0
VISUALSTYLE
  5
DDC4
102
{ACAD_REACTORS
330
DDB6
102
}
330
DDB6
100
AcDbVisualStyle
  2
Linepattern
 70
    14
177
     3
291
     1
 70
    58
 90
        2
176
     1
 90
        2
176
     1
 90
        0
176
     1
 90
        0
176
     1
 40
0.6
176
     1
 40
30.0
176
     1
 62
     7
420
 16777215
176
     1
 90
        1
176
     1
 90
        4
176
     1
 62
     7
176
     1
 62
   257
176
     1
 90
        7
176
     1
 90
        7
176
     1
 40
1.0
176
     1
 90
        8
176
     1
 62
     7
176
     1
 40
1.0
176
     1
 90
        1
176
     1
 90
        6
176
     1
 90
        2
176
     1
 62
     7
176
     1
 90
        5
176
     1
 90
        0
176
     1
 90
        0
176
     1
290
     0
176
     1
 90
        1
176
     1
 40
0.0
176
     1
 90
        0
176
     1
290
     0
176
     1
290
     1
176
     1
290
     1
176
     1
290
     0
176
     1
290
     0
176
     1
290
     0
176
     1
290
     0
176
     1
290
     0
176
     1
290
     0
176
     1
 90
       50
176
     1
 40
0.0
176
     1
 40
1.0
176
     1
 90
        0
176
     1
 62
    18
420
        0
176
     1
 90
       50
176
     1
 90
        3
176
     1
 62
     5
420
      255
176
     1
290
     0
176
     1
 90
       50
176
     1
 90
       50
176
     1
 90
       50
176
     1
290
     0
176
     1
 90
       50
176
     1
 62
   256
176
     0
 40
1.0
176
     0
 90
        2
176
     1
  1
strokes_ogs.tif
176
     1
290
     0
176
     1
 40
1.0
176
     1
 40
1.0
176
     1
  0
VISUALSTYLE
  5
DDCD
102
{ACAD_REACTORS
330
DDB6
102
}
330
DDB6
100
AcDbVisualStyle
  2
OverhangOff
 70
    21
177
     3
291
     1
 70
    58
 90
        2
176
     0
 90
        2
176
     0
 90
        0
176
     0
 90
        0
176
     0
 40
0.6
176
     0
 40
30.0
176
     0
 62
     7
420
 16777215
176
     0
 90
        1
176
     0
 90
        4
176
     0
 62
     7
176
     0
 62
   257
176
     0
 90
        1
176
     0
 90
        1
176
     0
 40
1.0
176
     0
 90
        9
176
     2
 62
     7
176
     0
 40
1.0
176
     0
 90
        1
176
     0
 90
        6
176
     0
 90
        2
176
     0
 62
     7
176
     0
 90
        5
176
     0
 90
        0
176
     0
 90
        0
176
     0
290
     0
176
     0
 90
        1
176
     0
 40
0.0
176
     0
 90
        0
176
     0
290
     0
176
     0
290
     1
176
     0
290
     1
176
     0
290
     0
176
     0
290
     0
176
     0
290
     0
176
     0
290
     0
176
     0
290
     0
176
     0
290
     0
176
     0
 90
       50
176
     0
 40
0.0
176
     0
 40
1.0
176
     0
 90
        0
176
     0
 62
    18
420
        0
176
     0
 90
       50
176
     0
 90
        3
176
     0
 62
     5
420
      255
176
     0
290
     0
176
     0
 90
       50
176
     0
 90
       50
176
     0
 90
       50
176
     0
290
     0
176
     0
 90
       50
176
     0
 62
   256
176
     0
 40
1.0
176
     0
 90
        2
176
     0
  1
strokes_ogs.tif
176
     0
290
     0
176
     0
 40
1.0
176
     0
 40
1.0
176
     0
  0
VISUALSTYLE
  5
DDC0
102
{ACAD_REACTORS
330
DDB6
102
}
330
DDB6
100
AcDbVisualStyle
  2
Realistic
 70
     8
177
     3
291
     0
 70
    58
 90
        2
176
     1
 90
        3
176
     1
 90
        0
176
     1
 90
        2
176
     1
 40
0.6
176
     1
 40
30.0
176
     1
 62
     7
420
 16777215
176
     1
 90
        0
176
     1
 90
        0
176
     1
 62
     7
176
     1
 62
   257
176
     1
 90
        1
176
     1
 90
        1
176
     1
 40
1.0
176
     1
 90
        8
176
     1
 62
   257
176
     1
 40
1.0
176
     1
 90
        1
176
     1
 90
        6
176
     1
 90
        2
176
     1
 62
     7
176
     1
 90
        3
176
     1
 90
        0
176
     1
 90
        0
176
     1
290
     0
176
     1
 90
       13
176
     1
 40
0.0
176
     1
 90
        0
176
     1
290
     0
176
     1
290
     1
176
     1
290
     1
176
     1
290
     0
176
     1
290
     0
176
     1
290
     0
176
     1
290
     0
176
     1
290
     0
176
     1
290
     0
176
     1
 90
       50
176
     1
 40
0.0
176
     1
 40
1.0
176
     1
 90
        0
176
     1
 62
    18
420
        0
176
     1
 90
       50
176
     1
 90
        3
176
     1
 62
     5
420
      255
176
     1
290
     0
176
     1
 90
       50
176
     1
 90
       50
176
     1
 90
       50
176
     1
290
     0
176
     1
 90
       50
176
     1
 62
   256
176
     0
 40
1.0
176
     0
 90
        2
176
     1
  1
strokes_ogs.tif
176
     1
290
     0
176
     1
 40
1.0
176
     1
 40
1.0
176
     1
  0
VISUALSTYLE
  5
DDCB
102
{ACAD_REACTORS
330
DDB6
102
}
330
DDB6
100
AcDbVisualStyle
  2
Shaded
 70
    27
177
     3
291
     0
 70
    58
 90
        2
176
     1
 90
        2
176
     1
 90
        1
176
     1
 90
        2
176
     1
 40
0.6
176
     1
 40
30.0
176
     1
 62
     7
420
 16777215
176
     1
 90
        0
176
     1
 90
        4
176
     1
 62
     7
176
     1
 62
   257
176
     1
 90
        1
176
     1
 90
        1
176
     1
 40
1.0
176
     1
 90
        8
176
     1
 62
   257
176
     1
 40
1.0
176
     1
 90
        1
176
     1
 90
        6
176
     1
 90
        2
176
     1
 62
     8
420
  7895160
176
     1
 90
        3
176
     1
 90
        0
176
     1
 90
        0
176
     1
290
     0
176
     1
 90
        5
176
     1
 40
0.0
176
     1
 90
        0
176
     1
290
     0
176
     1
290
     1
176
     1
290
     1
176
     1
290
     0
176
     1
290
     0
176
     1
290
     0
176
     1
290
     0
176
     1
290
     0
176
     1
290
     0
176
     1
 90
       50
176
     1
 40
0.0
176
     1
 40
1.0
176
     1
 90
        0
176
     1
 62
    18
420
        0
176
     1
 90
       50
176
     1
 90
        3
176
     1
 62
     5
420
      255
176
     1
290
     0
176
     1
 90
       50
176
     1
 90
       50
176
     1
 90
       50
176
     1
290
     0
176
     1
 90
       50
176
     1
 62
   256
176
     0
 40
1.0
176
     0
 90
        2
176
     1
  1
strokes_ogs.tif
176
     1
290
     0
176
     1
 40
1.0
176
     1
 40
1.0
176
     1
  0
VISUALSTYLE
  5
DDCA
102
{ACAD_REACTORS
330
DDB6
102
}
330
DDB6
100
AcDbVisualStyle
  2
Shaded with edges
 70
    26
177
     3
291
     0
 70
    58
 90
        2
176
     1
 90
        2
176
     1
 90
        1
176
     1
 90
        2
176
     1
 40
0.6
176
     1
 40
30.0
176
     1
 62
     7
420
 16777215
176
     1
 90
        1
176
     1
 90
        2
176
     1
 62
     7
176
     1
 62
   257
176
     1
 90
        2
176
     1
 90
        1
176
     1
 40
1.0
176
     1
 90
        8
176
     1
 62
   257
176
     1
 40
1.0
176
     1
 90
        1
176
     1
 90
        6
176
     1
 90
        2
176
     1
 62
     7
176
     1
 90
        3
176
     1
 90
        0
176
     1
 90
        0
176
     1
290
     0
176
     1
 90
        5
176
     1
 40
0.0
176
     1
 90
        0
176
     1
290
     0
176
     1
290
     1
176
     1
290
     1
176
     1
290
     0
176
     1
290
     0
176
     1
290
     0
176
     1
290
     0
176
     1
290
     0
176
     1
290
     0
176
     1
 90
       50
176
     1
 40
0.0
176
     1
 40
1.0
176
     1
 90
        0
176
     1
 62
    18
420
        0
176
     1
 90
       50
176
     1
 90
        3
176
     1
 62
     5
420
      255
176
     1
290
     0
176
     1
 90
       50
176
     1
 90
       50
176
     1
 90
       50
176
     1
290
     0
176
     1
 90
       50
176
     1
 62
   256
176
     0
 40
1.0
176
     0
 90
        2
176
     1
  1
strokes_ogs.tif
176
     1
290
     0
176
     1
 40
1.0
176
     1
 40
1.0
176
     1
  0
VISUALSTYLE
  5
DDC7
102
{ACAD_REACTORS
330
DDB6
102
}
330
DDB6
100
AcDbVisualStyle
  2
Shades of Gray
 70
    23
177
     3
291
     0
 70
    58
 90
        2
176
     1
 90
        2
176
     1
 90
        3
176
     1
 90
        0
176
     1
 40
0.6
176
     1
 40
30.0
176
     1
 62
     7
420
 16777215
176
     1
 90
        2
176
     1
 90
        2
176
     1
 62
     7
176
     1
 62
     7
176
     1
 90
        1
176
     1
 90
        1
176
     1
 40
40.0
176
     1
 90
        8
176
     1
 62
     7
176
     1
 40
1.0
176
     1
 90
        1
176
     1
 90
        6
176
     1
 90
        2
176
     1
 62
     7
176
     1
 90
        3
176
     1
 90
        0
176
     1
 90
        0
176
     1
290
     0
176
     1
 90
        1
176
     1
 40
0.0
176
     1
 90
        0
176
     1
290
     0
176
     1
290
     1
176
     1
290
     1
176
     1
290
     0
176
     1
290
     0
176
     1
290
     0
176
     1
290
     0
176
     1
290
     0
176
     1
290
     0
176
     1
 90
       50
176
     1
 40
0.0
176
     1
 40
1.0
176
     1
 90
        0
176
     1
 62
    18
420
        0
176
     1
 90
       50
176
     1
 90
        3
176
     1
 62
     5
420
      255
176
     1
290
     0
176
     1
 90
       50
176
     1
 90
       50
176
     1
 90
       50
176
     1
290
     0
176
     1
 90
       50
176
     1
 62
   256
176
     0
 40
1.0
176
     0
 90
        2
176
     1
  1
strokes_ogs.tif
176
     1
290
     0
176
     1
 40
1.0
176
     1
 40
1.0
176
     1
  0
VISUALSTYLE
  5
DDC8
102
{ACAD_REACTORS
330
DDB6
102
}
330
DDB6
100
AcDbVisualStyle
  2
Sketchy
 70
    24
177
     3
291
     0
 70
    58
 90
        1
176
     1
 90
        2
176
     1
 90
        2
176
     1
 90
        0
176
     1
 40
0.6
176
     1
 40
30.0
176
     1
 62
     7
420
 16777215
176
     1
 90
        2
176
     1
 90
        2
176
     1
 62
     7
176
     1
 62
     7
176
     1
 90
        1
176
     1
 90
        1
176
     1
 40
40.0
176
     1
 90
       11
176
     1
 62
     7
176
     1
 40
1.0
176
     1
 90
        1
176
     1
 90
        6
176
     1
 90
        2
176
     1
 62
     7
176
     1
 90
        6
176
     1
 90
        0
176
     1
 90
        0
176
     1
290
     0
176
     1
 90
        1
176
     1
 40
0.0
176
     1
 90
        0
176
     1
290
     0
176
     1
290
     1
176
     1
290
     1
176
     1
290
     0
176
     1
290
     0
176
     1
290
     0
176
     1
290
     0
176
     1
290
     0
176
     1
290
     0
176
     1
 90
       50
176
     1
 40
0.0
176
     1
 40
1.0
176
     1
 90
        0
176
     1
 62
    18
420
        0
176
     1
 90
       50
176
     1
 90
        3
176
     1
 62
     5
420
      255
176
     1
290
     0
176
     1
 90
       50
176
     1
 90
       50
176
     1
 90
       50
176
     1
290
     0
176
     1
 90
       50
176
     1
 62
   256
176
     0
 40
1.0
176
     0
 90
        2
176
     1
  1
strokes_ogs.tif
176
     1
290
     0
176
     1
 40
1.0
176
     1
 40
1.0
176
     1
  0
VISUALSTYLE
  5
DDC3
102
{ACAD_REACTORS
330
DDB6
102
}
330
DDB6
100
AcDbVisualStyle
  2
Thicken
 70
    13
177
     3
291
     1
 70
    58
 90
        2
176
     1
 90
        2
176
     1
 90
        0
176
     1
 90
        0
176
     1
 40
0.6
176
     1
 40
30.0
176
     1
 62
     7
420
 16777215
176
     1
 90
        1
176
     1
 90
        4
176
     1
 62
     7
176
     1
 62
   257
176
     1
 90
        1
176
     1
 90
        1
176
     1
 40
1.0
176
     1
 90
       12
176
     1
 62
     7
176
     1
 40
1.0
176
     1
 90
        1
176
     1
 90
        6
176
     1
 90
        2
176
     1
 62
     7
176
     1
 90
        5
176
     1
 90
        0
176
     1
 90
        0
176
     1
290
     0
176
     1
 90
        1
176
     1
 40
0.0
176
     1
 90
        0
176
     1
290
     0
176
     1
290
     1
176
     1
290
     1
176
     1
290
     0
176
     1
290
     0
176
     1
290
     0
176
     1
290
     0
176
     1
290
     0
176
     1
290
     0
176
     1
 90
       50
176
     1
 40
0.0
176
     1
 40
1.0
176
     1
 90
        0
176
     1
 62
    18
420
        0
176
     1
 90
       50
176
     1
 90
        3
176
     1
 62
     5
420
      255
176
     1
290
     0
176
     1
 90
       50
176
     1
 90
       50
176
     1
 90
       50
176
     1
290
     0
176
     1
 90
       50
176
     1
 62
   256
176
     0
 40
1.0
176
     0
 90
        2
176
     1
  1
strokes_ogs.tif
176
     1
290
     0
176
     1
 40
1.0
176
     1
 40
1.0
176
     1
  0
VISUALSTYLE
  5
DDBD
102
{ACAD_REACTORS
330
DDB6
102
}
330
DDB6
100
AcDbVisualStyle
  2
Wireframe
 70
     5
177
     3
291
     0
 70
    58
 90
        0
176
     1
 90
        2
176
     1
 90
        0
176
     1
 90
        0
176
     1
 40
0.6
176
     1
 40
30.0
176
     1
 62
     7
420
 16777215
176
     1
 90
        1
176
     1
 90
        4
176
     1
 62
     7
176
     1
 62
   257
176
     1
 90
        1
176
     1
 90
        1
176
     1
 40
1.0
176
     1
 90
        0
176
     1
 62
   257
176
     1
 40
1.0
176
     1
 90
        1
176
     1
 90
        6
176
     1
 90
        2
176
     1
 62
     7
176
     1
 90
        3
176
     1
 90
        0
176
     1
 90
        0
176
     1
290
     0
176
     1
 90
        1
176
     1
 40
0.0
176
     1
 90
        0
176
     1
290
     0
176
     1
290
     1
176
     1
290
     1
176
     1
290
     0
176
     1
290
     0
176
     1
290
     0
176
     1
290
     0
176
     1
290
     0
176
     1
290
     0
176
     1
 90
       50
176
     1
 40
0.0
176
     1
 40
1.0
176
     1
 90
        0
176
     1
 62
    18
420
        0
176
     1
 90
       50
176
     1
 90
        3
176
     1
 62
     5
420
      255
176
     1
290
     0
176
     1
 90
       50
176
     1
 90
       50
176
     1
 90
       50
176
     1
290
     0
176
     1
 90
       50
176
     1
 62
   256
176
     0
 40
1.0
176
     0
 90
        2
176
     1
  1
strokes_ogs.tif
176
     1
290
     0
176
     1
 40
1.0
176
     1
 40
1.0
176
     1
  0
VISUALSTYLE
  5
DDC9
102
{ACAD_REACTORS
330
DDB6
102
}
330
DDB6
100
AcDbVisualStyle
  2
X-Ray
 70
    25
177
     3
291
     0
 70
    58
 90
        2
176
     1
 90
        2
176
     1
 90
        1
176
     1
 90
        1
176
     1
 40
0.5
176
     1
 40
30.0
176
     1
 62
     7
420
 16777215
176
     1
 90
        1
176
     1
 90
        0
176
     1
 62
     7
176
     1
 62
   257
176
     1
 90
        1
176
     1
 90
        1
176
     1
 40
1.0
176
     1
 90
        8
176
     1
 62
     7
176
     1
 40
1.0
176
     1
 90
        1
176
     1
 90
        6
176
     1
 90
        2
176
     1
 62
     7
176
     1
 90
        3
176
     1
 90
        0
176
     1
 90
        0
176
     1
290
     0
176
     1
 90
       13
176
     1
 40
0.0
176
     1
 90
        0
176
     1
290
     0
176
     1
290
     1
176
     1
290
     1
176
     1
290
     0
176
     1
290
     0
176
     1
290
     0
176
     1
290
     0
176
     1
290
     0
176
     1
290
     0
176
     1
 90
       50
176
     1
 40
0.0
176
     1
 40
1.0
176
     1
 90
        0
176
     1
 62
    18
420
        0
176
     1
 90
       50
176
     1
 90
        3
176
     1
 62
     5
420
      255
176
     1
290
     0
176
     1
 90
       50
176
     1
 90
       50
176
     1
 90
       50
176
     1
290
     0
176
     1
 90
       50
176
     1
 62
   256
176
     0
 40
1.0
176
     0
 90
        2
176
     1
  1
strokes_ogs.tif
176
     1
290
     0
176
     1
 40
1.0
176
     1
 40
1.0
176
     1
  0
DICTIONARYVAR
  5
E163
102
{ACAD_REACTORS
330
51
102
}
330
51
100
DictionaryVariables
280
     0
  1
1:1
  0
DICTIONARYVAR
  5
E15F
102
{ACAD_REACTORS
330
51
102
}
330
51
100
DictionaryVariables
280
     0
  1
STANDARD
  0
DICTIONARYVAR
  5
E15E
102
{ACAD_REACTORS
330
51
102
}
330
51
100
DictionaryVariables
280
     0
  1
STANDARD
  0
DICTIONARYVAR
  5
E160
102
{ACAD_REACTORS
330
51
102
}
330
51
100
DictionaryVariables
280
     0
  1
Metric50
  0
DICTIONARYVAR
  5
E161
102
{ACAD_REACTORS
330
51
102
}
330
51
100
DictionaryVariables
280
     0
  1
Metric50
  0
DICTIONARYVAR
  5
52
102
{ACAD_REACTORS
330
51
102
}
330
51
100
DictionaryVariables
280
     0
  1
0
  0
DICTIONARYVAR
  5
E165
102
{ACAD_REACTORS
330
51
102
}
330
51
100
DictionaryVariables
280
     0
  1
1
  0
DICTIONARYVAR
  5
E166
102
{ACAD_REACTORS
330
51
102
}
330
51
100
DictionaryVariables
280
     0
  1
15
  0
DICTIONARYVAR
  5
E164
102
{ACAD_REACTORS
330
51
102
}
330
51
100
DictionaryVariables
280
     0
  1
0
  0
DICTIONARYVAR
  5
E162
102
{ACAD_REACTORS
330
51
102
}
330
51
100
DictionaryVariables
280
     0
  1
0
  0
DICTIONARYVAR
  5
D1FE
102
{ACAD_REACTORS
330
51
102
}
330
51
100
DictionaryVariables
280
     0
  1
96
  0
DICTIONARY
  5
DDA7
330
DDA6
100
AcDbDictionary
280
     1
281
     1
  3
BUMPTILE
360
DDA9
  3
DIFFUSETILE
360
DDA8
  3
OPACITYTILE
360
DDAC
  3
REFLECTIONTILE
360
DDAB
  3
REFRACTIONTILE
360
DDAD
  3
SPECULARTILE
360
DDAA
  0
DICTIONARY
  5
DD9F
330
DD9E
100
AcDbDictionary
280
     1
281
     1
  3
BUMPTILE
360
DDA1
  3
DIFFUSETILE
360
DDA0
  3
OPACITYTILE
360
DDA4
  3
REFLECTIONTILE
360
DDA3
  3
REFRACTIONTILE
360
DDA5
  3
SPECULARTILE
360
DDA2
  0
DICTIONARY
  5
DDAF
330
DDAE
100
AcDbDictionary
280
     1
281
     1
  3
BUMPTILE
360
DDB1
  3
DIFFUSETILE
360
DDB0
  3
OPACITYTILE
360
DDB4
  3
REFLECTIONTILE
360
DDB3
  3
REFRACTIONTILE
360
DDB5
  3
SPECULARTILE
360
DDB2
  0
DICTIONARY
  5
E16A
330
DDD2
100
AcDbDictionary
280
     1
281
     1
  3
ACAD_ROUNDTRIP_2008_TABLESTYLE_CELLSTYLEMAP
360
E16B
  0
XRECORD
  5
DDA9
102
{ACAD_REACTORS
330
DDA7
102
}
330
DDA7
100
AcDbXrecord
280
     1
270
     1
271
     1
  0
XRECORD
  5
DDA8
102
{ACAD_REACTORS
330
DDA7
102
}
330
DDA7
100
AcDbXrecord
280
     1
270
     1
271
     1
  0
XRECORD
  5
DDAC
102
{ACAD_REACTORS
330
DDA7
102
}
330
DDA7
100
AcDbXrecord
280
     1
270
     1
271
     1
  0
XRECORD
  5
DDAB
102
{ACAD_REACTORS
330
DDA7
102
}
330
DDA7
100
AcDbXrecord
280
     1
270
     1
271
     1
  0
XRECORD
  5
DDAD
102
{ACAD_REACTORS
330
DDA7
102
}
330
DDA7
100
AcDbXrecord
280
     1
270
     1
271
     1
  0
XRECORD
  5
DDAA
102
{ACAD_REACTORS
330
DDA7
102
}
330
DDA7
100
AcDbXrecord
280
     1
270
     1
271
     1
  0
XRECORD
  5
DDA1
102
{ACAD_REACTORS
330
DD9F
102
}
330
DD9F
100
AcDbXrecord
280
     1
270
     1
271
     1
  0
XRECORD
  5
DDA0
102
{ACAD_REACTORS
330
DD9F
102
}
330
DD9F
100
AcDbXrecord
280
     1
270
     1
271
     1
  0
XRECORD
  5
DDA4
102
{ACAD_REACTORS
330
DD9F
102
}
330
DD9F
100
AcDbXrecord
280
     1
270
     1
271
     1
  0
XRECORD
  5
DDA3
102
{ACAD_REACTORS
330
DD9F
102
}
330
DD9F
100
AcDbXrecord
280
     1
270
     1
271
     1
  0
XRECORD
  5
DDA5
102
{ACAD_REACTORS
330
DD9F
102
}
330
DD9F
100
AcDbXrecord
280
     1
270
     1
271
     1
  0
XRECORD
  5
DDA2
102
{ACAD_REACTORS
330
DD9F
102
}
330
DD9F
100
AcDbXrecord
280
     1
270
     1
271
     1
  0
XRECORD
  5
DDB1
102
{ACAD_REACTORS
330
DDAF
102
}
330
DDAF
100
AcDbXrecord
280
     1
270
     1
271
     1
  0
XRECORD
  5
DDB0
102
{ACAD_REACTORS
330
DDAF
102
}
330
DDAF
100
AcDbXrecord
280
     1
270
     1
271
     1
  0
XRECORD
  5
DDB4
102
{ACAD_REACTORS
330
DDAF
102
}
330
DDAF
100
AcDbXrecord
280
     1
270
     1
271
     1
  0
XRECORD
  5
DDB3
102
{ACAD_REACTORS
330
DDAF
102
}
330
DDAF
100
AcDbXrecord
280
     1
270
     1
271
     1
  0
XRECORD
  5
DDB5
102
{ACAD_REACTORS
330
DDAF
102
}
330
DDAF
100
AcDbXrecord
280
     1
270
     1
271
     1
  0
XRECORD
  5
DDB2
102
{ACAD_REACTORS
330
DDAF
102
}
330
DDAF
100
AcDbXrecord
280
     1
270
     1
271
     1
  0
CELLSTYLEMAP
  5
E16B
102
{ACAD_REACTORS
330
E16A
102
}
330
E16A
100
AcDbCellStyleMap
 90
        3
300
CELLSTYLE
  1
TABLEFORMAT_BEGIN
 90
        5
170
     1
 91
        0
 92
    32768
 62
   257
 93
        1
300
CONTENTFORMAT
  1
CONTENTFORMAT_BEGIN
 90
        0
 91
        0
 92
      512
 93
        0
300

 40
0.0
140
1.0
 94
        5
 62
     0
340
F
144
6.0
309
CONTENTFORMAT_END
171
     1
301
MARGIN
  1
CELLMARGIN_BEGIN
 40
1.5
 40
1.5
 40
1.5
 40
1.5
 40
4.5
 40
4.5
309
CELLMARGIN_END
 94
        6
 95
        1
302
GRIDFORMAT
  1
GRIDFORMAT_BEGIN
 90
        0
 91
        1
 62
     0
 92
       -2
340
0
 93
        0
 40
1.125
309
GRIDFORMAT_END
 95
        2
302
GRIDFORMAT
  1
GRIDFORMAT_BEGIN
 90
        0
 91
        1
 62
     0
 92
       -2
340
0
 93
        0
 40
1.125
309
GRIDFORMAT_END
 95
        4
302
GRIDFORMAT
  1
GRIDFORMAT_BEGIN
 90
        0
 91
        1
 62
     0
 92
       -2
340
0
 93
        0
 40
1.125
309
GRIDFORMAT_END
 95
        8
302
GRIDFORMAT
  1
GRIDFORMAT_BEGIN
 90
        0
 91
        1
 62
     0
 92
       -2
340
0
 93
        0
 40
1.125
309
GRIDFORMAT_END
 95
       16
302
GRIDFORMAT
  1
GRIDFORMAT_BEGIN
 90
        0
 91
        1
 62
     0
 92
       -2
340
0
 93
        0
 40
1.125
309
GRIDFORMAT_END
 95
       32
302
GRIDFORMAT
  1
GRIDFORMAT_BEGIN
 90
        0
 91
        1
 62
     0
 92
       -2
340
0
 93
        0
 40
1.125
309
GRIDFORMAT_END
309
TABLEFORMAT_END
  1
CELLSTYLE_BEGIN
 90
        1
 91
        1
300
_TITLE
309
CELLSTYLE_END
300
CELLSTYLE
  1
TABLEFORMAT_BEGIN
 90
        5
170
     1
 91
        0
 92
        0
 62
   257
 93
        1
300
CONTENTFORMAT
  1
CONTENTFORMAT_BEGIN
 90
        0
 91
        0
 92
      512
 93
        0
300

 40
0.0
140
1.0
 94
        5
 62
     0
340
F
144
4.5
309
CONTENTFORMAT_END
171
     1
301
MARGIN
  1
CELLMARGIN_BEGIN
 40
1.5
 40
1.5
 40
1.5
 40
1.5
 40
4.5
 40
4.5
309
CELLMARGIN_END
 94
        6
 95
        1
302
GRIDFORMAT
  1
GRIDFORMAT_BEGIN
 90
        0
 91
        1
 62
     0
 92
       -2
340
0
 93
        0
 40
1.125
309
GRIDFORMAT_END
 95
        2
302
GRIDFORMAT
  1
GRIDFORMAT_BEGIN
 90
        0
 91
        1
 62
     0
 92
       -2
340
0
 93
        0
 40
1.125
309
GRIDFORMAT_END
 95
        4
302
GRIDFORMAT
  1
GRIDFORMAT_BEGIN
 90
        0
 91
        1
 62
     0
 92
       -2
340
0
 93
        0
 40
1.125
309
GRIDFORMAT_END
 95
        8
302
GRIDFORMAT
  1
GRIDFORMAT_BEGIN
 90
        0
 91
        1
 62
     0
 92
       -2
340
0
 93
        0
 40
1.125
309
GRIDFORMAT_END
 95
       16
302
GRIDFORMAT
  1
GRIDFORMAT_BEGIN
 90
        0
 91
        1
 62
     0
 92
       -2
340
0
 93
        0
 40
1.125
309
GRIDFORMAT_END
 95
       32
302
GRIDFORMAT
  1
GRIDFORMAT_BEGIN
 90
        0
 91
        1
 62
     0
 92
       -2
340
0
 93
        0
 40
1.125
309
GRIDFORMAT_END
309
TABLEFORMAT_END
  1
CELLSTYLE_BEGIN
 90
        2
 91
        1
300
_HEADER
309
CELLSTYLE_END
300
CELLSTYLE
  1
TABLEFORMAT_BEGIN
 90
        5
170
     1
 91
        0
 92
        0
 62
   257
 93
        1
300
CONTENTFORMAT
  1
CONTENTFORMAT_BEGIN
 90
        0
 91
        0
 92
      512
 93
        0
300

 40
0.0
140
1.0
 94
        2
 62
     0
340
F
144
4.5
309
CONTENTFORMAT_END
171
     1
301
MARGIN
  1
CELLMARGIN_BEGIN
 40
1.5
 40
1.5
 40
1.5
 40
1.5
 40
4.5
 40
4.5
309
CELLMARGIN_END
 94
        6
 95
        1
302
GRIDFORMAT
  1
GRIDFORMAT_BEGIN
 90
        0
 91
        1
 62
     0
 92
       -2
340
0
 93
        0
 40
1.125
309
GRIDFORMAT_END
 95
        2
302
GRIDFORMAT
  1
GRIDFORMAT_BEGIN
 90
        0
 91
        1
 62
     0
 92
       -2
340
0
 93
        0
 40
1.125
309
GRIDFORMAT_END
 95
        4
302
GRIDFORMAT
  1
GRIDFORMAT_BEGIN
 90
        0
 91
        1
 62
     0
 92
       -2
340
0
 93
        0
 40
1.125
309
GRIDFORMAT_END
 95
        8
302
GRIDFORMAT
  1
GRIDFORMAT_BEGIN
 90
        0
 91
        1
 62
     0
 92
       -2
340
0
 93
        0
 40
1.125
309
GRIDFORMAT_END
 95
       16
302
GRIDFORMAT
  1
GRIDFORMAT_BEGIN
 90
        0
 91
        1
 62
     0
 92
       -2
340
0
 93
        0
 40
1.125
309
GRIDFORMAT_END
 95
       32
302
GRIDFORMAT
  1
GRIDFORMAT_BEGIN
 90
        0
 91
        1
 62
     0
 92
       -2
340
0
 93
        0
 40
1.125
309
GRIDFORMAT_END
309
TABLEFORMAT_END
  1
CELLSTYLE_BEGIN
 90
        3
 91
        2
300
_DATA
309
CELLSTYLE_END
  0
ENDSEC
  0
SECTION
  2
ACDSDATA
 70
     2
 71
     8
  0
ACDSSCHEMA
 90
        0
  1
AcDb_Thumbnail_Schema
  2
AcDbDs::ID
280
    10
 91
        8
  2
Thumbnail_Data
280
    15
 91
        0
101
ACDSRECORD
 95
        0
 90
        1
  2
AcDbDs::TreatedAsObjectData
280
     1
291
     1
101
ACDSRECORD
 95
        0
 90
        2
  2
AcDbDs::Legacy
280
     1
291
     1
101
ACDSRECORD
  1
AcDbDs::ID
 90
        3
  2
AcDs:Indexable
280
     1
291
     1
101
ACDSRECORD
  1
AcDbDs::ID
 90
        4
  2
AcDbDs::HandleAttribute
280
     7
282
     1
  0
ACDSSCHEMA
 90
        1
  1
AcDbDs::TreatedAsObjectDataSchema
  2
AcDbDs::TreatedAsObjectData
280
     1
 91
        0
  0
ACDSSCHEMA
 90
        2
  1
AcDbDs::LegacySchema
  2
AcDbDs::Legacy
280
     1
 91
        0
  0
ACDSSCHEMA
 90
        3
  1
AcDbDs::IndexedPropertySchema
  2
AcDs:Indexable
280
     1
 91
        0
  0
ACDSSCHEMA
 90
        4
  1
AcDbDs::HandleAttributeSchema
  2
AcDbDs::HandleAttribute
280
     7
 91
        1
284
     1
  0
ACDSRECORD
 90
        0
  2
AcDbDs::ID
280
    10
320
DDEC
  2
Thumbnail_Data
280
    15
 94
     1048
310
89504E470D0A1A0A0000000D4948445200000100000000670803000000D82A6C0200000300504C5445000000FFFFFF0000000000000000000000000000000000000000000000000000000000330000660000990000CC0000FF0033000033330033660033990033CC0033FF0066000066330066660066990066CC0066FF0099
310
000099330099660099990099CC0099FF00CC0000CC3300CC6600CC9900CCCC00CCFF00FF0000FF3300FF6600FF9900FFCC00FFFF3300003300333300663300993300CC3300FF3333003333333333663333993333CC3333FF3366003366333366663366993366CC3366FF3399003399333399663399993399CC3399FF33CC00
310
33CC3333CC6633CC9933CCCC33CCFF33FF0033FF3333FF6633FF9933FFCC33FFFF6600006600336600666600996600CC6600FF6633006633336633666633996633CC6633FF6666006666336666666666996666CC6666FF6699006699336699666699996699CC6699FF66CC0066CC3366CC6666CC9966CCCC66CCFF66FF0066
310
FF3366FF6666FF9966FFCC66FFFF9900009900339900669900999900CC9900FF9933009933339933669933999933CC9933FF9966009966339966669966999966CC9966FF9999009999339999669999999999CC9999FF99CC0099CC3399CC6699CC9999CCCC99CCFF99FF0099FF3399FF6699FF9999FFCC99FFFFCC0000CC00
310
33CC0066CC0099CC00CCCC00FFCC3300CC3333CC3366CC3399CC33CCCC33FFCC6600CC6633CC6666CC6699CC66CCCC66FFCC9900CC9933CC9966CC9999CC99CCCC99FFCCCC00CCCC33CCCC66CCCC99CCCCCCCCCCFFCCFF00CCFF33CCFF66CCFF99CCFFCCCCFFFFFF0000FF0033FF0066FF0099FF00CCFF00FFFF3300FF3333
310
FF3366FF3399FF33CCFF33FFFF6600FF6633FF6666FF6699FF66CCFF66FFFF9900FF9933FF9966FF9999FF99CCFF99FFFFCC00FFCC33FFCC66FFCC99FFCCCCFFCCFFFFFF00FFFF33FFFF66FFFF99FFFFCCFFFFFF0000000D0D0D1A1A1A2828283535354343435050505D5D5D6B6B6B787878868686939393A1A1A1AEAEAEBB
310
BBBBC9C9C9D6D6D6E4E4E4F1F1F1FFFFFF0000000000000000000000000000000000000000000000000000000000003AE5ACE9000000D34944415478DAEDDB410E82301445D12EE7EF7F851A31869AD6012148FACE19190C032EBFA492D81A0000000000009CAC0E5A27C0A5A70970CB00CF79AEDA1643E8041C58D9968000
310
02082080000B05F8B5D31D1D5C2FC0EE92AABFBE61970503CC26BC86C773024CBE8809F0BD3BAE12202D40FFEC4F9C804F82D7E765034CF601B3776176820208208000020890F13E202340FF0B3836C076EB7303BC87DF0434CF000104C8DB07EC8E557A004B4000016C846C854D80F70149012E3A4D0001041040809B0548
310
FFC7080000000000007FF5000AE846C9CE0A93BE0000000049454E44AE426082
  0
ENDSEC
  0
EOF
