  0
SECTION
  2
HEADER
  9
$ACADVER
  1
AC1009
  9
$INSBASE
 10
0.0
 20
0.0
 30
0.0
  9
$EXTMIN
 10
35.476183621925429
 20
50.695729814091798
 30
0.0
  9
$EXTMAX
 10
1092.8342367051989
 20
71.602181399539973
 30
0.0
  9
$LIMMIN
 10
0.0
 20
0.0
  9
$LIMMAX
 10
420.0
 20
297.0
  9
$ORTHOMODE
 70
     0
  9
$REGENMODE
 70
     1
  9
$FILLMODE
 70
     1
  9
$QTEXTMODE
 70
     0
  9
$MIRRTEXT
 70
     1
  9
$DRAGMODE
 70
     2
  9
$LTSCALE
 40
1.0
  9
$OSMODE
 70
    37
  9
$ATTMODE
 70
     1
  9
$TEXTSIZE
 40
2.5
  9
$TRACEWID
 40
1.0
  9
$TEXTSTYLE
  7
STANDARD
  9
$CLAYER
  8
0
  9
$CELTYPE
  6
BYLAYER
  9
$CECOLOR
 62
   256
  9
$DIMSCALE
 40
1.0
  9
$DIMASZ
 40
2.5
  9
$DIMEXO
 40
0.625
  9
$DIMDLI
 40
3.75
  9
$DIMRND
 40
0.0
  9
$DIMDLE
 40
0.0
  9
$DIMEXE
 40
1.25
  9
$DIMTP
 40
0.0
  9
$DIMTM
 40
0.0
  9
$DIMTXT
 40
2.5
  9
$DIMCEN
 40
2.5
  9
$DIMTSZ
 40
0.0
  9
$DIMTOL
 70
     0
  9
$DIMLIM
 70
     0
  9
$DIMTIH
 70
     0
  9
$DIMTOH
 70
     0
  9
$DIMSE1
 70
     0
  9
$DIMSE2
 70
     0
  9
$DIMTAD
 70
     1
  9
$DIMZIN
 70
     8
  9
$DIMBLK
  1

  9
$DIMASO
 70
     1
  9
$DIMSHO
 70
     1
  9
$DIMPOST
  1

  9
$DIMAPOST
  1

  9
$DIMALT
 70
     0
  9
$DIMALTD
 70
     3
  9
$DIMALTF
 40
0.03937007874016
  9
$DIMLFAC
 40
1.0
  9
$DIMTOFL
 70
     1
  9
$DIMTVP
 40
0.0
  9
$DIMTIX
 70
     0
  9
$DIMSOXD
 70
     0
  9
$DIMSAH
 70
     0
  9
$DIMBLK1
  1

  9
$DIMBLK2
  1

  9
$DIMSTYLE
  2
ISO-25
  9
$DIMCLRD
 70
     0
  9
$DIMCLRE
 70
     0
  9
$DIMCLRT
 70
     0
  9
$DIMTFAC
 40
1.0
  9
$DIMGAP
 40
0.625
  9
$LUNITS
 70
     2
  9
$LUPREC
 70
     4
  9
$SKETCHINC
 40
1.0
  9
$FILLETRAD
 40
10.0
  9
$AUNITS
 70
     0
  9
$AUPREC
 70
     0
  9
$MENU
  1
.
  9
$ELEVATION
 40
0.0
  9
$PELEVATION
 40
0.0
  9
$THICKNESS
 40
0.0
  9
$LIMCHECK
 70
     0
  9
$BLIPMODE
 70
     0
  9
$CHAMFERA
 40
10.0
  9
$CHAMFERB
 40
10.0
  9
$SKPOLY
 70
     0
  9
$TDCREATE
 40
2452347.4429894099
  9
$TDUPDATE
 40
2452347.4431886571
  9
$TDINDWG
 40
0.0001998264
  9
$TDUSRTIMER
 40
0.0001998264
  9
$USRTIMER
 70
     1
  9
$ANGBASE
 50
0.0
  9
$ANGDIR
 70
     0
  9
$PDMODE
 70
     0
  9
$PDSIZE
 40
0.0
  9
$PLINEWID
 40
0.0
  9
$COORDS
 70
     1
  9
$SPLFRAME
 70
     0
  9
$SPLINETYPE
 70
     6
  9
$SPLINESEGS
 70
     8
  9
$ATTDIA
 70
     0
  9
$ATTREQ
 70
     1
  9
$HANDLING
 70
-16383
  9
$HANDSEED
  5
1310
  9
$SURFTAB1
 70
     6
  9
$SURFTAB2
 70
     6
  9
$SURFTYPE
 70
     6
  9
$SURFU
 70
     6
  9
$SURFV
 70
     6
  9
$UCSNAME
  2

  9
$UCSORG
 10
0.0
 20
0.0
 30
0.0
  9
$UCSXDIR
 10
1.0
 20
0.0
 30
0.0
  9
$UCSYDIR
 10
0.0
 20
1.0
 30
0.0
  9
$PUCSNAME
  2

  9
$PUCSORG
 10
0.0
 20
0.0
 30
0.0
  9
$PUCSXDIR
 10
1.0
 20
0.0
 30
0.0
  9
$PUCSYDIR
 10
0.0
 20
1.0
 30
0.0
  9
$USERI1
 70
     0
  9
$USERI2
 70
     0
  9
$USERI3
 70
     0
  9
$USERI4
 70
     0
  9
$USERI5
 70
     0
  9
$USERR1
 40
0.0
  9
$USERR2
 40
0.0
  9
$USERR3
 40
0.0
  9
$USERR4
 40
0.0
  9
$USERR5
 40
0.0
  9
$WORLDVIEW
 70
     1
  9
$SHADEDGE
 70
     3
  9
$SHADEDIF
 70
    70
  9
$TILEMODE
 70
     1
  9
$MAXACTVP
 70
    64
  9
$PLIMCHECK
 70
     0
  9
$PEXTMIN
 10
1.0000000000000000E+020
 20
1.0000000000000000E+020
 30
1.0000000000000000E+020
  9
$PEXTMAX
 10
-1.0000000000000000E+020
 20
-1.0000000000000000E+020
 30
-1.0000000000000000E+020
  9
$PLIMMIN
 10
0.0
 20
0.0
  9
$PLIMMAX
 10
420.0
 20
297.0
  9
$UNITMODE
 70
     0
  9
$VISRETAIN
 70
     1
  9
$PLINEGEN
 70
     0
  9
$PSLTSCALE
 70
     1
  0
ENDSEC
  0
SECTION
  2
TABLES
  0
TABLE
  2
VPORT
 70
     3
  0
VPORT
  2
*ACTIVE
 70
     0
 10
0.0
 20
0.0
 11
1.0
 21
1.0
 12
210.0
 22
158.75141884222469
 13
0.0
 23
0.0
 14
10.0
 24
10.0
 15
10.0
 25
10.0
 16
0.0
 26
0.0
 36
1.0
 17
0.0
 27
0.0
 37
0.0
 40
317.50283768444939
 41
1.322822822822822
 42
50.0
 43
0.0
 44
0.0
 50
0.0
 51
0.0
 71
     0
 72
   100
 73
     1
 74
     3
 75
     0
 76
     0
 77
     0
 78
     0
  0
ENDTAB
  0
TABLE
  2
LTYPE
 70
     2
  0
LTYPE
  2
CONTINUOUS
 70
     0
  3
Solid line
 72
    65
 73
     0
 40
0.0
  0
LTYPE
  2
CENTER
 70
     0
  3
____ _ ____ _ ____ _ ____ _ ____ _ ____ _ ____ 
 72
    65
 73
     4
 40
2.0
 49
1.25
 49
-0.25
 49
0.25
 49
-0.25
  0
ENDTAB
  0
TABLE
  2
LAYER
 70
     3
  0
LAYER
  2
0
 70
     0
 62
     7
  6
CONTINUOUS
  0
LAYER
  2
C4
 70
     0
 62
     3
  6
CONTINUOUS
  0
LAYER
  2
CENTER
 70
     0
 62
     1
  6
CENTER
  0
ENDTAB
  0
TABLE
  2
STYLE
 70
     2
  0
STYLE
  2
STANDARD
 70
     0
 40
0.0
 41
1.0
 50
0.0
 71
     0
 42
2.5
  3
txt
  4

  0
STYLE
  2
KANJI
 70
     0
 40
0.0
 41
1.0
 50
0.0
 71
     0
 42
3.5
  3
simplex
  4
bigfont
  0
ENDTAB
  0
TABLE
  2
VIEW
 70
     0
  0
ENDTAB
  0
TABLE
  2
UCS
 70
     0
  0
ENDTAB
  0
TABLE
  2
APPID
 70
     1
  0
APPID
  2
ACAD
 70
     0
  0
ENDTAB
  0
TABLE
  2
DIMSTYLE
 70
     2
  0
DIMSTYLE
  2
ISO-25
 70
     0
  3

  4

  5

  6

  7

 40
1.0
 41
2.5
 42
0.625
 43
3.75
 44
1.25
 45
0.0
 46
0.0
 47
0.0
 48
0.0
140
2.5
141
2.5
142
0.0
143
0.03937007874016
144
1.0
145
0.0
146
1.0
147
0.625
 71
     0
 72
     0
 73
     0
 74
     0
 75
     0
 76
     0
 77
     1
 78
     8
170
     0
171
     3
172
     1
173
     0
174
     0
175
     0
176
     0
177
     0
178
     0
  0
DIMSTYLE
  2
STANDARD
 70
     0
  3

  4

  5

  6
Y2
  7
Y2
 40
1.0
 41
1.0
 42
1.0
 43
6.0
 44
1.0
 45
0.0
 46
0.0
 47
0.0
 48
0.0
140
2.5
141
0.0
142
0.0
143
25.399999999999999
144
1.0
145
0.0
146
1.0
147
0.5
 71
     0
 72
     0
 73
     0
 74
     0
 75
     0
 76
     0
 77
     1
 78
     8
170
     0
171
     2
172
     1
173
     1
174
     0
175
     0
176
     0
177
     0
178
     0
  0
ENDTAB
  0
ENDSEC
  0
SECTION
  2
BLOCKS
  0
BLOCK
  8
0
  2
$MODEL_SPACE
 70
     0
 10
0.0
 20
0.0
 30
0.0
  3
$MODEL_SPACE
  1

  0
ENDBLK
  5
21
  8
0
  0
BLOCK
 67
     1
  8
0
  2
$PAPER_SPACE
 70
     0
 10
0.0
 20
0.0
 30
0.0
  3
$PAPER_SPACE
  1

  0
ENDBLK
  5
1D
 67
     1
  8
0
  0
BLOCK
  8
0
  2
Y2
 70
     0
 10
0.0
 20
0.0
 30
0.0
  3
Y2
  1

  0
SOLID
  5
2C
  8
0
  6
BYBLOCK
 62
     0
 10
-1.811110924292108
 20
0.485285709567151
 30
0.0
 11
-1.811110924292108
 21
-0.4852857095673784
 31
0.0
 12
-0.0000000000000568
 22
-0.0000000000000142
 32
0.0
 13
-0.0000000000000568
 23
-0.0000000000000142
 33
0.0
  0
ENDBLK
  5
2E
  8
0
  0
ENDSEC
  0
SECTION
  2
ENTITIES
  0
ARC
  5
9A1
  8
C4
 10
76.881330095683325
 20
68.848955606815906
 30
0.0
 40
0.85
 50
270.0
 51
326.96086318505741
  0
LINE
  5
9A2
  8
C4
 10
77.788563234936078
 20
68.684857980259238
 30
0.0
 11
77.59388369128078
 21
68.385525597643891
 31
0.0
  0
ARC
  5
9A3
  8
C4
 10
79.381330095683325
 20
67.648955606815889
 30
0.0
 40
1.8999999999999999
 50
90.0
 51
146.96086318505871
  0
ARC
  5
9A4
  8
C4
 10
76.881330095683325
 20
53.448955606815872
 30
0.0
 40
0.85
 50
33.039136814942502
 51
90.0
  0
LINE
  5
9A5
  8
C4
 10
77.788563234936078
 20
53.61305323337254
 30
0.0
 11
77.59388369128078
 21
53.912385615987887
 31
0.0
  0
ARC
  5
9A6
  8
C4
 10
79.381330095683325
 20
54.648955606815889
 30
0.0
 40
1.8999999999999999
 50
213.0391368149412
 51
270.0
  0
LINE
  5
9A7
  8
C4
 10
76.881330095683325
 20
67.998955606815912
 30
0.0
 11
76.881330095683325
 21
54.298955606815859
 31
0.0
  0
ARC
  5
9A8
  8
C4
 10
81.881330095683325
 20
68.848955606815906
 30
0.0
 40
0.85
 50
213.03913681494251
 51
270.0
  0
LINE
  5
9A9
  8
C4
 10
80.974096956430557
 20
68.684857980259238
 30
0.0
 11
81.168776500085869
 21
68.385525597643891
 31
0.0
  0
ARC
  5
9AA
  8
C4
 10
79.381330095683325
 20
67.648955606815889
 30
0.0
 40
1.8999999999999999
 50
33.039136814941259
 51
90.0
  0
ARC
  5
9AB
  8
C4
 10
81.881330095683325
 20
53.448955606815872
 30
0.0
 40
0.85
 50
90.0
 51
146.96086318505741
  0
LINE
  5
9AC
  8
C4
 10
80.974096956430557
 20
53.61305323337254
 30
0.0
 11
81.168776500085869
 21
53.912385615987887
 31
0.0
  0
ARC
  5
9AD
  8
C4
 10
79.381330095683325
 20
54.648955606815889
 30
0.0
 40
1.8999999999999999
 50
270.0
 51
326.96086318505871
  0
ARC
  5
9AE
  8
C4
 10
81.881330095683325
 20
68.848955606815906
 30
0.0
 40
0.85
 50
270.0
 51
326.96086318505741
  0
LINE
  5
9AF
  8
C4
 10
82.788563234936078
 20
68.684857980259238
 30
0.0
 11
82.59388369128078
 21
68.385525597643891
 31
0.0
  0
ARC
  5
9B0
  8
C4
 10
84.381330095683325
 20
67.648955606815889
 30
0.0
 40
1.8999999999999999
 50
90.0
 51
146.96086318505871
  0
ARC
  5
9B1
  8
C4
 10
81.881330095683325
 20
53.448955606815872
 30
0.0
 40
0.85
 50
33.039136814942502
 51
90.0
  0
LINE
  5
9B2
  8
C4
 10
82.788563234936078
 20
53.61305323337254
 30
0.0
 11
82.59388369128078
 21
53.912385615987887
 31
0.0
  0
ARC
  5
9B3
  8
C4
 10
84.381330095683325
 20
54.648955606815889
 30
0.0
 40
1.8999999999999999
 50
213.0391368149412
 51
270.0
  0
ARC
  5
9B4
  8
C4
 10
86.881330095683325
 20
68.848955606815906
 30
0.0
 40
0.85
 50
213.03913681494251
 51
270.0
  0
LINE
  5
9B5
  8
C4
 10
85.974096956430557
 20
68.684857980259238
 30
0.0
 11
86.168776500085869
 21
68.385525597643891
 31
0.0
  0
ARC
  5
9B6
  8
C4
 10
84.381330095683325
 20
67.648955606815889
 30
0.0
 40
1.8999999999999999
 50
33.039136814941259
 51
90.0
  0
ARC
  5
9B7
  8
C4
 10
86.881330095683325
 20
53.448955606815872
 30
0.0
 40
0.85
 50
90.0
 51
146.96086318505741
  0
LINE
  5
9B8
  8
C4
 10
85.974096956430557
 20
53.61305323337254
 30
0.0
 11
86.168776500085869
 21
53.912385615987887
 31
0.0
  0
ARC
  5
9B9
  8
C4
 10
84.381330095683325
 20
54.648955606815889
 30
0.0
 40
1.8999999999999999
 50
270.0
 51
326.96086318505871
  0
ARC
  5
9BA
  8
C4
 10
86.881330095683325
 20
68.848955606815906
 30
0.0
 40
0.85
 50
270.0
 51
326.96086318505741
  0
LINE
  5
9BB
  8
C4
 10
87.788563234936078
 20
68.684857980259238
 30
0.0
 11
87.59388369128078
 21
68.385525597643891
 31
0.0
  0
ARC
  5
9BC
  8
C4
 10
89.381330095683325
 20
67.648955606815889
 30
0.0
 40
1.8999999999999999
 50
90.0
 51
146.96086318505871
  0
ARC
  5
9BD
  8
C4
 10
86.881330095683325
 20
53.448955606815872
 30
0.0
 40
0.85
 50
33.039136814942502
 51
90.0
  0
LINE
  5
9BE
  8
C4
 10
87.788563234936078
 20
53.61305323337254
 30
0.0
 11
87.59388369128078
 21
53.912385615987887
 31
0.0
  0
ARC
  5
9BF
  8
C4
 10
89.381330095683325
 20
54.648955606815889
 30
0.0
 40
1.8999999999999999
 50
213.0391368149412
 51
270.0
  0
ARC
  5
9C0
  8
C4
 10
91.881330095683325
 20
68.848955606815906
 30
0.0
 40
0.85
 50
213.03913681494251
 51
270.0
  0
LINE
  5
9C1
  8
C4
 10
90.974096956430557
 20
68.684857980259238
 30
0.0
 11
91.168776500085869
 21
68.385525597643891
 31
0.0
  0
ARC
  5
9C2
  8
C4
 10
89.381330095683325
 20
67.648955606815889
 30
0.0
 40
1.8999999999999999
 50
33.039136814941259
 51
90.0
  0
ARC
  5
9C3
  8
C4
 10
91.881330095683325
 20
53.448955606815872
 30
0.0
 40
0.85
 50
90.0
 51
146.96086318505741
  0
LINE
  5
9C4
  8
C4
 10
90.974096956430557
 20
53.61305323337254
 30
0.0
 11
91.168776500085869
 21
53.912385615987887
 31
0.0
  0
ARC
  5
9C5
  8
C4
 10
89.381330095683325
 20
54.648955606815889
 30
0.0
 40
1.8999999999999999
 50
270.0
 51
326.96086318505871
  0
ARC
  5
9C6
  8
C4
 10
91.881330095683325
 20
68.848955606815906
 30
0.0
 40
0.85
 50
270.0
 51
326.96086318505741
  0
LINE
  5
9C7
  8
C4
 10
92.788563234936078
 20
68.684857980259238
 30
0.0
 11
92.59388369128078
 21
68.385525597643891
 31
0.0
  0
ARC
  5
9C8
  8
C4
 10
94.381330095683325
 20
67.648955606815889
 30
0.0
 40
1.8999999999999999
 50
90.0
 51
146.96086318505871
  0
ARC
  5
9C9
  8
C4
 10
91.881330095683325
 20
53.448955606815872
 30
0.0
 40
0.85
 50
33.039136814942502
 51
90.0
  0
LINE
  5
9CA
  8
C4
 10
92.788563234936078
 20
53.61305323337254
 30
0.0
 11
92.59388369128078
 21
53.912385615987887
 31
0.0
  0
ARC
  5
9CB
  8
C4
 10
94.381330095683325
 20
54.648955606815889
 30
0.0
 40
1.8999999999999999
 50
213.0391368149412
 51
270.0
  0
ARC
  5
9CC
  8
C4
 10
96.881330095683325
 20
68.848955606815906
 30
0.0
 40
0.85
 50
213.03913681494251
 51
270.0
  0
LINE
  5
9CD
  8
C4
 10
95.974096956430557
 20
68.684857980259238
 30
0.0
 11
96.168776500085869
 21
68.385525597643891
 31
0.0
  0
ARC
  5
9CE
  8
C4
 10
94.381330095683325
 20
67.648955606815889
 30
0.0
 40
1.8999999999999999
 50
33.039136814941259
 51
90.0
  0
ARC
  5
9CF
  8
C4
 10
96.881330095683325
 20
53.448955606815872
 30
0.0
 40
0.85
 50
90.0
 51
146.96086318505741
  0
LINE
  5
9D0
  8
C4
 10
95.974096956430557
 20
53.61305323337254
 30
0.0
 11
96.168776500085869
 21
53.912385615987887
 31
0.0
  0
ARC
  5
9D1
  8
C4
 10
94.381330095683325
 20
54.648955606815889
 30
0.0
 40
1.8999999999999999
 50
270.0
 51
326.96086318505871
  0
ARC
  5
9D2
  8
C4
 10
96.881330095683325
 20
68.848955606815906
 30
0.0
 40
0.85
 50
270.0
 51
326.96086318505741
  0
LINE
  5
9D3
  8
C4
 10
97.788563234936078
 20
68.684857980259238
 30
0.0
 11
97.59388369128078
 21
68.385525597643891
 31
0.0
  0
ARC
  5
9D4
  8
C4
 10
99.381330095683325
 20
67.648955606815889
 30
0.0
 40
1.8999999999999999
 50
90.0
 51
146.96086318505871
  0
ARC
  5
9D5
  8
C4
 10
96.881330095683325
 20
53.448955606815872
 30
0.0
 40
0.85
 50
33.039136814942502
 51
90.0
  0
LINE
  5
9D6
  8
C4
 10
97.788563234936078
 20
53.61305323337254
 30
0.0
 11
97.59388369128078
 21
53.912385615987887
 31
0.0
  0
ARC
  5
9D7
  8
C4
 10
99.381330095683325
 20
54.648955606815889
 30
0.0
 40
1.8999999999999999
 50
213.0391368149412
 51
270.0
  0
ARC
  5
9D8
  8
C4
 10
101.8813300956833
 20
68.848955606815906
 30
0.0
 40
0.85
 50
213.03913681494251
 51
270.0
  0
LINE
  5
9D9
  8
C4
 10
100.9740969564305
 20
68.684857980259238
 30
0.0
 11
101.1687765000858
 21
68.385525597643891
 31
0.0
  0
ARC
  5
9DA
  8
C4
 10
99.381330095683325
 20
67.648955606815889
 30
0.0
 40
1.8999999999999999
 50
33.039136814941259
 51
90.0
  0
ARC
  5
9DB
  8
C4
 10
101.8813300956833
 20
53.448955606815872
 30
0.0
 40
0.85
 50
90.0
 51
146.96086318505741
  0
LINE
  5
9DC
  8
C4
 10
100.9740969564305
 20
53.61305323337254
 30
0.0
 11
101.1687765000858
 21
53.912385615987887
 31
0.0
  0
ARC
  5
9DD
  8
C4
 10
99.381330095683325
 20
54.648955606815889
 30
0.0
 40
1.8999999999999999
 50
270.0
 51
326.96086318505871
  0
ARC
  5
9DE
  8
C4
 10
101.8813300956833
 20
68.848955606815906
 30
0.0
 40
0.85
 50
270.0
 51
326.96086318505741
  0
LINE
  5
9DF
  8
C4
 10
102.78856323493601
 20
68.684857980259238
 30
0.0
 11
102.59388369128069
 21
68.385525597643891
 31
0.0
  0
ARC
  5
9E0
  8
C4
 10
104.3813300956833
 20
67.648955606815889
 30
0.0
 40
1.8999999999999999
 50
90.0
 51
146.96086318505871
  0
ARC
  5
9E1
  8
C4
 10
101.8813300956833
 20
53.448955606815872
 30
0.0
 40
0.85
 50
33.039136814942502
 51
90.0
  0
LINE
  5
9E2
  8
C4
 10
102.78856323493601
 20
53.61305323337254
 30
0.0
 11
102.59388369128069
 21
53.912385615987887
 31
0.0
  0
ARC
  5
9E3
  8
C4
 10
104.3813300956833
 20
54.648955606815889
 30
0.0
 40
1.8999999999999999
 50
213.0391368149412
 51
270.0
  0
ARC
  5
9E4
  8
C4
 10
106.8813300956833
 20
68.848955606815906
 30
0.0
 40
0.85
 50
213.03913681494251
 51
270.0
  0
LINE
  5
9E5
  8
C4
 10
105.9740969564305
 20
68.684857980259238
 30
0.0
 11
106.1687765000858
 21
68.385525597643891
 31
0.0
  0
ARC
  5
9E6
  8
C4
 10
104.3813300956833
 20
67.648955606815889
 30
0.0
 40
1.8999999999999999
 50
33.039136814941259
 51
90.0
  0
ARC
  5
9E7
  8
C4
 10
106.8813300956833
 20
53.448955606815872
 30
0.0
 40
0.85
 50
90.0
 51
146.96086318505741
  0
LINE
  5
9E8
  8
C4
 10
105.9740969564305
 20
53.61305323337254
 30
0.0
 11
106.1687765000858
 21
53.912385615987887
 31
0.0
  0
ARC
  5
9E9
  8
C4
 10
104.3813300956833
 20
54.648955606815889
 30
0.0
 40
1.8999999999999999
 50
270.0
 51
326.96086318505871
  0
ARC
  5
9EA
  8
C4
 10
106.8813300956833
 20
68.848955606815906
 30
0.0
 40
0.85
 50
270.0
 51
326.96086318505741
  0
LINE
  5
9EB
  8
C4
 10
107.78856323493601
 20
68.684857980259238
 30
0.0
 11
107.59388369128069
 21
68.385525597643891
 31
0.0
  0
ARC
  5
9EC
  8
C4
 10
109.3813300956833
 20
67.648955606815889
 30
0.0
 40
1.8999999999999999
 50
90.0
 51
146.96086318505871
  0
ARC
  5
9ED
  8
C4
 10
106.8813300956833
 20
53.448955606815872
 30
0.0
 40
0.85
 50
33.039136814942502
 51
90.0
  0
LINE
  5
9EE
  8
C4
 10
107.78856323493601
 20
53.61305323337254
 30
0.0
 11
107.59388369128069
 21
53.912385615987887
 31
0.0
  0
ARC
  5
9EF
  8
C4
 10
109.3813300956833
 20
54.648955606815889
 30
0.0
 40
1.8999999999999999
 50
213.0391368149412
 51
270.0
  0
ARC
  5
9F0
  8
C4
 10
111.8813300956833
 20
68.848955606815906
 30
0.0
 40
0.85
 50
213.03913681494251
 51
270.0
  0
LINE
  5
9F1
  8
C4
 10
110.9740969564305
 20
68.684857980259238
 30
0.0
 11
111.1687765000858
 21
68.385525597643891
 31
0.0
  0
ARC
  5
9F2
  8
C4
 10
109.3813300956833
 20
67.648955606815889
 30
0.0
 40
1.8999999999999999
 50
33.039136814941259
 51
90.0
  0
ARC
  5
9F3
  8
C4
 10
111.8813300956833
 20
53.448955606815872
 30
0.0
 40
0.85
 50
90.0
 51
146.96086318505741
  0
LINE
  5
9F4
  8
C4
 10
110.9740969564305
 20
53.61305323337254
 30
0.0
 11
111.1687765000858
 21
53.912385615987887
 31
0.0
  0
ARC
  5
9F5
  8
C4
 10
109.3813300956833
 20
54.648955606815889
 30
0.0
 40
1.8999999999999999
 50
270.0
 51
326.96086318505871
  0
ARC
  5
9F6
  8
C4
 10
111.8813300956833
 20
68.848955606815906
 30
0.0
 40
0.85
 50
270.0
 51
326.96086318505741
  0
LINE
  5
9F7
  8
C4
 10
112.78856323493601
 20
68.684857980259238
 30
0.0
 11
112.59388369128069
 21
68.385525597643891
 31
0.0
  0
ARC
  5
9F8
  8
C4
 10
114.3813300956833
 20
67.648955606815889
 30
0.0
 40
1.8999999999999999
 50
90.0
 51
146.96086318505871
  0
ARC
  5
9F9
  8
C4
 10
111.8813300956833
 20
53.448955606815872
 30
0.0
 40
0.85
 50
33.039136814942502
 51
90.0
  0
LINE
  5
9FA
  8
C4
 10
112.78856323493601
 20
53.61305323337254
 30
0.0
 11
112.59388369128069
 21
53.912385615987887
 31
0.0
  0
ARC
  5
9FB
  8
C4
 10
114.3813300956833
 20
54.648955606815889
 30
0.0
 40
1.8999999999999999
 50
213.0391368149412
 51
270.0
  0
ARC
  5
9FC
  8
C4
 10
116.8813300956833
 20
68.848955606815906
 30
0.0
 40
0.85
 50
213.03913681494251
 51
270.0
  0
LINE
  5
9FD
  8
C4
 10
115.9740969564305
 20
68.684857980259238
 30
0.0
 11
116.1687765000858
 21
68.385525597643891
 31
0.0
  0
ARC
  5
9FE
  8
C4
 10
114.3813300956833
 20
67.648955606815889
 30
0.0
 40
1.8999999999999999
 50
33.039136814941259
 51
90.0
  0
ARC
  5
9FF
  8
C4
 10
116.8813300956833
 20
53.448955606815872
 30
0.0
 40
0.85
 50
90.0
 51
146.96086318505741
  0
LINE
  5
A00
  8
C4
 10
115.9740969564305
 20
53.61305323337254
 30
0.0
 11
116.1687765000858
 21
53.912385615987887
 31
0.0
  0
ARC
  5
A01
  8
C4
 10
114.3813300956833
 20
54.648955606815889
 30
0.0
 40
1.8999999999999999
 50
270.0
 51
326.96086318505871
  0
ARC
  5
A02
  8
C4
 10
116.8813300956833
 20
68.848955606815906
 30
0.0
 40
0.85
 50
270.0
 51
326.96086318505741
  0
LINE
  5
A03
  8
C4
 10
117.78856323493601
 20
68.684857980259238
 30
0.0
 11
117.59388369128069
 21
68.385525597643891
 31
0.0
  0
ARC
  5
A04
  8
C4
 10
119.3813300956833
 20
67.648955606815889
 30
0.0
 40
1.8999999999999999
 50
90.0
 51
146.96086318505871
  0
ARC
  5
A05
  8
C4
 10
116.8813300956833
 20
53.448955606815872
 30
0.0
 40
0.85
 50
33.039136814942502
 51
90.0
  0
LINE
  5
A06
  8
C4
 10
117.78856323493601
 20
53.61305323337254
 30
0.0
 11
117.59388369128069
 21
53.912385615987887
 31
0.0
  0
ARC
  5
A07
  8
C4
 10
119.3813300956833
 20
54.648955606815889
 30
0.0
 40
1.8999999999999999
 50
213.0391368149412
 51
270.0
  0
ARC
  5
A08
  8
C4
 10
121.8813300956833
 20
68.848955606815906
 30
0.0
 40
0.85
 50
213.03913681494251
 51
270.0
  0
LINE
  5
A09
  8
C4
 10
120.9740969564305
 20
68.684857980259238
 30
0.0
 11
121.1687765000858
 21
68.385525597643891
 31
0.0
  0
ARC
  5
A0A
  8
C4
 10
119.3813300956833
 20
67.648955606815889
 30
0.0
 40
1.8999999999999999
 50
33.039136814941259
 51
90.0
  0
ARC
  5
A0B
  8
C4
 10
121.8813300956833
 20
53.448955606815872
 30
0.0
 40
0.85
 50
90.0
 51
146.96086318505741
  0
LINE
  5
A0C
  8
C4
 10
120.9740969564305
 20
53.61305323337254
 30
0.0
 11
121.1687765000858
 21
53.912385615987887
 31
0.0
  0
ARC
  5
A0D
  8
C4
 10
119.3813300956833
 20
54.648955606815889
 30
0.0
 40
1.8999999999999999
 50
270.0
 51
326.96086318505871
  0
ARC
  5
A0E
  8
C4
 10
121.8813300956833
 20
68.848955606815906
 30
0.0
 40
0.85
 50
270.0
 51
326.96086318505741
  0
LINE
  5
A0F
  8
C4
 10
122.78856323493601
 20
68.684857980259238
 30
0.0
 11
122.59388369128069
 21
68.385525597643891
 31
0.0
  0
ARC
  5
A10
  8
C4
 10
124.3813300956833
 20
67.648955606815889
 30
0.0
 40
1.8999999999999999
 50
90.0
 51
146.96086318505871
  0
ARC
  5
A11
  8
C4
 10
121.8813300956833
 20
53.448955606815872
 30
0.0
 40
0.85
 50
33.039136814942502
 51
90.0
  0
LINE
  5
A12
  8
C4
 10
122.78856323493601
 20
53.61305323337254
 30
0.0
 11
122.59388369128069
 21
53.912385615987887
 31
0.0
  0
ARC
  5
A13
  8
C4
 10
124.3813300956833
 20
54.648955606815889
 30
0.0
 40
1.8999999999999999
 50
213.0391368149412
 51
270.0
  0
ARC
  5
A14
  8
C4
 10
126.8813300956833
 20
68.848955606815906
 30
0.0
 40
0.85
 50
213.03913681494251
 51
270.0
  0
LINE
  5
A15
  8
C4
 10
125.9740969564305
 20
68.684857980259238
 30
0.0
 11
126.1687765000858
 21
68.385525597643891
 31
0.0
  0
ARC
  5
A16
  8
C4
 10
124.3813300956833
 20
67.648955606815889
 30
0.0
 40
1.8999999999999999
 50
33.039136814941259
 51
90.0
  0
ARC
  5
A17
  8
C4
 10
126.8813300956833
 20
53.448955606815872
 30
0.0
 40
0.85
 50
90.0
 51
146.96086318505741
  0
LINE
  5
A18
  8
C4
 10
125.9740969564305
 20
53.61305323337254
 30
0.0
 11
126.1687765000858
 21
53.912385615987887
 31
0.0
  0
ARC
  5
A19
  8
C4
 10
124.3813300956833
 20
54.648955606815889
 30
0.0
 40
1.8999999999999999
 50
270.0
 51
326.96086318505871
  0
ARC
  5
A1A
  8
C4
 10
126.8813300956833
 20
68.848955606815906
 30
0.0
 40
0.85
 50
270.0
 51
326.96086318505741
  0
LINE
  5
A1B
  8
C4
 10
127.78856323493601
 20
68.684857980259238
 30
0.0
 11
127.59388369128069
 21
68.385525597643891
 31
0.0
  0
ARC
  5
A1C
  8
C4
 10
129.3813300956833
 20
67.648955606815889
 30
0.0
 40
1.8999999999999999
 50
90.0
 51
146.96086318505871
  0
ARC
  5
A1D
  8
C4
 10
126.8813300956833
 20
53.448955606815872
 30
0.0
 40
0.85
 50
33.039136814942502
 51
90.0
  0
LINE
  5
A1E
  8
C4
 10
127.78856323493601
 20
53.61305323337254
 30
0.0
 11
127.59388369128069
 21
53.912385615987887
 31
0.0
  0
ARC
  5
A1F
  8
C4
 10
129.3813300956833
 20
54.648955606815889
 30
0.0
 40
1.8999999999999999
 50
213.0391368149412
 51
270.0
  0
ARC
  5
A20
  8
C4
 10
131.8813300956833
 20
68.848955606815906
 30
0.0
 40
0.85
 50
213.03913681494251
 51
270.0
  0
LINE
  5
A21
  8
C4
 10
130.97409695643049
 20
68.684857980259238
 30
0.0
 11
131.16877650008581
 21
68.385525597643891
 31
0.0
  0
ARC
  5
A22
  8
C4
 10
129.3813300956833
 20
67.648955606815889
 30
0.0
 40
1.8999999999999999
 50
33.039136814941259
 51
90.0
  0
ARC
  5
A23
  8
C4
 10
131.8813300956833
 20
53.448955606815872
 30
0.0
 40
0.85
 50
90.0
 51
146.96086318505741
  0
LINE
  5
A24
  8
C4
 10
130.97409695643049
 20
53.61305323337254
 30
0.0
 11
131.16877650008581
 21
53.912385615987887
 31
0.0
  0
ARC
  5
A25
  8
C4
 10
129.3813300956833
 20
54.648955606815889
 30
0.0
 40
1.8999999999999999
 50
270.0
 51
326.96086318505871
  0
ARC
  5
A26
  8
C4
 10
131.8813300956833
 20
68.848955606815906
 30
0.0
 40
0.85
 50
270.0
 51
326.96086318505741
  0
LINE
  5
A27
  8
C4
 10
132.78856323493599
 20
68.684857980259238
 30
0.0
 11
132.59388369128069
 21
68.385525597643891
 31
0.0
  0
ARC
  5
A28
  8
C4
 10
134.3813300956833
 20
67.648955606815889
 30
0.0
 40
1.8999999999999999
 50
90.0
 51
146.96086318505871
  0
ARC
  5
A29
  8
C4
 10
131.8813300956833
 20
53.448955606815872
 30
0.0
 40
0.85
 50
33.039136814942502
 51
90.0
  0
LINE
  5
A2A
  8
C4
 10
132.78856323493599
 20
53.61305323337254
 30
0.0
 11
132.59388369128069
 21
53.912385615987887
 31
0.0
  0
ARC
  5
A2B
  8
C4
 10
134.3813300956833
 20
54.648955606815889
 30
0.0
 40
1.8999999999999999
 50
213.0391368149412
 51
270.0
  0
ARC
  5
A2C
  8
C4
 10
136.8813300956833
 20
68.848955606815906
 30
0.0
 40
0.85
 50
213.03913681494251
 51
270.0
  0
LINE
  5
A2D
  8
C4
 10
135.97409695643049
 20
68.684857980259238
 30
0.0
 11
136.16877650008581
 21
68.385525597643891
 31
0.0
  0
ARC
  5
A2E
  8
C4
 10
134.3813300956833
 20
67.648955606815889
 30
0.0
 40
1.8999999999999999
 50
33.039136814941259
 51
90.0
  0
ARC
  5
A2F
  8
C4
 10
136.8813300956833
 20
53.448955606815872
 30
0.0
 40
0.85
 50
90.0
 51
146.96086318505741
  0
LINE
  5
A30
  8
C4
 10
135.97409695643049
 20
53.61305323337254
 30
0.0
 11
136.16877650008581
 21
53.912385615987887
 31
0.0
  0
ARC
  5
A31
  8
C4
 10
134.3813300956833
 20
54.648955606815889
 30
0.0
 40
1.8999999999999999
 50
270.0
 51
326.96086318505871
  0
ARC
  5
A32
  8
C4
 10
136.8813300956833
 20
68.848955606815906
 30
0.0
 40
0.85
 50
270.0
 51
326.96086318505741
  0
LINE
  5
A33
  8
C4
 10
137.78856323493599
 20
68.684857980259238
 30
0.0
 11
137.59388369128069
 21
68.385525597643891
 31
0.0
  0
ARC
  5
A34
  8
C4
 10
139.3813300956833
 20
67.648955606815889
 30
0.0
 40
1.8999999999999999
 50
90.0
 51
146.96086318505871
  0
ARC
  5
A35
  8
C4
 10
136.8813300956833
 20
53.448955606815872
 30
0.0
 40
0.85
 50
33.039136814942502
 51
90.0
  0
LINE
  5
A36
  8
C4
 10
137.78856323493599
 20
53.61305323337254
 30
0.0
 11
137.59388369128069
 21
53.912385615987887
 31
0.0
  0
ARC
  5
A37
  8
C4
 10
139.3813300956833
 20
54.648955606815889
 30
0.0
 40
1.8999999999999999
 50
213.0391368149412
 51
270.0
  0
ARC
  5
A38
  8
C4
 10
141.8813300956833
 20
68.848955606815906
 30
0.0
 40
0.85
 50
213.03913681494251
 51
270.0
  0
LINE
  5
A39
  8
C4
 10
140.97409695643049
 20
68.684857980259238
 30
0.0
 11
141.16877650008581
 21
68.385525597643891
 31
0.0
  0
ARC
  5
A3A
  8
C4
 10
139.3813300956833
 20
67.648955606815889
 30
0.0
 40
1.8999999999999999
 50
33.039136814941259
 51
90.0
  0
ARC
  5
A3B
  8
C4
 10
141.8813300956833
 20
53.448955606815872
 30
0.0
 40
0.85
 50
90.0
 51
146.96086318505741
  0
LINE
  5
A3C
  8
C4
 10
140.97409695643049
 20
53.61305323337254
 30
0.0
 11
141.16877650008581
 21
53.912385615987887
 31
0.0
  0
ARC
  5
A3D
  8
C4
 10
139.3813300956833
 20
54.648955606815889
 30
0.0
 40
1.8999999999999999
 50
270.0
 51
326.96086318505871
  0
ARC
  5
A3E
  8
C4
 10
141.8813300956833
 20
68.848955606815906
 30
0.0
 40
0.85
 50
270.0
 51
326.96086318505741
  0
LINE
  5
A3F
  8
C4
 10
142.78856323493599
 20
68.684857980259238
 30
0.0
 11
142.59388369128069
 21
68.385525597643891
 31
0.0
  0
ARC
  5
A40
  8
C4
 10
144.3813300956833
 20
67.648955606815889
 30
0.0
 40
1.8999999999999999
 50
90.0
 51
146.96086318505871
  0
ARC
  5
A41
  8
C4
 10
141.8813300956833
 20
53.448955606815872
 30
0.0
 40
0.85
 50
33.039136814942502
 51
90.0
  0
LINE
  5
A42
  8
C4
 10
142.78856323493599
 20
53.61305323337254
 30
0.0
 11
142.59388369128069
 21
53.912385615987887
 31
0.0
  0
ARC
  5
A43
  8
C4
 10
144.3813300956833
 20
54.648955606815889
 30
0.0
 40
1.8999999999999999
 50
213.0391368149412
 51
270.0
  0
ARC
  5
A44
  8
C4
 10
146.8813300956833
 20
68.848955606815906
 30
0.0
 40
0.85
 50
213.03913681494251
 51
270.0
  0
LINE
  5
A45
  8
C4
 10
145.97409695643049
 20
68.684857980259238
 30
0.0
 11
146.16877650008581
 21
68.385525597643891
 31
0.0
  0
ARC
  5
A46
  8
C4
 10
144.3813300956833
 20
67.648955606815889
 30
0.0
 40
1.8999999999999999
 50
33.039136814941259
 51
90.0
  0
ARC
  5
A47
  8
C4
 10
146.8813300956833
 20
53.448955606815872
 30
0.0
 40
0.85
 50
90.0
 51
146.96086318505741
  0
LINE
  5
A48
  8
C4
 10
145.97409695643049
 20
53.61305323337254
 30
0.0
 11
146.16877650008581
 21
53.912385615987887
 31
0.0
  0
ARC
  5
A49
  8
C4
 10
144.3813300956833
 20
54.648955606815889
 30
0.0
 40
1.8999999999999999
 50
270.0
 51
326.96086318505871
  0
ARC
  5
A4A
  8
C4
 10
146.8813300956833
 20
68.848955606815906
 30
0.0
 40
0.85
 50
270.0
 51
326.96086318505741
  0
LINE
  5
A4B
  8
C4
 10
147.78856323493599
 20
68.684857980259238
 30
0.0
 11
147.59388369128069
 21
68.385525597643891
 31
0.0
  0
ARC
  5
A4C
  8
C4
 10
149.3813300956833
 20
67.648955606815889
 30
0.0
 40
1.8999999999999999
 50
90.0
 51
146.96086318505871
  0
ARC
  5
A4D
  8
C4
 10
146.8813300956833
 20
53.448955606815872
 30
0.0
 40
0.85
 50
33.039136814942502
 51
90.0
  0
LINE
  5
A4E
  8
C4
 10
147.78856323493599
 20
53.61305323337254
 30
0.0
 11
147.59388369128069
 21
53.912385615987887
 31
0.0
  0
ARC
  5
A4F
  8
C4
 10
149.3813300956833
 20
54.648955606815889
 30
0.0
 40
1.8999999999999999
 50
213.0391368149412
 51
270.0
  0
ARC
  5
A50
  8
C4
 10
151.8813300956833
 20
68.848955606815906
 30
0.0
 40
0.85
 50
213.03913681494251
 51
270.0
  0
LINE
  5
A51
  8
C4
 10
150.97409695643049
 20
68.684857980259238
 30
0.0
 11
151.16877650008581
 21
68.385525597643891
 31
0.0
  0
ARC
  5
A52
  8
C4
 10
149.3813300956833
 20
67.648955606815889
 30
0.0
 40
1.8999999999999999
 50
33.039136814941259
 51
90.0
  0
ARC
  5
A53
  8
C4
 10
151.8813300956833
 20
53.448955606815872
 30
0.0
 40
0.85
 50
90.0
 51
146.96086318505741
  0
LINE
  5
A54
  8
C4
 10
150.97409695643049
 20
53.61305323337254
 30
0.0
 11
151.16877650008581
 21
53.912385615987887
 31
0.0
  0
ARC
  5
A55
  8
C4
 10
149.3813300956833
 20
54.648955606815889
 30
0.0
 40
1.8999999999999999
 50
270.0
 51
326.96086318505871
  0
ARC
  5
A56
  8
C4
 10
151.8813300956833
 20
68.848955606815906
 30
0.0
 40
0.85
 50
270.0
 51
326.96086318505741
  0
LINE
  5
A57
  8
C4
 10
152.78856323493599
 20
68.684857980259238
 30
0.0
 11
152.59388369128069
 21
68.385525597643891
 31
0.0
  0
ARC
  5
A58
  8
C4
 10
154.3813300956833
 20
67.648955606815889
 30
0.0
 40
1.8999999999999999
 50
90.0
 51
146.96086318505871
  0
ARC
  5
A59
  8
C4
 10
151.8813300956833
 20
53.448955606815872
 30
0.0
 40
0.85
 50
33.039136814942502
 51
90.0
  0
LINE
  5
A5A
  8
C4
 10
152.78856323493599
 20
53.61305323337254
 30
0.0
 11
152.59388369128069
 21
53.912385615987887
 31
0.0
  0
ARC
  5
A5B
  8
C4
 10
154.3813300956833
 20
54.648955606815889
 30
0.0
 40
1.8999999999999999
 50
213.0391368149412
 51
270.0
  0
ARC
  5
A5C
  8
C4
 10
156.8813300956833
 20
68.848955606815906
 30
0.0
 40
0.85
 50
213.03913681494251
 51
270.0
  0
LINE
  5
A5D
  8
C4
 10
155.97409695643049
 20
68.684857980259238
 30
0.0
 11
156.16877650008581
 21
68.385525597643891
 31
0.0
  0
ARC
  5
A5E
  8
C4
 10
154.3813300956833
 20
67.648955606815889
 30
0.0
 40
1.8999999999999999
 50
33.039136814941259
 51
90.0
  0
ARC
  5
A5F
  8
C4
 10
156.8813300956833
 20
53.448955606815872
 30
0.0
 40
0.85
 50
90.0
 51
146.96086318505741
  0
LINE
  5
A60
  8
C4
 10
155.97409695643049
 20
53.61305323337254
 30
0.0
 11
156.16877650008581
 21
53.912385615987887
 31
0.0
  0
ARC
  5
A61
  8
C4
 10
154.3813300956833
 20
54.648955606815889
 30
0.0
 40
1.8999999999999999
 50
270.0
 51
326.96086318505871
  0
ARC
  5
A62
  8
C4
 10
156.8813300956833
 20
68.848955606815906
 30
0.0
 40
0.85
 50
270.0
 51
326.96086318505741
  0
LINE
  5
A63
  8
C4
 10
157.78856323493599
 20
68.684857980259238
 30
0.0
 11
157.59388369128069
 21
68.385525597643891
 31
0.0
  0
ARC
  5
A64
  8
C4
 10
159.3813300956833
 20
67.648955606815889
 30
0.0
 40
1.8999999999999999
 50
90.0
 51
146.96086318505871
  0
ARC
  5
A65
  8
C4
 10
156.8813300956833
 20
53.448955606815872
 30
0.0
 40
0.85
 50
33.039136814942502
 51
90.0
  0
LINE
  5
A66
  8
C4
 10
157.78856323493599
 20
53.61305323337254
 30
0.0
 11
157.59388369128069
 21
53.912385615987887
 31
0.0
  0
ARC
  5
A67
  8
C4
 10
159.3813300956833
 20
54.648955606815889
 30
0.0
 40
1.8999999999999999
 50
213.0391368149412
 51
270.0
  0
ARC
  5
A68
  8
C4
 10
161.8813300956833
 20
68.848955606815906
 30
0.0
 40
0.85
 50
213.03913681494251
 51
270.0
  0
LINE
  5
A69
  8
C4
 10
160.97409695643049
 20
68.684857980259238
 30
0.0
 11
161.16877650008581
 21
68.385525597643891
 31
0.0
  0
ARC
  5
A6A
  8
C4
 10
159.3813300956833
 20
67.648955606815889
 30
0.0
 40
1.8999999999999999
 50
33.039136814941259
 51
90.0
  0
ARC
  5
A6B
  8
C4
 10
161.8813300956833
 20
53.448955606815872
 30
0.0
 40
0.85
 50
90.0
 51
146.96086318505741
  0
LINE
  5
A6C
  8
C4
 10
160.97409695643049
 20
53.61305323337254
 30
0.0
 11
161.16877650008581
 21
53.912385615987887
 31
0.0
  0
ARC
  5
A6D
  8
C4
 10
159.3813300956833
 20
54.648955606815889
 30
0.0
 40
1.8999999999999999
 50
270.0
 51
326.96086318505871
  0
ARC
  5
A6E
  8
C4
 10
161.8813300956833
 20
68.848955606815906
 30
0.0
 40
0.85
 50
270.0
 51
326.96086318505741
  0
LINE
  5
A6F
  8
C4
 10
162.78856323493599
 20
68.684857980259238
 30
0.0
 11
162.59388369128069
 21
68.385525597643891
 31
0.0
  0
ARC
  5
A70
  8
C4
 10
164.3813300956833
 20
67.648955606815889
 30
0.0
 40
1.8999999999999999
 50
90.0
 51
146.96086318505871
  0
ARC
  5
A71
  8
C4
 10
161.8813300956833
 20
53.448955606815872
 30
0.0
 40
0.85
 50
33.039136814942502
 51
90.0
  0
LINE
  5
A72
  8
C4
 10
162.78856323493599
 20
53.61305323337254
 30
0.0
 11
162.59388369128069
 21
53.912385615987887
 31
0.0
  0
ARC
  5
A73
  8
C4
 10
164.3813300956833
 20
54.648955606815889
 30
0.0
 40
1.8999999999999999
 50
213.0391368149412
 51
270.0
  0
ARC
  5
A74
  8
C4
 10
166.8813300956833
 20
68.848955606815906
 30
0.0
 40
0.85
 50
213.03913681494251
 51
270.0
  0
LINE
  5
A75
  8
C4
 10
165.97409695643049
 20
68.684857980259238
 30
0.0
 11
166.16877650008581
 21
68.385525597643891
 31
0.0
  0
ARC
  5
A76
  8
C4
 10
164.3813300956833
 20
67.648955606815889
 30
0.0
 40
1.8999999999999999
 50
33.039136814941259
 51
90.0
  0
ARC
  5
A77
  8
C4
 10
166.8813300956833
 20
53.448955606815872
 30
0.0
 40
0.85
 50
90.0
 51
146.96086318505741
  0
LINE
  5
A78
  8
C4
 10
165.97409695643049
 20
53.61305323337254
 30
0.0
 11
166.16877650008581
 21
53.912385615987887
 31
0.0
  0
ARC
  5
A79
  8
C4
 10
164.3813300956833
 20
54.648955606815889
 30
0.0
 40
1.8999999999999999
 50
270.0
 51
326.96086318505871
  0
ARC
  5
A7A
  8
C4
 10
166.8813300956833
 20
68.848955606815906
 30
0.0
 40
0.85
 50
270.0
 51
326.96086318505741
  0
LINE
  5
A7B
  8
C4
 10
167.78856323493599
 20
68.684857980259238
 30
0.0
 11
167.59388369128069
 21
68.385525597643891
 31
0.0
  0
ARC
  5
A7C
  8
C4
 10
169.3813300956833
 20
67.648955606815889
 30
0.0
 40
1.8999999999999999
 50
90.0
 51
146.96086318505871
  0
ARC
  5
A7D
  8
C4
 10
166.8813300956833
 20
53.448955606815872
 30
0.0
 40
0.85
 50
33.039136814942502
 51
90.0
  0
LINE
  5
A7E
  8
C4
 10
167.78856323493599
 20
53.61305323337254
 30
0.0
 11
167.59388369128069
 21
53.912385615987887
 31
0.0
  0
ARC
  5
A7F
  8
C4
 10
169.3813300956833
 20
54.648955606815889
 30
0.0
 40
1.8999999999999999
 50
213.0391368149412
 51
270.0
  0
ARC
  5
A80
  8
C4
 10
171.8813300956833
 20
68.848955606815906
 30
0.0
 40
0.85
 50
213.03913681494251
 51
270.0
  0
LINE
  5
A81
  8
C4
 10
170.97409695643049
 20
68.684857980259238
 30
0.0
 11
171.16877650008581
 21
68.385525597643891
 31
0.0
  0
ARC
  5
A82
  8
C4
 10
169.3813300956833
 20
67.648955606815889
 30
0.0
 40
1.8999999999999999
 50
33.039136814941259
 51
90.0
  0
ARC
  5
A83
  8
C4
 10
171.8813300956833
 20
53.448955606815872
 30
0.0
 40
0.85
 50
90.0
 51
146.96086318505741
  0
LINE
  5
A84
  8
C4
 10
170.97409695643049
 20
53.61305323337254
 30
0.0
 11
171.16877650008581
 21
53.912385615987887
 31
0.0
  0
ARC
  5
A85
  8
C4
 10
169.3813300956833
 20
54.648955606815889
 30
0.0
 40
1.8999999999999999
 50
270.0
 51
326.96086318505871
  0
ARC
  5
A86
  8
C4
 10
171.8813300956833
 20
68.848955606815906
 30
0.0
 40
0.85
 50
270.0
 51
326.96086318505741
  0
LINE
  5
A87
  8
C4
 10
172.78856323493599
 20
68.684857980259238
 30
0.0
 11
172.59388369128069
 21
68.385525597643891
 31
0.0
  0
ARC
  5
A88
  8
C4
 10
174.3813300956833
 20
67.648955606815889
 30
0.0
 40
1.8999999999999999
 50
90.0
 51
146.96086318505871
  0
ARC
  5
A89
  8
C4
 10
171.8813300956833
 20
53.448955606815872
 30
0.0
 40
0.85
 50
33.039136814942502
 51
90.0
  0
LINE
  5
A8A
  8
C4
 10
172.78856323493599
 20
53.61305323337254
 30
0.0
 11
172.59388369128069
 21
53.912385615987887
 31
0.0
  0
ARC
  5
A8B
  8
C4
 10
174.3813300956833
 20
54.648955606815889
 30
0.0
 40
1.8999999999999999
 50
213.0391368149412
 51
270.0
  0
ARC
  5
A8C
  8
C4
 10
176.8813300956833
 20
68.848955606815906
 30
0.0
 40
0.85
 50
213.03913681494251
 51
270.0
  0
LINE
  5
A8D
  8
C4
 10
175.97409695643049
 20
68.684857980259238
 30
0.0
 11
176.16877650008581
 21
68.385525597643891
 31
0.0
  0
ARC
  5
A8E
  8
C4
 10
174.3813300956833
 20
67.648955606815889
 30
0.0
 40
1.8999999999999999
 50
33.039136814941259
 51
90.0
  0
ARC
  5
A8F
  8
C4
 10
176.8813300956833
 20
53.448955606815872
 30
0.0
 40
0.85
 50
90.0
 51
146.96086318505741
  0
LINE
  5
A90
  8
C4
 10
175.97409695643049
 20
53.61305323337254
 30
0.0
 11
176.16877650008581
 21
53.912385615987887
 31
0.0
  0
ARC
  5
A91
  8
C4
 10
174.3813300956833
 20
54.648955606815889
 30
0.0
 40
1.8999999999999999
 50
270.0
 51
326.96086318505871
  0
ARC
  5
A92
  8
C4
 10
176.8813300956833
 20
68.848955606815906
 30
0.0
 40
0.85
 50
270.0
 51
326.96086318505741
  0
LINE
  5
A93
  8
C4
 10
177.78856323493599
 20
68.684857980259238
 30
0.0
 11
177.59388369128069
 21
68.385525597643891
 31
0.0
  0
ARC
  5
A94
  8
C4
 10
179.3813300956833
 20
67.648955606815889
 30
0.0
 40
1.8999999999999999
 50
90.0
 51
146.96086318505871
  0
ARC
  5
A95
  8
C4
 10
176.8813300956833
 20
53.448955606815872
 30
0.0
 40
0.85
 50
33.039136814942502
 51
90.0
  0
LINE
  5
A96
  8
C4
 10
177.78856323493599
 20
53.61305323337254
 30
0.0
 11
177.59388369128069
 21
53.912385615987887
 31
0.0
  0
ARC
  5
A97
  8
C4
 10
179.3813300956833
 20
54.648955606815889
 30
0.0
 40
1.8999999999999999
 50
213.0391368149412
 51
270.0
  0
ARC
  5
A98
  8
C4
 10
181.8813300956833
 20
68.848955606815906
 30
0.0
 40
0.85
 50
213.03913681494251
 51
270.0
  0
LINE
  5
A99
  8
C4
 10
180.97409695643049
 20
68.684857980259238
 30
0.0
 11
181.16877650008581
 21
68.385525597643891
 31
0.0
  0
ARC
  5
A9A
  8
C4
 10
179.3813300956833
 20
67.648955606815889
 30
0.0
 40
1.8999999999999999
 50
33.039136814941259
 51
90.0
  0
ARC
  5
A9B
  8
C4
 10
181.8813300956833
 20
53.448955606815872
 30
0.0
 40
0.85
 50
90.0
 51
146.96086318505741
  0
LINE
  5
A9C
  8
C4
 10
180.97409695643049
 20
53.61305323337254
 30
0.0
 11
181.16877650008581
 21
53.912385615987887
 31
0.0
  0
ARC
  5
A9D
  8
C4
 10
179.3813300956833
 20
54.648955606815889
 30
0.0
 40
1.8999999999999999
 50
270.0
 51
326.96086318505871
  0
ARC
  5
A9E
  8
C4
 10
181.8813300956833
 20
68.848955606815906
 30
0.0
 40
0.85
 50
270.0
 51
326.96086318505741
  0
LINE
  5
A9F
  8
C4
 10
182.78856323493599
 20
68.684857980259238
 30
0.0
 11
182.59388369128069
 21
68.385525597643891
 31
0.0
  0
ARC
  5
AA0
  8
C4
 10
184.3813300956833
 20
67.648955606815889
 30
0.0
 40
1.8999999999999999
 50
90.0
 51
146.96086318505871
  0
ARC
  5
AA1
  8
C4
 10
181.8813300956833
 20
53.448955606815872
 30
0.0
 40
0.85
 50
33.039136814942502
 51
90.0
  0
LINE
  5
AA2
  8
C4
 10
182.78856323493599
 20
53.61305323337254
 30
0.0
 11
182.59388369128069
 21
53.912385615987887
 31
0.0
  0
ARC
  5
AA3
  8
C4
 10
184.3813300956833
 20
54.648955606815889
 30
0.0
 40
1.8999999999999999
 50
213.0391368149412
 51
270.0
  0
ARC
  5
AA4
  8
C4
 10
186.8813300956833
 20
68.848955606815906
 30
0.0
 40
0.85
 50
213.03913681494251
 51
270.0
  0
LINE
  5
AA5
  8
C4
 10
185.97409695643049
 20
68.684857980259238
 30
0.0
 11
186.16877650008581
 21
68.385525597643891
 31
0.0
  0
ARC
  5
AA6
  8
C4
 10
184.3813300956833
 20
67.648955606815889
 30
0.0
 40
1.8999999999999999
 50
33.039136814941259
 51
90.0
  0
ARC
  5
AA7
  8
C4
 10
186.8813300956833
 20
53.448955606815872
 30
0.0
 40
0.85
 50
90.0
 51
146.96086318505741
  0
LINE
  5
AA8
  8
C4
 10
185.97409695643049
 20
53.61305323337254
 30
0.0
 11
186.16877650008581
 21
53.912385615987887
 31
0.0
  0
ARC
  5
AA9
  8
C4
 10
184.3813300956833
 20
54.648955606815889
 30
0.0
 40
1.8999999999999999
 50
270.0
 51
326.96086318505871
  0
ARC
  5
AAA
  8
C4
 10
186.8813300956833
 20
68.848955606815906
 30
0.0
 40
0.85
 50
270.0
 51
326.96086318505741
  0
LINE
  5
AAB
  8
C4
 10
187.78856323493599
 20
68.684857980259238
 30
0.0
 11
187.59388369128069
 21
68.385525597643891
 31
0.0
  0
ARC
  5
AAC
  8
C4
 10
189.3813300956833
 20
67.648955606815889
 30
0.0
 40
1.8999999999999999
 50
90.0
 51
146.96086318505871
  0
ARC
  5
AAD
  8
C4
 10
186.8813300956833
 20
53.448955606815872
 30
0.0
 40
0.85
 50
33.039136814942502
 51
90.0
  0
LINE
  5
AAE
  8
C4
 10
187.78856323493599
 20
53.61305323337254
 30
0.0
 11
187.59388369128069
 21
53.912385615987887
 31
0.0
  0
ARC
  5
AAF
  8
C4
 10
189.3813300956833
 20
54.648955606815889
 30
0.0
 40
1.8999999999999999
 50
213.0391368149412
 51
270.0
  0
ARC
  5
AB0
  8
C4
 10
191.8813300956833
 20
68.848955606815906
 30
0.0
 40
0.85
 50
213.03913681494251
 51
270.0
  0
LINE
  5
AB1
  8
C4
 10
190.97409695643049
 20
68.684857980259238
 30
0.0
 11
191.16877650008581
 21
68.385525597643891
 31
0.0
  0
ARC
  5
AB2
  8
C4
 10
189.3813300956833
 20
67.648955606815889
 30
0.0
 40
1.8999999999999999
 50
33.039136814941259
 51
90.0
  0
ARC
  5
AB3
  8
C4
 10
191.8813300956833
 20
53.448955606815872
 30
0.0
 40
0.85
 50
90.0
 51
146.96086318505741
  0
LINE
  5
AB4
  8
C4
 10
190.97409695643049
 20
53.61305323337254
 30
0.0
 11
191.16877650008581
 21
53.912385615987887
 31
0.0
  0
ARC
  5
AB5
  8
C4
 10
189.3813300956833
 20
54.648955606815889
 30
0.0
 40
1.8999999999999999
 50
270.0
 51
326.96086318505871
  0
ARC
  5
AB6
  8
C4
 10
191.8813300956833
 20
68.848955606815906
 30
0.0
 40
0.85
 50
270.0
 51
326.96086318505741
  0
LINE
  5
AB7
  8
C4
 10
192.78856323493599
 20
68.684857980259238
 30
0.0
 11
192.59388369128069
 21
68.385525597643891
 31
0.0
  0
ARC
  5
AB8
  8
C4
 10
194.3813300956833
 20
67.648955606815889
 30
0.0
 40
1.8999999999999999
 50
90.0
 51
146.96086318505871
  0
ARC
  5
AB9
  8
C4
 10
191.8813300956833
 20
53.448955606815872
 30
0.0
 40
0.85
 50
33.039136814942502
 51
90.0
  0
LINE
  5
ABA
  8
C4
 10
192.78856323493599
 20
53.61305323337254
 30
0.0
 11
192.59388369128069
 21
53.912385615987887
 31
0.0
  0
ARC
  5
ABB
  8
C4
 10
194.3813300956833
 20
54.648955606815889
 30
0.0
 40
1.8999999999999999
 50
213.0391368149412
 51
270.0
  0
ARC
  5
ABC
  8
C4
 10
196.8813300956833
 20
68.848955606815906
 30
0.0
 40
0.85
 50
213.03913681494251
 51
270.0
  0
LINE
  5
ABD
  8
C4
 10
195.97409695643049
 20
68.684857980259238
 30
0.0
 11
196.16877650008581
 21
68.385525597643891
 31
0.0
  0
ARC
  5
ABE
  8
C4
 10
194.3813300956833
 20
67.648955606815889
 30
0.0
 40
1.8999999999999999
 50
33.039136814941259
 51
90.0
  0
ARC
  5
ABF
  8
C4
 10
196.8813300956833
 20
53.448955606815872
 30
0.0
 40
0.85
 50
90.0
 51
146.96086318505741
  0
LINE
  5
AC0
  8
C4
 10
195.97409695643049
 20
53.61305323337254
 30
0.0
 11
196.16877650008581
 21
53.912385615987887
 31
0.0
  0
ARC
  5
AC1
  8
C4
 10
194.3813300956833
 20
54.648955606815889
 30
0.0
 40
1.8999999999999999
 50
270.0
 51
326.96086318505871
  0
ARC
  5
AC2
  8
C4
 10
196.8813300956833
 20
68.848955606815906
 30
0.0
 40
0.85
 50
270.0
 51
326.96086318505741
  0
LINE
  5
AC3
  8
C4
 10
197.78856323493599
 20
68.684857980259238
 30
0.0
 11
197.59388369128069
 21
68.385525597643891
 31
0.0
  0
ARC
  5
AC4
  8
C4
 10
199.3813300956833
 20
67.648955606815889
 30
0.0
 40
1.8999999999999999
 50
90.0
 51
146.96086318505871
  0
ARC
  5
AC5
  8
C4
 10
196.8813300956833
 20
53.448955606815872
 30
0.0
 40
0.85
 50
33.039136814942502
 51
90.0
  0
LINE
  5
AC6
  8
C4
 10
197.78856323493599
 20
53.61305323337254
 30
0.0
 11
197.59388369128069
 21
53.912385615987887
 31
0.0
  0
ARC
  5
AC7
  8
C4
 10
199.3813300956833
 20
54.648955606815889
 30
0.0
 40
1.8999999999999999
 50
213.0391368149412
 51
270.0
  0
ARC
  5
AC8
  8
C4
 10
201.8813300956833
 20
68.848955606815906
 30
0.0
 40
0.85
 50
213.03913681494251
 51
270.0
  0
LINE
  5
AC9
  8
C4
 10
200.97409695643049
 20
68.684857980259238
 30
0.0
 11
201.16877650008581
 21
68.385525597643891
 31
0.0
  0
ARC
  5
ACA
  8
C4
 10
199.3813300956833
 20
67.648955606815889
 30
0.0
 40
1.8999999999999999
 50
33.039136814941259
 51
90.0
  0
ARC
  5
ACB
  8
C4
 10
201.8813300956833
 20
53.448955606815872
 30
0.0
 40
0.85
 50
90.0
 51
146.96086318505741
  0
LINE
  5
ACC
  8
C4
 10
200.97409695643049
 20
53.61305323337254
 30
0.0
 11
201.16877650008581
 21
53.912385615987887
 31
0.0
  0
ARC
  5
ACD
  8
C4
 10
199.3813300956833
 20
54.648955606815889
 30
0.0
 40
1.8999999999999999
 50
270.0
 51
326.96086318505871
  0
ARC
  5
ACE
  8
C4
 10
201.8813300956833
 20
68.848955606815906
 30
0.0
 40
0.85
 50
270.0
 51
326.96086318505741
  0
LINE
  5
ACF
  8
C4
 10
202.78856323493599
 20
68.684857980259238
 30
0.0
 11
202.59388369128069
 21
68.385525597643891
 31
0.0
  0
ARC
  5
AD0
  8
C4
 10
204.3813300956833
 20
67.648955606815889
 30
0.0
 40
1.8999999999999999
 50
90.0
 51
146.96086318505871
  0
ARC
  5
AD1
  8
C4
 10
201.8813300956833
 20
53.448955606815872
 30
0.0
 40
0.85
 50
33.039136814942502
 51
90.0
  0
LINE
  5
AD2
  8
C4
 10
202.78856323493599
 20
53.61305323337254
 30
0.0
 11
202.59388369128069
 21
53.912385615987887
 31
0.0
  0
ARC
  5
AD3
  8
C4
 10
204.3813300956833
 20
54.648955606815889
 30
0.0
 40
1.8999999999999999
 50
213.0391368149412
 51
270.0
  0
ARC
  5
AD4
  8
C4
 10
206.8813300956833
 20
68.848955606815906
 30
0.0
 40
0.85
 50
213.03913681494251
 51
270.0
  0
LINE
  5
AD5
  8
C4
 10
205.97409695643049
 20
68.684857980259238
 30
0.0
 11
206.16877650008581
 21
68.385525597643891
 31
0.0
  0
ARC
  5
AD6
  8
C4
 10
204.3813300956833
 20
67.648955606815889
 30
0.0
 40
1.8999999999999999
 50
33.039136814941259
 51
90.0
  0
ARC
  5
AD7
  8
C4
 10
206.8813300956833
 20
53.448955606815872
 30
0.0
 40
0.85
 50
90.0
 51
146.96086318505741
  0
LINE
  5
AD8
  8
C4
 10
205.97409695643049
 20
53.61305323337254
 30
0.0
 11
206.16877650008581
 21
53.912385615987887
 31
0.0
  0
ARC
  5
AD9
  8
C4
 10
204.3813300956833
 20
54.648955606815889
 30
0.0
 40
1.8999999999999999
 50
270.0
 51
326.96086318505871
  0
ARC
  5
ADA
  8
C4
 10
206.8813300956833
 20
68.848955606815906
 30
0.0
 40
0.85
 50
270.0
 51
326.96086318505741
  0
LINE
  5
ADB
  8
C4
 10
207.78856323493599
 20
68.684857980259238
 30
0.0
 11
207.59388369128069
 21
68.385525597643891
 31
0.0
  0
ARC
  5
ADC
  8
C4
 10
209.3813300956833
 20
67.648955606815889
 30
0.0
 40
1.8999999999999999
 50
90.0
 51
146.96086318505871
  0
ARC
  5
ADD
  8
C4
 10
206.8813300956833
 20
53.448955606815872
 30
0.0
 40
0.85
 50
33.039136814942502
 51
90.0
  0
LINE
  5
ADE
  8
C4
 10
207.78856323493599
 20
53.61305323337254
 30
0.0
 11
207.59388369128069
 21
53.912385615987887
 31
0.0
  0
ARC
  5
ADF
  8
C4
 10
209.3813300956833
 20
54.648955606815889
 30
0.0
 40
1.8999999999999999
 50
213.0391368149412
 51
270.0
  0
ARC
  5
AE0
  8
C4
 10
211.8813300956833
 20
68.848955606815906
 30
0.0
 40
0.85
 50
213.03913681494251
 51
270.0
  0
LINE
  5
AE1
  8
C4
 10
210.97409695643049
 20
68.684857980259238
 30
0.0
 11
211.16877650008581
 21
68.385525597643891
 31
0.0
  0
ARC
  5
AE2
  8
C4
 10
209.3813300956833
 20
67.648955606815889
 30
0.0
 40
1.8999999999999999
 50
33.039136814941259
 51
90.0
  0
ARC
  5
AE3
  8
C4
 10
211.8813300956833
 20
53.448955606815872
 30
0.0
 40
0.85
 50
90.0
 51
146.96086318505741
  0
LINE
  5
AE4
  8
C4
 10
210.97409695643049
 20
53.61305323337254
 30
0.0
 11
211.16877650008581
 21
53.912385615987887
 31
0.0
  0
ARC
  5
AE5
  8
C4
 10
209.3813300956833
 20
54.648955606815889
 30
0.0
 40
1.8999999999999999
 50
270.0
 51
326.96086318505871
  0
ARC
  5
AE6
  8
C4
 10
211.8813300956833
 20
68.848955606815906
 30
0.0
 40
0.85
 50
270.0
 51
326.96086318505741
  0
LINE
  5
AE7
  8
C4
 10
212.78856323493599
 20
68.684857980259238
 30
0.0
 11
212.59388369128081
 21
68.385525597643891
 31
0.0
  0
ARC
  5
AE8
  8
C4
 10
214.3813300956833
 20
67.648955606815889
 30
0.0
 40
1.8999999999999999
 50
90.0
 51
146.96086318505871
  0
ARC
  5
AE9
  8
C4
 10
211.8813300956833
 20
53.448955606815872
 30
0.0
 40
0.85
 50
33.039136814942502
 51
90.0
  0
LINE
  5
AEA
  8
C4
 10
212.78856323493599
 20
53.61305323337254
 30
0.0
 11
212.59388369128081
 21
53.912385615987887
 31
0.0
  0
ARC
  5
AEB
  8
C4
 10
214.3813300956833
 20
54.648955606815889
 30
0.0
 40
1.8999999999999999
 50
213.0391368149412
 51
270.0
  0
ARC
  5
AEC
  8
C4
 10
216.8813300956833
 20
68.848955606815906
 30
0.0
 40
0.85
 50
213.03913681494251
 51
270.0
  0
LINE
  5
AED
  8
C4
 10
215.97409695643049
 20
68.684857980259238
 30
0.0
 11
216.16877650008581
 21
68.385525597643891
 31
0.0
  0
ARC
  5
AEE
  8
C4
 10
214.3813300956833
 20
67.648955606815889
 30
0.0
 40
1.8999999999999999
 50
33.039136814941259
 51
90.0
  0
ARC
  5
AEF
  8
C4
 10
216.8813300956833
 20
53.448955606815872
 30
0.0
 40
0.85
 50
90.0
 51
146.96086318505741
  0
LINE
  5
AF0
  8
C4
 10
215.97409695643049
 20
53.61305323337254
 30
0.0
 11
216.16877650008581
 21
53.912385615987887
 31
0.0
  0
ARC
  5
AF1
  8
C4
 10
214.3813300956833
 20
54.648955606815889
 30
0.0
 40
1.8999999999999999
 50
270.0
 51
326.96086318505871
  0
ARC
  5
AF2
  8
C4
 10
216.8813300956833
 20
68.848955606815906
 30
0.0
 40
0.85
 50
270.0
 51
326.96086318505741
  0
LINE
  5
AF3
  8
C4
 10
217.78856323493599
 20
68.684857980259238
 30
0.0
 11
217.59388369128069
 21
68.385525597643891
 31
0.0
  0
ARC
  5
AF4
  8
C4
 10
219.3813300956833
 20
67.648955606815889
 30
0.0
 40
1.8999999999999999
 50
90.0
 51
146.96086318505871
  0
ARC
  5
AF5
  8
C4
 10
216.8813300956833
 20
53.448955606815872
 30
0.0
 40
0.85
 50
33.039136814942502
 51
90.0
  0
LINE
  5
AF6
  8
C4
 10
217.78856323493599
 20
53.61305323337254
 30
0.0
 11
217.59388369128069
 21
53.912385615987887
 31
0.0
  0
ARC
  5
AF7
  8
C4
 10
219.3813300956833
 20
54.648955606815889
 30
0.0
 40
1.8999999999999999
 50
213.0391368149412
 51
270.0
  0
ARC
  5
AF8
  8
C4
 10
221.8813300956833
 20
68.848955606815906
 30
0.0
 40
0.85
 50
213.03913681494251
 51
270.0
  0
LINE
  5
AF9
  8
C4
 10
220.97409695643049
 20
68.684857980259238
 30
0.0
 11
221.16877650008581
 21
68.385525597643891
 31
0.0
  0
ARC
  5
AFA
  8
C4
 10
219.3813300956833
 20
67.648955606815889
 30
0.0
 40
1.8999999999999999
 50
33.039136814941259
 51
90.0
  0
ARC
  5
AFB
  8
C4
 10
221.8813300956833
 20
53.448955606815872
 30
0.0
 40
0.85
 50
90.0
 51
146.96086318505741
  0
LINE
  5
AFC
  8
C4
 10
220.97409695643049
 20
53.61305323337254
 30
0.0
 11
221.16877650008581
 21
53.912385615987887
 31
0.0
  0
ARC
  5
AFD
  8
C4
 10
219.3813300956833
 20
54.648955606815889
 30
0.0
 40
1.8999999999999999
 50
270.0
 51
326.96086318505871
  0
ARC
  5
AFE
  8
C4
 10
221.8813300956833
 20
68.848955606815906
 30
0.0
 40
0.85
 50
270.0
 51
326.96086318505741
  0
LINE
  5
AFF
  8
C4
 10
222.78856323493599
 20
68.684857980259238
 30
0.0
 11
222.59388369128069
 21
68.385525597643891
 31
0.0
  0
ARC
  5
B00
  8
C4
 10
224.3813300956833
 20
67.648955606815889
 30
0.0
 40
1.8999999999999999
 50
90.0
 51
146.96086318505871
  0
ARC
  5
B01
  8
C4
 10
221.8813300956833
 20
53.448955606815872
 30
0.0
 40
0.85
 50
33.039136814942502
 51
90.0
  0
LINE
  5
B02
  8
C4
 10
222.78856323493599
 20
53.61305323337254
 30
0.0
 11
222.59388369128069
 21
53.912385615987887
 31
0.0
  0
ARC
  5
B03
  8
C4
 10
224.3813300956833
 20
54.648955606815889
 30
0.0
 40
1.8999999999999999
 50
213.0391368149412
 51
270.0
  0
ARC
  5
B04
  8
C4
 10
226.8813300956833
 20
68.848955606815906
 30
0.0
 40
0.85
 50
213.03913681494251
 51
270.0
  0
LINE
  5
B05
  8
C4
 10
225.97409695643049
 20
68.684857980259238
 30
0.0
 11
226.16877650008581
 21
68.385525597643891
 31
0.0
  0
ARC
  5
B06
  8
C4
 10
224.3813300956833
 20
67.648955606815889
 30
0.0
 40
1.8999999999999999
 50
33.039136814941259
 51
90.0
  0
ARC
  5
B07
  8
C4
 10
226.8813300956833
 20
53.448955606815872
 30
0.0
 40
0.85
 50
90.0
 51
146.96086318505741
  0
LINE
  5
B08
  8
C4
 10
225.97409695643049
 20
53.61305323337254
 30
0.0
 11
226.16877650008581
 21
53.912385615987887
 31
0.0
  0
ARC
  5
B09
  8
C4
 10
224.3813300956833
 20
54.648955606815889
 30
0.0
 40
1.8999999999999999
 50
270.0
 51
326.96086318505871
  0
ARC
  5
B0A
  8
C4
 10
226.8813300956833
 20
68.848955606815906
 30
0.0
 40
0.85
 50
270.0
 51
326.96086318505741
  0
LINE
  5
B0B
  8
C4
 10
227.78856323493599
 20
68.684857980259238
 30
0.0
 11
227.59388369128069
 21
68.385525597643891
 31
0.0
  0
ARC
  5
B0C
  8
C4
 10
229.3813300956833
 20
67.648955606815889
 30
0.0
 40
1.8999999999999999
 50
90.0
 51
146.96086318505871
  0
ARC
  5
B0D
  8
C4
 10
226.8813300956833
 20
53.448955606815872
 30
0.0
 40
0.85
 50
33.039136814942502
 51
90.0
  0
LINE
  5
B0E
  8
C4
 10
227.78856323493599
 20
53.61305323337254
 30
0.0
 11
227.59388369128069
 21
53.912385615987887
 31
0.0
  0
ARC
  5
B0F
  8
C4
 10
229.3813300956833
 20
54.648955606815889
 30
0.0
 40
1.8999999999999999
 50
213.0391368149412
 51
270.0
  0
ARC
  5
B10
  8
C4
 10
231.8813300956833
 20
68.848955606815906
 30
0.0
 40
0.85
 50
213.03913681494251
 51
270.0
  0
LINE
  5
B11
  8
C4
 10
230.97409695643049
 20
68.684857980259238
 30
0.0
 11
231.16877650008581
 21
68.385525597643891
 31
0.0
  0
ARC
  5
B12
  8
C4
 10
229.3813300956833
 20
67.648955606815889
 30
0.0
 40
1.8999999999999999
 50
33.039136814941259
 51
90.0
  0
ARC
  5
B13
  8
C4
 10
231.8813300956833
 20
53.448955606815872
 30
0.0
 40
0.85
 50
90.0
 51
146.96086318505741
  0
LINE
  5
B14
  8
C4
 10
230.97409695643049
 20
53.61305323337254
 30
0.0
 11
231.16877650008581
 21
53.912385615987887
 31
0.0
  0
ARC
  5
B15
  8
C4
 10
229.3813300956833
 20
54.648955606815889
 30
0.0
 40
1.8999999999999999
 50
270.0
 51
326.96086318505871
  0
ARC
  5
B16
  8
C4
 10
231.8813300956833
 20
68.848955606815906
 30
0.0
 40
0.85
 50
270.0
 51
326.96086318505741
  0
LINE
  5
B17
  8
C4
 10
232.78856323493599
 20
68.684857980259238
 30
0.0
 11
232.59388369128069
 21
68.385525597643891
 31
0.0
  0
ARC
  5
B18
  8
C4
 10
234.3813300956833
 20
67.648955606815889
 30
0.0
 40
1.8999999999999999
 50
90.0
 51
146.96086318505871
  0
ARC
  5
B19
  8
C4
 10
231.8813300956833
 20
53.448955606815872
 30
0.0
 40
0.85
 50
33.039136814942502
 51
90.0
  0
LINE
  5
B1A
  8
C4
 10
232.78856323493599
 20
53.61305323337254
 30
0.0
 11
232.59388369128069
 21
53.912385615987887
 31
0.0
  0
ARC
  5
B1B
  8
C4
 10
234.3813300956833
 20
54.648955606815889
 30
0.0
 40
1.8999999999999999
 50
213.0391368149412
 51
270.0
  0
ARC
  5
B1C
  8
C4
 10
236.8813300956833
 20
68.848955606815906
 30
0.0
 40
0.85
 50
213.03913681494251
 51
270.0
  0
LINE
  5
B1D
  8
C4
 10
235.97409695643049
 20
68.684857980259238
 30
0.0
 11
236.16877650008581
 21
68.385525597643891
 31
0.0
  0
ARC
  5
B1E
  8
C4
 10
234.3813300956833
 20
67.648955606815889
 30
0.0
 40
1.8999999999999999
 50
33.039136814941259
 51
90.0
  0
ARC
  5
B1F
  8
C4
 10
236.8813300956833
 20
53.448955606815872
 30
0.0
 40
0.85
 50
90.0
 51
146.96086318505741
  0
LINE
  5
B20
  8
C4
 10
235.97409695643049
 20
53.61305323337254
 30
0.0
 11
236.16877650008581
 21
53.912385615987887
 31
0.0
  0
ARC
  5
B21
  8
C4
 10
234.3813300956833
 20
54.648955606815889
 30
0.0
 40
1.8999999999999999
 50
270.0
 51
326.96086318505871
  0
ARC
  5
B22
  8
C4
 10
236.8813300956833
 20
68.848955606815906
 30
0.0
 40
0.85
 50
270.0
 51
326.96086318505741
  0
LINE
  5
B23
  8
C4
 10
237.78856323493599
 20
68.684857980259238
 30
0.0
 11
237.59388369128081
 21
68.385525597643891
 31
0.0
  0
ARC
  5
B24
  8
C4
 10
239.3813300956833
 20
67.648955606815889
 30
0.0
 40
1.8999999999999999
 50
90.0
 51
146.96086318505871
  0
ARC
  5
B25
  8
C4
 10
236.8813300956833
 20
53.448955606815872
 30
0.0
 40
0.85
 50
33.039136814942502
 51
90.0
  0
LINE
  5
B26
  8
C4
 10
237.78856323493599
 20
53.61305323337254
 30
0.0
 11
237.59388369128081
 21
53.912385615987887
 31
0.0
  0
ARC
  5
B27
  8
C4
 10
239.3813300956833
 20
54.648955606815889
 30
0.0
 40
1.8999999999999999
 50
213.0391368149412
 51
270.0
  0
ARC
  5
B28
  8
C4
 10
241.8813300956833
 20
68.848955606815906
 30
0.0
 40
0.85
 50
213.03913681494251
 51
270.0
  0
LINE
  5
B29
  8
C4
 10
240.97409695643049
 20
68.684857980259238
 30
0.0
 11
241.16877650008581
 21
68.385525597643891
 31
0.0
  0
ARC
  5
B2A
  8
C4
 10
239.3813300956833
 20
67.648955606815889
 30
0.0
 40
1.8999999999999999
 50
33.039136814941259
 51
90.0
  0
ARC
  5
B2B
  8
C4
 10
241.8813300956833
 20
53.448955606815872
 30
0.0
 40
0.85
 50
90.0
 51
146.96086318505741
  0
LINE
  5
B2C
  8
C4
 10
240.97409695643049
 20
53.61305323337254
 30
0.0
 11
241.16877650008581
 21
53.912385615987887
 31
0.0
  0
ARC
  5
B2D
  8
C4
 10
239.3813300956833
 20
54.648955606815889
 30
0.0
 40
1.8999999999999999
 50
270.0
 51
326.96086318505871
  0
ARC
  5
B2E
  8
C4
 10
241.8813300956833
 20
68.848955606815906
 30
0.0
 40
0.85
 50
270.0
 51
326.96086318505741
  0
LINE
  5
B2F
  8
C4
 10
242.78856323493599
 20
68.684857980259238
 30
0.0
 11
242.59388369128069
 21
68.385525597643891
 31
0.0
  0
ARC
  5
B30
  8
C4
 10
244.3813300956833
 20
67.648955606815889
 30
0.0
 40
1.8999999999999999
 50
90.0
 51
146.96086318505871
  0
ARC
  5
B31
  8
C4
 10
241.8813300956833
 20
53.448955606815872
 30
0.0
 40
0.85
 50
33.039136814942502
 51
90.0
  0
LINE
  5
B32
  8
C4
 10
242.78856323493599
 20
53.61305323337254
 30
0.0
 11
242.59388369128069
 21
53.912385615987887
 31
0.0
  0
ARC
  5
B33
  8
C4
 10
244.3813300956833
 20
54.648955606815889
 30
0.0
 40
1.8999999999999999
 50
213.0391368149412
 51
270.0
  0
ARC
  5
B34
  8
C4
 10
246.8813300956833
 20
68.848955606815906
 30
0.0
 40
0.85
 50
213.03913681494251
 51
270.0
  0
LINE
  5
B35
  8
C4
 10
245.97409695643049
 20
68.684857980259238
 30
0.0
 11
246.16877650008581
 21
68.385525597643891
 31
0.0
  0
ARC
  5
B36
  8
C4
 10
244.3813300956833
 20
67.648955606815889
 30
0.0
 40
1.8999999999999999
 50
33.039136814941259
 51
90.0
  0
ARC
  5
B37
  8
C4
 10
246.8813300956833
 20
53.448955606815872
 30
0.0
 40
0.85
 50
90.0
 51
146.96086318505741
  0
LINE
  5
B38
  8
C4
 10
245.97409695643049
 20
53.61305323337254
 30
0.0
 11
246.16877650008581
 21
53.912385615987887
 31
0.0
  0
ARC
  5
B39
  8
C4
 10
244.3813300956833
 20
54.648955606815889
 30
0.0
 40
1.8999999999999999
 50
270.0
 51
326.96086318505871
  0
ARC
  5
B3A
  8
C4
 10
246.8813300956833
 20
68.848955606815906
 30
0.0
 40
0.85
 50
270.0
 51
326.96086318505741
  0
LINE
  5
B3B
  8
C4
 10
247.78856323493599
 20
68.684857980259238
 30
0.0
 11
247.59388369128069
 21
68.385525597643891
 31
0.0
  0
ARC
  5
B3C
  8
C4
 10
249.3813300956833
 20
67.648955606815889
 30
0.0
 40
1.8999999999999999
 50
90.0
 51
146.96086318505871
  0
ARC
  5
B3D
  8
C4
 10
246.8813300956833
 20
53.448955606815872
 30
0.0
 40
0.85
 50
33.039136814942502
 51
90.0
  0
LINE
  5
B3E
  8
C4
 10
247.78856323493599
 20
53.61305323337254
 30
0.0
 11
247.59388369128069
 21
53.912385615987887
 31
0.0
  0
ARC
  5
B3F
  8
C4
 10
249.3813300956833
 20
54.648955606815889
 30
0.0
 40
1.8999999999999999
 50
213.0391368149412
 51
270.0
  0
ARC
  5
B40
  8
C4
 10
251.8813300956833
 20
68.848955606815906
 30
0.0
 40
0.85
 50
213.03913681494251
 51
270.0
  0
LINE
  5
B41
  8
C4
 10
250.97409695643049
 20
68.684857980259238
 30
0.0
 11
251.16877650008581
 21
68.385525597643891
 31
0.0
  0
ARC
  5
B42
  8
C4
 10
249.3813300956833
 20
67.648955606815889
 30
0.0
 40
1.8999999999999999
 50
33.039136814941259
 51
90.0
  0
ARC
  5
B43
  8
C4
 10
251.8813300956833
 20
53.448955606815872
 30
0.0
 40
0.85
 50
90.0
 51
146.96086318505741
  0
LINE
  5
B44
  8
C4
 10
250.97409695643049
 20
53.61305323337254
 30
0.0
 11
251.16877650008581
 21
53.912385615987887
 31
0.0
  0
ARC
  5
B45
  8
C4
 10
249.3813300956833
 20
54.648955606815889
 30
0.0
 40
1.8999999999999999
 50
270.0
 51
326.96086318505871
  0
ARC
  5
B46
  8
C4
 10
251.8813300956833
 20
68.848955606815906
 30
0.0
 40
0.85
 50
270.0
 51
326.96086318505741
  0
LINE
  5
B47
  8
C4
 10
252.78856323493599
 20
68.684857980259238
 30
0.0
 11
252.59388369128069
 21
68.385525597643891
 31
0.0
  0
ARC
  5
B48
  8
C4
 10
254.3813300956833
 20
67.648955606815889
 30
0.0
 40
1.8999999999999999
 50
90.0
 51
146.96086318505871
  0
ARC
  5
B49
  8
C4
 10
251.8813300956833
 20
53.448955606815872
 30
0.0
 40
0.85
 50
33.039136814942502
 51
90.0
  0
LINE
  5
B4A
  8
C4
 10
252.78856323493599
 20
53.61305323337254
 30
0.0
 11
252.59388369128069
 21
53.912385615987887
 31
0.0
  0
ARC
  5
B4B
  8
C4
 10
254.3813300956833
 20
54.648955606815889
 30
0.0
 40
1.8999999999999999
 50
213.0391368149412
 51
270.0
  0
ARC
  5
B4C
  8
C4
 10
256.88133009568332
 20
68.848955606815906
 30
0.0
 40
0.85
 50
213.03913681494251
 51
270.0
  0
LINE
  5
B4D
  8
C4
 10
255.97409695643049
 20
68.684857980259238
 30
0.0
 11
256.16877650008581
 21
68.385525597643891
 31
0.0
  0
ARC
  5
B4E
  8
C4
 10
254.3813300956833
 20
67.648955606815889
 30
0.0
 40
1.8999999999999999
 50
33.039136814941259
 51
90.0
  0
ARC
  5
B4F
  8
C4
 10
256.88133009568332
 20
53.448955606815872
 30
0.0
 40
0.85
 50
90.0
 51
146.96086318505741
  0
LINE
  5
B50
  8
C4
 10
255.97409695643049
 20
53.61305323337254
 30
0.0
 11
256.16877650008581
 21
53.912385615987887
 31
0.0
  0
ARC
  5
B51
  8
C4
 10
254.3813300956833
 20
54.648955606815889
 30
0.0
 40
1.8999999999999999
 50
270.0
 51
326.96086318505871
  0
ARC
  5
B52
  8
C4
 10
256.88133009568332
 20
68.848955606815906
 30
0.0
 40
0.85
 50
270.0
 51
326.96086318505741
  0
LINE
  5
B53
  8
C4
 10
257.78856323493602
 20
68.684857980259238
 30
0.0
 11
257.59388369128072
 21
68.385525597643891
 31
0.0
  0
ARC
  5
B54
  8
C4
 10
259.38133009568332
 20
67.648955606815889
 30
0.0
 40
1.8999999999999999
 50
90.0
 51
146.96086318505871
  0
ARC
  5
B55
  8
C4
 10
256.88133009568332
 20
53.448955606815872
 30
0.0
 40
0.85
 50
33.039136814942502
 51
90.0
  0
LINE
  5
B56
  8
C4
 10
257.78856323493602
 20
53.61305323337254
 30
0.0
 11
257.59388369128072
 21
53.912385615987887
 31
0.0
  0
ARC
  5
B57
  8
C4
 10
259.38133009568332
 20
54.648955606815889
 30
0.0
 40
1.8999999999999999
 50
213.0391368149412
 51
270.0
  0
ARC
  5
B58
  8
C4
 10
261.88133009568332
 20
68.848955606815906
 30
0.0
 40
0.85
 50
213.03913681494251
 51
270.0
  0
LINE
  5
B59
  8
C4
 10
260.97409695643051
 20
68.684857980259238
 30
0.0
 11
261.16877650008581
 21
68.385525597643891
 31
0.0
  0
ARC
  5
B5A
  8
C4
 10
259.38133009568332
 20
67.648955606815889
 30
0.0
 40
1.8999999999999999
 50
33.039136814941259
 51
90.0
  0
ARC
  5
B5B
  8
C4
 10
261.88133009568332
 20
53.448955606815872
 30
0.0
 40
0.85
 50
90.0
 51
146.96086318505741
  0
LINE
  5
B5C
  8
C4
 10
260.97409695643051
 20
53.61305323337254
 30
0.0
 11
261.16877650008581
 21
53.912385615987887
 31
0.0
  0
ARC
  5
B5D
  8
C4
 10
259.38133009568332
 20
54.648955606815889
 30
0.0
 40
1.8999999999999999
 50
270.0
 51
326.96086318505871
  0
ARC
  5
B5E
  8
C4
 10
261.88133009568332
 20
68.848955606815906
 30
0.0
 40
0.85
 50
270.0
 51
326.96086318505741
  0
LINE
  5
B5F
  8
C4
 10
262.78856323493602
 20
68.684857980259238
 30
0.0
 11
262.59388369128078
 21
68.385525597643891
 31
0.0
  0
ARC
  5
B60
  8
C4
 10
264.38133009568332
 20
67.648955606815889
 30
0.0
 40
1.8999999999999999
 50
90.0
 51
146.96086318505871
  0
ARC
  5
B61
  8
C4
 10
261.88133009568332
 20
53.448955606815872
 30
0.0
 40
0.85
 50
33.039136814942502
 51
90.0
  0
LINE
  5
B62
  8
C4
 10
262.78856323493602
 20
53.61305323337254
 30
0.0
 11
262.59388369128078
 21
53.912385615987887
 31
0.0
  0
ARC
  5
B63
  8
C4
 10
264.38133009568332
 20
54.648955606815889
 30
0.0
 40
1.8999999999999999
 50
213.0391368149412
 51
270.0
  0
ARC
  5
B64
  8
C4
 10
266.88133009568332
 20
68.848955606815906
 30
0.0
 40
0.85
 50
213.03913681494251
 51
270.0
  0
LINE
  5
B65
  8
C4
 10
265.97409695643051
 20
68.684857980259238
 30
0.0
 11
266.16877650008581
 21
68.385525597643891
 31
0.0
  0
ARC
  5
B66
  8
C4
 10
264.38133009568332
 20
67.648955606815889
 30
0.0
 40
1.8999999999999999
 50
33.039136814941259
 51
90.0
  0
ARC
  5
B67
  8
C4
 10
266.88133009568332
 20
53.448955606815872
 30
0.0
 40
0.85
 50
90.0
 51
146.96086318505741
  0
LINE
  5
B68
  8
C4
 10
265.97409695643051
 20
53.61305323337254
 30
0.0
 11
266.16877650008581
 21
53.912385615987887
 31
0.0
  0
ARC
  5
B69
  8
C4
 10
264.38133009568332
 20
54.648955606815889
 30
0.0
 40
1.8999999999999999
 50
270.0
 51
326.96086318505871
  0
ARC
  5
B6A
  8
C4
 10
266.88133009568332
 20
68.848955606815906
 30
0.0
 40
0.85
 50
270.0
 51
326.96086318505741
  0
LINE
  5
B6B
  8
C4
 10
267.78856323493602
 20
68.684857980259238
 30
0.0
 11
267.59388369128072
 21
68.385525597643891
 31
0.0
  0
ARC
  5
B6C
  8
C4
 10
269.38133009568332
 20
67.648955606815889
 30
0.0
 40
1.8999999999999999
 50
90.0
 51
146.96086318505871
  0
ARC
  5
B6D
  8
C4
 10
266.88133009568332
 20
53.448955606815872
 30
0.0
 40
0.85
 50
33.039136814942502
 51
90.0
  0
LINE
  5
B6E
  8
C4
 10
267.78856323493602
 20
53.61305323337254
 30
0.0
 11
267.59388369128072
 21
53.912385615987887
 31
0.0
  0
ARC
  5
B6F
  8
C4
 10
269.38133009568332
 20
54.648955606815889
 30
0.0
 40
1.8999999999999999
 50
213.0391368149412
 51
270.0
  0
ARC
  5
B70
  8
C4
 10
271.88133009568332
 20
68.848955606815906
 30
0.0
 40
0.85
 50
213.03913681494251
 51
270.0
  0
LINE
  5
B71
  8
C4
 10
270.97409695643051
 20
68.684857980259238
 30
0.0
 11
271.16877650008581
 21
68.385525597643891
 31
0.0
  0
ARC
  5
B72
  8
C4
 10
269.38133009568332
 20
67.648955606815889
 30
0.0
 40
1.8999999999999999
 50
33.039136814941259
 51
90.0
  0
ARC
  5
B73
  8
C4
 10
271.88133009568332
 20
53.448955606815872
 30
0.0
 40
0.85
 50
90.0
 51
146.96086318505741
  0
LINE
  5
B74
  8
C4
 10
270.97409695643051
 20
53.61305323337254
 30
0.0
 11
271.16877650008581
 21
53.912385615987887
 31
0.0
  0
ARC
  5
B75
  8
C4
 10
269.38133009568332
 20
54.648955606815889
 30
0.0
 40
1.8999999999999999
 50
270.0
 51
326.96086318505871
  0
ARC
  5
B76
  8
C4
 10
271.88133009568332
 20
68.848955606815906
 30
0.0
 40
0.85
 50
270.0
 51
326.96086318505741
  0
LINE
  5
B77
  8
C4
 10
272.78856323493602
 20
68.684857980259238
 30
0.0
 11
272.59388369128072
 21
68.385525597643891
 31
0.0
  0
ARC
  5
B78
  8
C4
 10
274.38133009568332
 20
67.648955606815889
 30
0.0
 40
1.8999999999999999
 50
90.0
 51
146.96086318505871
  0
ARC
  5
B79
  8
C4
 10
271.88133009568332
 20
53.448955606815872
 30
0.0
 40
0.85
 50
33.039136814942502
 51
90.0
  0
LINE
  5
B7A
  8
C4
 10
272.78856323493602
 20
53.61305323337254
 30
0.0
 11
272.59388369128072
 21
53.912385615987887
 31
0.0
  0
ARC
  5
B7B
  8
C4
 10
274.38133009568332
 20
54.648955606815889
 30
0.0
 40
1.8999999999999999
 50
213.0391368149412
 51
270.0
  0
ARC
  5
B7C
  8
C4
 10
276.88133009568332
 20
68.848955606815906
 30
0.0
 40
0.85
 50
213.03913681494251
 51
270.0
  0
LINE
  5
B7D
  8
C4
 10
275.97409695643051
 20
68.684857980259238
 30
0.0
 11
276.16877650008581
 21
68.385525597643891
 31
0.0
  0
ARC
  5
B7E
  8
C4
 10
274.38133009568332
 20
67.648955606815889
 30
0.0
 40
1.8999999999999999
 50
33.039136814941259
 51
90.0
  0
ARC
  5
B7F
  8
C4
 10
276.88133009568332
 20
53.448955606815872
 30
0.0
 40
0.85
 50
90.0
 51
146.96086318505741
  0
LINE
  5
B80
  8
C4
 10
275.97409695643051
 20
53.61305323337254
 30
0.0
 11
276.16877650008581
 21
53.912385615987887
 31
0.0
  0
ARC
  5
B81
  8
C4
 10
274.38133009568332
 20
54.648955606815889
 30
0.0
 40
1.8999999999999999
 50
270.0
 51
326.96086318505871
  0
ARC
  5
B82
  8
C4
 10
276.88133009568332
 20
68.848955606815906
 30
0.0
 40
0.85
 50
270.0
 51
326.96086318505741
  0
LINE
  5
B83
  8
C4
 10
277.78856323493602
 20
68.684857980259238
 30
0.0
 11
277.59388369128072
 21
68.385525597643891
 31
0.0
  0
ARC
  5
B84
  8
C4
 10
279.38133009568332
 20
67.648955606815889
 30
0.0
 40
1.8999999999999999
 50
90.0
 51
146.96086318505871
  0
ARC
  5
B85
  8
C4
 10
276.88133009568332
 20
53.448955606815872
 30
0.0
 40
0.85
 50
33.039136814942502
 51
90.0
  0
LINE
  5
B86
  8
C4
 10
277.78856323493602
 20
53.61305323337254
 30
0.0
 11
277.59388369128072
 21
53.912385615987887
 31
0.0
  0
ARC
  5
B87
  8
C4
 10
279.38133009568332
 20
54.648955606815889
 30
0.0
 40
1.8999999999999999
 50
213.0391368149412
 51
270.0
  0
ARC
  5
B88
  8
C4
 10
281.88133009568332
 20
68.848955606815906
 30
0.0
 40
0.85
 50
213.03913681494251
 51
270.0
  0
LINE
  5
B89
  8
C4
 10
280.97409695643051
 20
68.684857980259238
 30
0.0
 11
281.16877650008581
 21
68.385525597643891
 31
0.0
  0
ARC
  5
B8A
  8
C4
 10
279.38133009568332
 20
67.648955606815889
 30
0.0
 40
1.8999999999999999
 50
33.039136814941259
 51
90.0
  0
ARC
  5
B8B
  8
C4
 10
281.88133009568332
 20
53.448955606815872
 30
0.0
 40
0.85
 50
90.0
 51
146.96086318505741
  0
LINE
  5
B8C
  8
C4
 10
280.97409695643051
 20
53.61305323337254
 30
0.0
 11
281.16877650008581
 21
53.912385615987887
 31
0.0
  0
ARC
  5
B8D
  8
C4
 10
279.38133009568332
 20
54.648955606815889
 30
0.0
 40
1.8999999999999999
 50
270.0
 51
326.96086318505871
  0
ARC
  5
B8E
  8
C4
 10
281.88133009568332
 20
68.848955606815906
 30
0.0
 40
0.85
 50
270.0
 51
326.96086318505741
  0
LINE
  5
B8F
  8
C4
 10
282.78856323493602
 20
68.684857980259238
 30
0.0
 11
282.59388369128072
 21
68.385525597643891
 31
0.0
  0
ARC
  5
B90
  8
C4
 10
284.38133009568332
 20
67.648955606815889
 30
0.0
 40
1.8999999999999999
 50
90.0
 51
146.96086318505871
  0
ARC
  5
B91
  8
C4
 10
281.88133009568332
 20
53.448955606815872
 30
0.0
 40
0.85
 50
33.039136814942502
 51
90.0
  0
LINE
  5
B92
  8
C4
 10
282.78856323493602
 20
53.61305323337254
 30
0.0
 11
282.59388369128072
 21
53.912385615987887
 31
0.0
  0
ARC
  5
B93
  8
C4
 10
284.38133009568332
 20
54.648955606815889
 30
0.0
 40
1.8999999999999999
 50
213.0391368149412
 51
270.0
  0
ARC
  5
B94
  8
C4
 10
286.88133009568332
 20
68.848955606815906
 30
0.0
 40
0.85
 50
213.03913681494251
 51
270.0
  0
LINE
  5
B95
  8
C4
 10
285.97409695643051
 20
68.684857980259238
 30
0.0
 11
286.16877650008581
 21
68.385525597643891
 31
0.0
  0
ARC
  5
B96
  8
C4
 10
284.38133009568332
 20
67.648955606815889
 30
0.0
 40
1.8999999999999999
 50
33.039136814941259
 51
90.0
  0
ARC
  5
B97
  8
C4
 10
286.88133009568332
 20
53.448955606815872
 30
0.0
 40
0.85
 50
90.0
 51
146.96086318505741
  0
LINE
  5
B98
  8
C4
 10
285.97409695643051
 20
53.61305323337254
 30
0.0
 11
286.16877650008581
 21
53.912385615987887
 31
0.0
  0
ARC
  5
B99
  8
C4
 10
284.38133009568332
 20
54.648955606815889
 30
0.0
 40
1.8999999999999999
 50
270.0
 51
326.96086318505871
  0
ARC
  5
B9A
  8
C4
 10
286.88133009568332
 20
68.848955606815906
 30
0.0
 40
0.85
 50
270.0
 51
326.96086318505741
  0
LINE
  5
B9B
  8
C4
 10
287.78856323493602
 20
68.684857980259238
 30
0.0
 11
287.59388369128078
 21
68.385525597643891
 31
0.0
  0
ARC
  5
B9C
  8
C4
 10
289.38133009568332
 20
67.648955606815889
 30
0.0
 40
1.8999999999999999
 50
90.0
 51
146.96086318505871
  0
ARC
  5
B9D
  8
C4
 10
286.88133009568332
 20
53.448955606815872
 30
0.0
 40
0.85
 50
33.039136814942502
 51
90.0
  0
LINE
  5
B9E
  8
C4
 10
287.78856323493602
 20
53.61305323337254
 30
0.0
 11
287.59388369128078
 21
53.912385615987887
 31
0.0
  0
ARC
  5
B9F
  8
C4
 10
289.38133009568332
 20
54.648955606815889
 30
0.0
 40
1.8999999999999999
 50
213.0391368149412
 51
270.0
  0
ARC
  5
BA0
  8
C4
 10
291.88133009568332
 20
68.848955606815906
 30
0.0
 40
0.85
 50
213.03913681494251
 51
270.0
  0
LINE
  5
BA1
  8
C4
 10
290.97409695643051
 20
68.684857980259238
 30
0.0
 11
291.16877650008581
 21
68.385525597643891
 31
0.0
  0
ARC
  5
BA2
  8
C4
 10
289.38133009568332
 20
67.648955606815889
 30
0.0
 40
1.8999999999999999
 50
33.039136814941259
 51
90.0
  0
ARC
  5
BA3
  8
C4
 10
291.88133009568332
 20
53.448955606815872
 30
0.0
 40
0.85
 50
90.0
 51
146.96086318505741
  0
LINE
  5
BA4
  8
C4
 10
290.97409695643051
 20
53.61305323337254
 30
0.0
 11
291.16877650008581
 21
53.912385615987887
 31
0.0
  0
ARC
  5
BA5
  8
C4
 10
289.38133009568332
 20
54.648955606815889
 30
0.0
 40
1.8999999999999999
 50
270.0
 51
326.96086318505871
  0
ARC
  5
BA6
  8
C4
 10
291.88133009568332
 20
68.848955606815906
 30
0.0
 40
0.85
 50
270.0
 51
326.96086318505741
  0
LINE
  5
BA7
  8
C4
 10
292.78856323493602
 20
68.684857980259238
 30
0.0
 11
292.59388369128072
 21
68.385525597643891
 31
0.0
  0
ARC
  5
BA8
  8
C4
 10
294.38133009568332
 20
67.648955606815889
 30
0.0
 40
1.8999999999999999
 50
90.0
 51
146.96086318505871
  0
ARC
  5
BA9
  8
C4
 10
291.88133009568332
 20
53.448955606815872
 30
0.0
 40
0.85
 50
33.039136814942502
 51
90.0
  0
LINE
  5
BAA
  8
C4
 10
292.78856323493602
 20
53.61305323337254
 30
0.0
 11
292.59388369128072
 21
53.912385615987887
 31
0.0
  0
ARC
  5
BAB
  8
C4
 10
294.38133009568332
 20
54.648955606815889
 30
0.0
 40
1.8999999999999999
 50
213.0391368149412
 51
270.0
  0
ARC
  5
BAC
  8
C4
 10
296.88133009568332
 20
68.848955606815906
 30
0.0
 40
0.85
 50
213.03913681494251
 51
270.0
  0
LINE
  5
BAD
  8
C4
 10
295.97409695643051
 20
68.684857980259238
 30
0.0
 11
296.16877650008581
 21
68.385525597643891
 31
0.0
  0
ARC
  5
BAE
  8
C4
 10
294.38133009568332
 20
67.648955606815889
 30
0.0
 40
1.8999999999999999
 50
33.039136814941259
 51
90.0
  0
ARC
  5
BAF
  8
C4
 10
296.88133009568332
 20
53.448955606815872
 30
0.0
 40
0.85
 50
90.0
 51
146.96086318505741
  0
LINE
  5
BB0
  8
C4
 10
295.97409695643051
 20
53.61305323337254
 30
0.0
 11
296.16877650008581
 21
53.912385615987887
 31
0.0
  0
ARC
  5
BB1
  8
C4
 10
294.38133009568332
 20
54.648955606815889
 30
0.0
 40
1.8999999999999999
 50
270.0
 51
326.96086318505871
  0
ARC
  5
BB2
  8
C4
 10
296.88133009568332
 20
68.848955606815906
 30
0.0
 40
0.85
 50
270.0
 51
326.96086318505741
  0
LINE
  5
BB3
  8
C4
 10
297.78856323493602
 20
68.684857980259238
 30
0.0
 11
297.59388369128072
 21
68.385525597643891
 31
0.0
  0
ARC
  5
BB4
  8
C4
 10
299.38133009568332
 20
67.648955606815889
 30
0.0
 40
1.8999999999999999
 50
90.0
 51
146.96086318505871
  0
ARC
  5
BB5
  8
C4
 10
296.88133009568332
 20
53.448955606815872
 30
0.0
 40
0.85
 50
33.039136814942502
 51
90.0
  0
LINE
  5
BB6
  8
C4
 10
297.78856323493602
 20
53.61305323337254
 30
0.0
 11
297.59388369128072
 21
53.912385615987887
 31
0.0
  0
ARC
  5
BB7
  8
C4
 10
299.38133009568332
 20
54.648955606815889
 30
0.0
 40
1.8999999999999999
 50
213.0391368149412
 51
270.0
  0
ARC
  5
BB8
  8
C4
 10
301.88133009568332
 20
68.848955606815906
 30
0.0
 40
0.85
 50
213.03913681494251
 51
270.0
  0
LINE
  5
BB9
  8
C4
 10
300.97409695643051
 20
68.684857980259238
 30
0.0
 11
301.16877650008581
 21
68.385525597643891
 31
0.0
  0
ARC
  5
BBA
  8
C4
 10
299.38133009568332
 20
67.648955606815889
 30
0.0
 40
1.8999999999999999
 50
33.039136814941259
 51
90.0
  0
ARC
  5
BBB
  8
C4
 10
301.88133009568332
 20
53.448955606815872
 30
0.0
 40
0.85
 50
90.0
 51
146.96086318505741
  0
LINE
  5
BBC
  8
C4
 10
300.97409695643051
 20
53.61305323337254
 30
0.0
 11
301.16877650008581
 21
53.912385615987887
 31
0.0
  0
ARC
  5
BBD
  8
C4
 10
299.38133009568332
 20
54.648955606815889
 30
0.0
 40
1.8999999999999999
 50
270.0
 51
326.96086318505871
  0
ARC
  5
BBE
  8
C4
 10
301.88133009568332
 20
68.848955606815906
 30
0.0
 40
0.85
 50
270.0
 51
326.96086318505741
  0
LINE
  5
BBF
  8
C4
 10
302.78856323493602
 20
68.684857980259238
 30
0.0
 11
302.59388369128072
 21
68.385525597643891
 31
0.0
  0
ARC
  5
BC0
  8
C4
 10
304.38133009568332
 20
67.648955606815889
 30
0.0
 40
1.8999999999999999
 50
90.0
 51
146.96086318505871
  0
ARC
  5
BC1
  8
C4
 10
301.88133009568332
 20
53.448955606815872
 30
0.0
 40
0.85
 50
33.039136814942502
 51
90.0
  0
LINE
  5
BC2
  8
C4
 10
302.78856323493602
 20
53.61305323337254
 30
0.0
 11
302.59388369128072
 21
53.912385615987887
 31
0.0
  0
ARC
  5
BC3
  8
C4
 10
304.38133009568332
 20
54.648955606815889
 30
0.0
 40
1.8999999999999999
 50
213.0391368149412
 51
270.0
  0
ARC
  5
BC4
  8
C4
 10
306.88133009568332
 20
68.848955606815906
 30
0.0
 40
0.85
 50
213.03913681494251
 51
270.0
  0
LINE
  5
BC5
  8
C4
 10
305.97409695643051
 20
68.684857980259238
 30
0.0
 11
306.16877650008581
 21
68.385525597643891
 31
0.0
  0
ARC
  5
BC6
  8
C4
 10
304.38133009568332
 20
67.648955606815889
 30
0.0
 40
1.8999999999999999
 50
33.039136814941259
 51
90.0
  0
ARC
  5
BC7
  8
C4
 10
306.88133009568332
 20
53.448955606815872
 30
0.0
 40
0.85
 50
90.0
 51
146.96086318505741
  0
LINE
  5
BC8
  8
C4
 10
305.97409695643051
 20
53.61305323337254
 30
0.0
 11
306.16877650008581
 21
53.912385615987887
 31
0.0
  0
ARC
  5
BC9
  8
C4
 10
304.38133009568332
 20
54.648955606815889
 30
0.0
 40
1.8999999999999999
 50
270.0
 51
326.96086318505871
  0
ARC
  5
BCA
  8
C4
 10
306.88133009568332
 20
68.848955606815906
 30
0.0
 40
0.85
 50
270.0
 51
326.96086318505741
  0
LINE
  5
BCB
  8
C4
 10
307.78856323493602
 20
68.684857980259238
 30
0.0
 11
307.59388369128072
 21
68.385525597643891
 31
0.0
  0
ARC
  5
BCC
  8
C4
 10
309.38133009568332
 20
67.648955606815889
 30
0.0
 40
1.8999999999999999
 50
90.0
 51
146.96086318505871
  0
ARC
  5
BCD
  8
C4
 10
306.88133009568332
 20
53.448955606815872
 30
0.0
 40
0.85
 50
33.039136814942502
 51
90.0
  0
LINE
  5
BCE
  8
C4
 10
307.78856323493602
 20
53.61305323337254
 30
0.0
 11
307.59388369128072
 21
53.912385615987887
 31
0.0
  0
ARC
  5
BCF
  8
C4
 10
309.38133009568332
 20
54.648955606815889
 30
0.0
 40
1.8999999999999999
 50
213.0391368149412
 51
270.0
  0
ARC
  5
BD0
  8
C4
 10
311.88133009568332
 20
68.848955606815906
 30
0.0
 40
0.85
 50
213.03913681494251
 51
270.0
  0
LINE
  5
BD1
  8
C4
 10
310.97409695643051
 20
68.684857980259238
 30
0.0
 11
311.16877650008581
 21
68.385525597643891
 31
0.0
  0
ARC
  5
BD2
  8
C4
 10
309.38133009568332
 20
67.648955606815889
 30
0.0
 40
1.8999999999999999
 50
33.039136814941259
 51
90.0
  0
ARC
  5
BD3
  8
C4
 10
311.88133009568332
 20
53.448955606815872
 30
0.0
 40
0.85
 50
90.0
 51
146.96086318505741
  0
LINE
  5
BD4
  8
C4
 10
310.97409695643051
 20
53.61305323337254
 30
0.0
 11
311.16877650008581
 21
53.912385615987887
 31
0.0
  0
ARC
  5
BD5
  8
C4
 10
309.38133009568332
 20
54.648955606815889
 30
0.0
 40
1.8999999999999999
 50
270.0
 51
326.96086318505871
  0
ARC
  5
BD6
  8
C4
 10
311.88133009568332
 20
68.848955606815906
 30
0.0
 40
0.85
 50
270.0
 51
326.96086318505741
  0
LINE
  5
BD7
  8
C4
 10
312.78856323493602
 20
68.684857980259238
 30
0.0
 11
312.59388369128078
 21
68.385525597643891
 31
0.0
  0
ARC
  5
BD8
  8
C4
 10
314.38133009568332
 20
67.648955606815889
 30
0.0
 40
1.8999999999999999
 50
90.0
 51
146.96086318505871
  0
ARC
  5
BD9
  8
C4
 10
311.88133009568332
 20
53.448955606815872
 30
0.0
 40
0.85
 50
33.039136814942502
 51
90.0
  0
LINE
  5
BDA
  8
C4
 10
312.78856323493602
 20
53.61305323337254
 30
0.0
 11
312.59388369128078
 21
53.912385615987887
 31
0.0
  0
ARC
  5
BDB
  8
C4
 10
314.38133009568332
 20
54.648955606815889
 30
0.0
 40
1.8999999999999999
 50
213.0391368149412
 51
270.0
  0
ARC
  5
BDC
  8
C4
 10
316.88133009568332
 20
68.848955606815906
 30
0.0
 40
0.85
 50
213.03913681494251
 51
270.0
  0
LINE
  5
BDD
  8
C4
 10
315.97409695643051
 20
68.684857980259238
 30
0.0
 11
316.16877650008581
 21
68.385525597643891
 31
0.0
  0
ARC
  5
BDE
  8
C4
 10
314.38133009568332
 20
67.648955606815889
 30
0.0
 40
1.8999999999999999
 50
33.039136814941259
 51
90.0
  0
ARC
  5
BDF
  8
C4
 10
316.88133009568332
 20
53.448955606815872
 30
0.0
 40
0.85
 50
90.0
 51
146.96086318505741
  0
LINE
  5
BE0
  8
C4
 10
315.97409695643051
 20
53.61305323337254
 30
0.0
 11
316.16877650008581
 21
53.912385615987887
 31
0.0
  0
ARC
  5
BE1
  8
C4
 10
314.38133009568332
 20
54.648955606815889
 30
0.0
 40
1.8999999999999999
 50
270.0
 51
326.96086318505871
  0
ARC
  5
BE2
  8
C4
 10
316.88133009568332
 20
68.848955606815906
 30
0.0
 40
0.85
 50
270.0
 51
326.96086318505741
  0
LINE
  5
BE3
  8
C4
 10
317.78856323493602
 20
68.684857980259238
 30
0.0
 11
317.59388369128072
 21
68.385525597643891
 31
0.0
  0
ARC
  5
BE4
  8
C4
 10
319.38133009568332
 20
67.648955606815889
 30
0.0
 40
1.8999999999999999
 50
90.0
 51
146.96086318505871
  0
ARC
  5
BE5
  8
C4
 10
316.88133009568332
 20
53.448955606815872
 30
0.0
 40
0.85
 50
33.039136814942502
 51
90.0
  0
LINE
  5
BE6
  8
C4
 10
317.78856323493602
 20
53.61305323337254
 30
0.0
 11
317.59388369128072
 21
53.912385615987887
 31
0.0
  0
ARC
  5
BE7
  8
C4
 10
319.38133009568332
 20
54.648955606815889
 30
0.0
 40
1.8999999999999999
 50
213.0391368149412
 51
270.0
  0
ARC
  5
BE8
  8
C4
 10
321.88133009568332
 20
68.848955606815906
 30
0.0
 40
0.85
 50
213.03913681494251
 51
270.0
  0
LINE
  5
BE9
  8
C4
 10
320.97409695643051
 20
68.684857980259238
 30
0.0
 11
321.16877650008581
 21
68.385525597643891
 31
0.0
  0
ARC
  5
BEA
  8
C4
 10
319.38133009568332
 20
67.648955606815889
 30
0.0
 40
1.8999999999999999
 50
33.039136814941259
 51
90.0
  0
ARC
  5
BEB
  8
C4
 10
321.88133009568332
 20
53.448955606815872
 30
0.0
 40
0.85
 50
90.0
 51
146.96086318505741
  0
LINE
  5
BEC
  8
C4
 10
320.97409695643051
 20
53.61305323337254
 30
0.0
 11
321.16877650008581
 21
53.912385615987887
 31
0.0
  0
ARC
  5
BED
  8
C4
 10
319.38133009568332
 20
54.648955606815889
 30
0.0
 40
1.8999999999999999
 50
270.0
 51
326.96086318505871
  0
ARC
  5
BEE
  8
C4
 10
321.88133009568332
 20
68.848955606815906
 30
0.0
 40
0.85
 50
270.0
 51
326.96086318505741
  0
LINE
  5
BEF
  8
C4
 10
322.78856323493602
 20
68.684857980259238
 30
0.0
 11
322.59388369128072
 21
68.385525597643891
 31
0.0
  0
ARC
  5
BF0
  8
C4
 10
324.38133009568332
 20
67.648955606815889
 30
0.0
 40
1.8999999999999999
 50
90.0
 51
146.96086318505871
  0
ARC
  5
BF1
  8
C4
 10
321.88133009568332
 20
53.448955606815872
 30
0.0
 40
0.85
 50
33.039136814942502
 51
90.0
  0
LINE
  5
BF2
  8
C4
 10
322.78856323493602
 20
53.61305323337254
 30
0.0
 11
322.59388369128072
 21
53.912385615987887
 31
0.0
  0
ARC
  5
BF3
  8
C4
 10
324.38133009568332
 20
54.648955606815889
 30
0.0
 40
1.8999999999999999
 50
213.0391368149412
 51
270.0
  0
ARC
  5
BF4
  8
C4
 10
326.88133009568332
 20
68.848955606815906
 30
0.0
 40
0.85
 50
213.03913681494251
 51
270.0
  0
LINE
  5
BF5
  8
C4
 10
325.97409695643051
 20
68.684857980259238
 30
0.0
 11
326.16877650008581
 21
68.385525597643891
 31
0.0
  0
ARC
  5
BF6
  8
C4
 10
324.38133009568332
 20
67.648955606815889
 30
0.0
 40
1.8999999999999999
 50
33.039136814941259
 51
90.0
  0
ARC
  5
BF7
  8
C4
 10
326.88133009568332
 20
53.448955606815872
 30
0.0
 40
0.85
 50
90.0
 51
146.96086318505741
  0
LINE
  5
BF8
  8
C4
 10
325.97409695643051
 20
53.61305323337254
 30
0.0
 11
326.16877650008581
 21
53.912385615987887
 31
0.0
  0
ARC
  5
BF9
  8
C4
 10
324.38133009568332
 20
54.648955606815889
 30
0.0
 40
1.8999999999999999
 50
270.0
 51
326.96086318505871
  0
ARC
  5
BFA
  8
C4
 10
326.88133009568332
 20
68.848955606815906
 30
0.0
 40
0.85
 50
270.0
 51
326.96086318505741
  0
LINE
  5
BFB
  8
C4
 10
327.78856323493602
 20
68.684857980259238
 30
0.0
 11
327.59388369128072
 21
68.385525597643891
 31
0.0
  0
ARC
  5
BFC
  8
C4
 10
329.38133009568332
 20
67.648955606815889
 30
0.0
 40
1.8999999999999999
 50
90.0
 51
146.96086318505871
  0
ARC
  5
BFD
  8
C4
 10
326.88133009568332
 20
53.448955606815872
 30
0.0
 40
0.85
 50
33.039136814942502
 51
90.0
  0
LINE
  5
BFE
  8
C4
 10
327.78856323493602
 20
53.61305323337254
 30
0.0
 11
327.59388369128072
 21
53.912385615987887
 31
0.0
  0
ARC
  5
BFF
  8
C4
 10
329.38133009568332
 20
54.648955606815889
 30
0.0
 40
1.8999999999999999
 50
213.0391368149412
 51
270.0
  0
ARC
  5
C00
  8
C4
 10
331.88133009568332
 20
68.848955606815906
 30
0.0
 40
0.85
 50
213.03913681494251
 51
270.0
  0
LINE
  5
C01
  8
C4
 10
330.97409695643051
 20
68.684857980259238
 30
0.0
 11
331.16877650008581
 21
68.385525597643891
 31
0.0
  0
ARC
  5
C02
  8
C4
 10
329.38133009568332
 20
67.648955606815889
 30
0.0
 40
1.8999999999999999
 50
33.039136814941259
 51
90.0
  0
ARC
  5
C03
  8
C4
 10
331.88133009568332
 20
53.448955606815872
 30
0.0
 40
0.85
 50
90.0
 51
146.96086318505741
  0
LINE
  5
C04
  8
C4
 10
330.97409695643051
 20
53.61305323337254
 30
0.0
 11
331.16877650008581
 21
53.912385615987887
 31
0.0
  0
ARC
  5
C05
  8
C4
 10
329.38133009568332
 20
54.648955606815889
 30
0.0
 40
1.8999999999999999
 50
270.0
 51
326.96086318505871
  0
ARC
  5
C06
  8
C4
 10
331.88133009568332
 20
68.848955606815906
 30
0.0
 40
0.85
 50
270.0
 51
326.96086318505741
  0
LINE
  5
C07
  8
C4
 10
332.78856323493602
 20
68.684857980259238
 30
0.0
 11
332.59388369128072
 21
68.385525597643891
 31
0.0
  0
ARC
  5
C08
  8
C4
 10
334.38133009568332
 20
67.648955606815889
 30
0.0
 40
1.8999999999999999
 50
90.0
 51
146.96086318505871
  0
ARC
  5
C09
  8
C4
 10
331.88133009568332
 20
53.448955606815872
 30
0.0
 40
0.85
 50
33.039136814942502
 51
90.0
  0
LINE
  5
C0A
  8
C4
 10
332.78856323493602
 20
53.61305323337254
 30
0.0
 11
332.59388369128072
 21
53.912385615987887
 31
0.0
  0
ARC
  5
C0B
  8
C4
 10
334.38133009568332
 20
54.648955606815889
 30
0.0
 40
1.8999999999999999
 50
213.0391368149412
 51
270.0
  0
ARC
  5
C0C
  8
C4
 10
336.88133009568332
 20
68.848955606815906
 30
0.0
 40
0.85
 50
213.03913681494251
 51
270.0
  0
LINE
  5
C0D
  8
C4
 10
335.97409695643051
 20
68.684857980259238
 30
0.0
 11
336.16877650008581
 21
68.385525597643891
 31
0.0
  0
ARC
  5
C0E
  8
C4
 10
334.38133009568332
 20
67.648955606815889
 30
0.0
 40
1.8999999999999999
 50
33.039136814941259
 51
90.0
  0
ARC
  5
C0F
  8
C4
 10
336.88133009568332
 20
53.448955606815872
 30
0.0
 40
0.85
 50
90.0
 51
146.96086318505741
  0
LINE
  5
C10
  8
C4
 10
335.97409695643051
 20
53.61305323337254
 30
0.0
 11
336.16877650008581
 21
53.912385615987887
 31
0.0
  0
ARC
  5
C11
  8
C4
 10
334.38133009568332
 20
54.648955606815889
 30
0.0
 40
1.8999999999999999
 50
270.0
 51
326.96086318505871
  0
ARC
  5
C12
  8
C4
 10
336.88133009568332
 20
68.848955606815906
 30
0.0
 40
0.85
 50
270.0
 51
326.96086318505741
  0
LINE
  5
C13
  8
C4
 10
337.78856323493602
 20
68.684857980259238
 30
0.0
 11
337.59388369128078
 21
68.385525597643891
 31
0.0
  0
ARC
  5
C14
  8
C4
 10
339.38133009568332
 20
67.648955606815889
 30
0.0
 40
1.8999999999999999
 50
90.0
 51
146.96086318505871
  0
ARC
  5
C15
  8
C4
 10
336.88133009568332
 20
53.448955606815872
 30
0.0
 40
0.85
 50
33.039136814942502
 51
90.0
  0
LINE
  5
C16
  8
C4
 10
337.78856323493602
 20
53.61305323337254
 30
0.0
 11
337.59388369128078
 21
53.912385615987887
 31
0.0
  0
ARC
  5
C17
  8
C4
 10
339.38133009568332
 20
54.648955606815889
 30
0.0
 40
1.8999999999999999
 50
213.0391368149412
 51
270.0
  0
ARC
  5
C18
  8
C4
 10
341.88133009568332
 20
68.848955606815906
 30
0.0
 40
0.85
 50
213.03913681494251
 51
270.0
  0
LINE
  5
C19
  8
C4
 10
340.97409695643051
 20
68.684857980259238
 30
0.0
 11
341.16877650008581
 21
68.385525597643891
 31
0.0
  0
ARC
  5
C1A
  8
C4
 10
339.38133009568332
 20
67.648955606815889
 30
0.0
 40
1.8999999999999999
 50
33.039136814941259
 51
90.0
  0
ARC
  5
C1B
  8
C4
 10
341.88133009568332
 20
53.448955606815872
 30
0.0
 40
0.85
 50
90.0
 51
146.96086318505741
  0
LINE
  5
C1C
  8
C4
 10
340.97409695643051
 20
53.61305323337254
 30
0.0
 11
341.16877650008581
 21
53.912385615987887
 31
0.0
  0
ARC
  5
C1D
  8
C4
 10
339.38133009568332
 20
54.648955606815889
 30
0.0
 40
1.8999999999999999
 50
270.0
 51
326.96086318505871
  0
ARC
  5
C1E
  8
C4
 10
341.88133009568332
 20
68.848955606815906
 30
0.0
 40
0.85
 50
270.0
 51
326.96086318505741
  0
LINE
  5
C1F
  8
C4
 10
342.78856323493602
 20
68.684857980259238
 30
0.0
 11
342.59388369128072
 21
68.385525597643891
 31
0.0
  0
ARC
  5
C20
  8
C4
 10
344.38133009568332
 20
67.648955606815889
 30
0.0
 40
1.8999999999999999
 50
90.0
 51
146.96086318505871
  0
ARC
  5
C21
  8
C4
 10
341.88133009568332
 20
53.448955606815872
 30
0.0
 40
0.85
 50
33.039136814942502
 51
90.0
  0
LINE
  5
C22
  8
C4
 10
342.78856323493602
 20
53.61305323337254
 30
0.0
 11
342.59388369128072
 21
53.912385615987887
 31
0.0
  0
ARC
  5
C23
  8
C4
 10
344.38133009568332
 20
54.648955606815889
 30
0.0
 40
1.8999999999999999
 50
213.0391368149412
 51
270.0
  0
ARC
  5
C24
  8
C4
 10
346.88133009568332
 20
68.848955606815906
 30
0.0
 40
0.85
 50
213.03913681494251
 51
270.0
  0
LINE
  5
C25
  8
C4
 10
345.97409695643051
 20
68.684857980259238
 30
0.0
 11
346.16877650008581
 21
68.385525597643891
 31
0.0
  0
ARC
  5
C26
  8
C4
 10
344.38133009568332
 20
67.648955606815889
 30
0.0
 40
1.8999999999999999
 50
33.039136814941259
 51
90.0
  0
ARC
  5
C27
  8
C4
 10
346.88133009568332
 20
53.448955606815872
 30
0.0
 40
0.85
 50
90.0
 51
146.96086318505741
  0
LINE
  5
C28
  8
C4
 10
345.97409695643051
 20
53.61305323337254
 30
0.0
 11
346.16877650008581
 21
53.912385615987887
 31
0.0
  0
ARC
  5
C29
  8
C4
 10
344.38133009568332
 20
54.648955606815889
 30
0.0
 40
1.8999999999999999
 50
270.0
 51
326.96086318505871
  0
ARC
  5
C2A
  8
C4
 10
346.88133009568332
 20
68.848955606815906
 30
0.0
 40
0.85
 50
270.0
 51
326.96086318505741
  0
LINE
  5
C2B
  8
C4
 10
347.78856323493602
 20
68.684857980259238
 30
0.0
 11
347.59388369128072
 21
68.385525597643891
 31
0.0
  0
ARC
  5
C2C
  8
C4
 10
349.38133009568332
 20
67.648955606815889
 30
0.0
 40
1.8999999999999999
 50
90.0
 51
146.96086318505871
  0
ARC
  5
C2D
  8
C4
 10
346.88133009568332
 20
53.448955606815872
 30
0.0
 40
0.85
 50
33.039136814942502
 51
90.0
  0
LINE
  5
C2E
  8
C4
 10
347.78856323493602
 20
53.61305323337254
 30
0.0
 11
347.59388369128072
 21
53.912385615987887
 31
0.0
  0
ARC
  5
C2F
  8
C4
 10
349.38133009568332
 20
54.648955606815889
 30
0.0
 40
1.8999999999999999
 50
213.0391368149412
 51
270.0
  0
ARC
  5
C30
  8
C4
 10
351.88133009568332
 20
68.848955606815906
 30
0.0
 40
0.85
 50
213.03913681494251
 51
270.0
  0
LINE
  5
C31
  8
C4
 10
350.97409695643051
 20
68.684857980259238
 30
0.0
 11
351.16877650008581
 21
68.385525597643891
 31
0.0
  0
ARC
  5
C32
  8
C4
 10
349.38133009568332
 20
67.648955606815889
 30
0.0
 40
1.8999999999999999
 50
33.039136814941259
 51
90.0
  0
ARC
  5
C33
  8
C4
 10
351.88133009568332
 20
53.448955606815872
 30
0.0
 40
0.85
 50
90.0
 51
146.96086318505741
  0
LINE
  5
C34
  8
C4
 10
350.97409695643051
 20
53.61305323337254
 30
0.0
 11
351.16877650008581
 21
53.912385615987887
 31
0.0
  0
ARC
  5
C35
  8
C4
 10
349.38133009568332
 20
54.648955606815889
 30
0.0
 40
1.8999999999999999
 50
270.0
 51
326.96086318505871
  0
ARC
  5
C36
  8
C4
 10
351.88133009568332
 20
68.848955606815906
 30
0.0
 40
0.85
 50
270.0
 51
326.96086318505741
  0
LINE
  5
C37
  8
C4
 10
352.78856323493602
 20
68.684857980259238
 30
0.0
 11
352.59388369128072
 21
68.385525597643891
 31
0.0
  0
ARC
  5
C38
  8
C4
 10
354.38133009568332
 20
67.648955606815889
 30
0.0
 40
1.8999999999999999
 50
90.0
 51
146.96086318505871
  0
ARC
  5
C39
  8
C4
 10
351.88133009568332
 20
53.448955606815872
 30
0.0
 40
0.85
 50
33.039136814942502
 51
90.0
  0
LINE
  5
C3A
  8
C4
 10
352.78856323493602
 20
53.61305323337254
 30
0.0
 11
352.59388369128072
 21
53.912385615987887
 31
0.0
  0
ARC
  5
C3B
  8
C4
 10
354.38133009568332
 20
54.648955606815889
 30
0.0
 40
1.8999999999999999
 50
213.0391368149412
 51
270.0
  0
ARC
  5
C3C
  8
C4
 10
356.88133009568332
 20
68.848955606815906
 30
0.0
 40
0.85
 50
213.03913681494251
 51
270.0
  0
LINE
  5
C3D
  8
C4
 10
355.97409695643051
 20
68.684857980259238
 30
0.0
 11
356.16877650008581
 21
68.385525597643891
 31
0.0
  0
ARC
  5
C3E
  8
C4
 10
354.38133009568332
 20
67.648955606815889
 30
0.0
 40
1.8999999999999999
 50
33.039136814941259
 51
90.0
  0
ARC
  5
C3F
  8
C4
 10
356.88133009568332
 20
53.448955606815872
 30
0.0
 40
0.85
 50
90.0
 51
146.96086318505741
  0
LINE
  5
C40
  8
C4
 10
355.97409695643051
 20
53.61305323337254
 30
0.0
 11
356.16877650008581
 21
53.912385615987887
 31
0.0
  0
ARC
  5
C41
  8
C4
 10
354.38133009568332
 20
54.648955606815889
 30
0.0
 40
1.8999999999999999
 50
270.0
 51
326.96086318505871
  0
ARC
  5
C42
  8
C4
 10
356.88133009568332
 20
68.848955606815906
 30
0.0
 40
0.85
 50
270.0
 51
326.96086318505741
  0
LINE
  5
C43
  8
C4
 10
357.78856323493602
 20
68.684857980259238
 30
0.0
 11
357.59388369128072
 21
68.385525597643891
 31
0.0
  0
ARC
  5
C44
  8
C4
 10
359.38133009568332
 20
67.648955606815889
 30
0.0
 40
1.8999999999999999
 50
90.0
 51
146.96086318505871
  0
ARC
  5
C45
  8
C4
 10
356.88133009568332
 20
53.448955606815872
 30
0.0
 40
0.85
 50
33.039136814942502
 51
90.0
  0
LINE
  5
C46
  8
C4
 10
357.78856323493602
 20
53.61305323337254
 30
0.0
 11
357.59388369128072
 21
53.912385615987887
 31
0.0
  0
ARC
  5
C47
  8
C4
 10
359.38133009568332
 20
54.648955606815889
 30
0.0
 40
1.8999999999999999
 50
213.0391368149412
 51
270.0
  0
ARC
  5
C48
  8
C4
 10
361.88133009568332
 20
68.848955606815906
 30
0.0
 40
0.85
 50
213.03913681494251
 51
270.0
  0
LINE
  5
C49
  8
C4
 10
360.97409695643051
 20
68.684857980259238
 30
0.0
 11
361.16877650008581
 21
68.385525597643891
 31
0.0
  0
ARC
  5
C4A
  8
C4
 10
359.38133009568332
 20
67.648955606815889
 30
0.0
 40
1.8999999999999999
 50
33.039136814941259
 51
90.0
  0
ARC
  5
C4B
  8
C4
 10
361.88133009568332
 20
53.448955606815872
 30
0.0
 40
0.85
 50
90.0
 51
146.96086318505741
  0
LINE
  5
C4C
  8
C4
 10
360.97409695643051
 20
53.61305323337254
 30
0.0
 11
361.16877650008581
 21
53.912385615987887
 31
0.0
  0
ARC
  5
C4D
  8
C4
 10
359.38133009568332
 20
54.648955606815889
 30
0.0
 40
1.8999999999999999
 50
270.0
 51
326.96086318505871
  0
ARC
  5
C4E
  8
C4
 10
361.88133009568332
 20
68.848955606815906
 30
0.0
 40
0.85
 50
270.0
 51
326.96086318505741
  0
LINE
  5
C4F
  8
C4
 10
362.78856323493602
 20
68.684857980259238
 30
0.0
 11
362.59388369128078
 21
68.385525597643891
 31
0.0
  0
ARC
  5
C50
  8
C4
 10
364.38133009568332
 20
67.648955606815889
 30
0.0
 40
1.8999999999999999
 50
90.0
 51
146.96086318505871
  0
ARC
  5
C51
  8
C4
 10
361.88133009568332
 20
53.448955606815872
 30
0.0
 40
0.85
 50
33.039136814942502
 51
90.0
  0
LINE
  5
C52
  8
C4
 10
362.78856323493602
 20
53.61305323337254
 30
0.0
 11
362.59388369128078
 21
53.912385615987887
 31
0.0
  0
ARC
  5
C53
  8
C4
 10
364.38133009568332
 20
54.648955606815889
 30
0.0
 40
1.8999999999999999
 50
213.0391368149412
 51
270.0
  0
ARC
  5
C54
  8
C4
 10
366.88133009568332
 20
68.848955606815906
 30
0.0
 40
0.85
 50
213.03913681494251
 51
270.0
  0
LINE
  5
C55
  8
C4
 10
365.97409695643051
 20
68.684857980259238
 30
0.0
 11
366.16877650008581
 21
68.385525597643891
 31
0.0
  0
ARC
  5
C56
  8
C4
 10
364.38133009568332
 20
67.648955606815889
 30
0.0
 40
1.8999999999999999
 50
33.039136814941259
 51
90.0
  0
ARC
  5
C57
  8
C4
 10
366.88133009568332
 20
53.448955606815872
 30
0.0
 40
0.85
 50
90.0
 51
146.96086318505741
  0
LINE
  5
C58
  8
C4
 10
365.97409695643051
 20
53.61305323337254
 30
0.0
 11
366.16877650008581
 21
53.912385615987887
 31
0.0
  0
ARC
  5
C59
  8
C4
 10
364.38133009568332
 20
54.648955606815889
 30
0.0
 40
1.8999999999999999
 50
270.0
 51
326.96086318505871
  0
ARC
  5
C5A
  8
C4
 10
366.88133009568332
 20
68.848955606815906
 30
0.0
 40
0.85
 50
270.0
 51
326.96086318505741
  0
LINE
  5
C5B
  8
C4
 10
367.78856323493602
 20
68.684857980259238
 30
0.0
 11
367.59388369128072
 21
68.385525597643891
 31
0.0
  0
ARC
  5
C5C
  8
C4
 10
369.38133009568332
 20
67.648955606815889
 30
0.0
 40
1.8999999999999999
 50
90.0
 51
146.96086318505871
  0
ARC
  5
C5D
  8
C4
 10
366.88133009568332
 20
53.448955606815872
 30
0.0
 40
0.85
 50
33.039136814942502
 51
90.0
  0
LINE
  5
C5E
  8
C4
 10
367.78856323493602
 20
53.61305323337254
 30
0.0
 11
367.59388369128072
 21
53.912385615987887
 31
0.0
  0
ARC
  5
C5F
  8
C4
 10
369.38133009568332
 20
54.648955606815889
 30
0.0
 40
1.8999999999999999
 50
213.0391368149412
 51
270.0
  0
ARC
  5
C60
  8
C4
 10
371.88133009568332
 20
68.848955606815906
 30
0.0
 40
0.85
 50
213.03913681494251
 51
270.0
  0
LINE
  5
C61
  8
C4
 10
370.97409695643051
 20
68.684857980259238
 30
0.0
 11
371.16877650008581
 21
68.385525597643891
 31
0.0
  0
ARC
  5
C62
  8
C4
 10
369.38133009568332
 20
67.648955606815889
 30
0.0
 40
1.8999999999999999
 50
33.039136814941259
 51
90.0
  0
ARC
  5
C63
  8
C4
 10
371.88133009568332
 20
53.448955606815872
 30
0.0
 40
0.85
 50
90.0
 51
146.96086318505741
  0
LINE
  5
C64
  8
C4
 10
370.97409695643051
 20
53.61305323337254
 30
0.0
 11
371.16877650008581
 21
53.912385615987887
 31
0.0
  0
ARC
  5
C65
  8
C4
 10
369.38133009568332
 20
54.648955606815889
 30
0.0
 40
1.8999999999999999
 50
270.0
 51
326.96086318505871
  0
ARC
  5
C66
  8
C4
 10
371.88133009568332
 20
68.848955606815906
 30
0.0
 40
0.85
 50
270.0
 51
326.96086318505741
  0
LINE
  5
C67
  8
C4
 10
372.78856323493602
 20
68.684857980259238
 30
0.0
 11
372.59388369128072
 21
68.385525597643891
 31
0.0
  0
ARC
  5
C68
  8
C4
 10
374.38133009568332
 20
67.648955606815889
 30
0.0
 40
1.8999999999999999
 50
90.0
 51
146.96086318505871
  0
ARC
  5
C69
  8
C4
 10
371.88133009568332
 20
53.448955606815872
 30
0.0
 40
0.85
 50
33.039136814942502
 51
90.0
  0
LINE
  5
C6A
  8
C4
 10
372.78856323493602
 20
53.61305323337254
 30
0.0
 11
372.59388369128072
 21
53.912385615987887
 31
0.0
  0
ARC
  5
C6B
  8
C4
 10
374.38133009568332
 20
54.648955606815889
 30
0.0
 40
1.8999999999999999
 50
213.0391368149412
 51
270.0
  0
ARC
  5
C6C
  8
C4
 10
376.88133009568332
 20
68.848955606815906
 30
0.0
 40
0.85
 50
213.03913681494251
 51
270.0
  0
LINE
  5
C6D
  8
C4
 10
375.97409695643051
 20
68.684857980259238
 30
0.0
 11
376.16877650008581
 21
68.385525597643891
 31
0.0
  0
ARC
  5
C6E
  8
C4
 10
374.38133009568332
 20
67.648955606815889
 30
0.0
 40
1.8999999999999999
 50
33.039136814941259
 51
90.0
  0
ARC
  5
C6F
  8
C4
 10
376.88133009568332
 20
53.448955606815872
 30
0.0
 40
0.85
 50
90.0
 51
146.96086318505741
  0
LINE
  5
C70
  8
C4
 10
375.97409695643051
 20
53.61305323337254
 30
0.0
 11
376.16877650008581
 21
53.912385615987887
 31
0.0
  0
ARC
  5
C71
  8
C4
 10
374.38133009568332
 20
54.648955606815889
 30
0.0
 40
1.8999999999999999
 50
270.0
 51
326.96086318505871
  0
ARC
  5
C72
  8
C4
 10
376.88133009568332
 20
68.848955606815906
 30
0.0
 40
0.85
 50
270.0
 51
326.96086318505741
  0
LINE
  5
C73
  8
C4
 10
377.78856323493602
 20
68.684857980259238
 30
0.0
 11
377.59388369128072
 21
68.385525597643891
 31
0.0
  0
ARC
  5
C74
  8
C4
 10
379.38133009568332
 20
67.648955606815889
 30
0.0
 40
1.8999999999999999
 50
90.0
 51
146.96086318505871
  0
ARC
  5
C75
  8
C4
 10
376.88133009568332
 20
53.448955606815872
 30
0.0
 40
0.85
 50
33.039136814942502
 51
90.0
  0
LINE
  5
C76
  8
C4
 10
377.78856323493602
 20
53.61305323337254
 30
0.0
 11
377.59388369128072
 21
53.912385615987887
 31
0.0
  0
ARC
  5
C77
  8
C4
 10
379.38133009568332
 20
54.648955606815889
 30
0.0
 40
1.8999999999999999
 50
213.0391368149412
 51
270.0
  0
ARC
  5
C78
  8
C4
 10
381.88133009568332
 20
68.848955606815906
 30
0.0
 40
0.85
 50
213.03913681494251
 51
270.0
  0
LINE
  5
C79
  8
C4
 10
380.97409695643051
 20
68.684857980259238
 30
0.0
 11
381.16877650008581
 21
68.385525597643891
 31
0.0
  0
ARC
  5
C7A
  8
C4
 10
379.38133009568332
 20
67.648955606815889
 30
0.0
 40
1.8999999999999999
 50
33.039136814941259
 51
90.0
  0
ARC
  5
C7B
  8
C4
 10
381.88133009568332
 20
53.448955606815872
 30
0.0
 40
0.85
 50
90.0
 51
146.96086318505741
  0
LINE
  5
C7C
  8
C4
 10
380.97409695643051
 20
53.61305323337254
 30
0.0
 11
381.16877650008581
 21
53.912385615987887
 31
0.0
  0
ARC
  5
C7D
  8
C4
 10
379.38133009568332
 20
54.648955606815889
 30
0.0
 40
1.8999999999999999
 50
270.0
 51
326.96086318505871
  0
ARC
  5
C7E
  8
C4
 10
381.88133009568332
 20
68.848955606815906
 30
0.0
 40
0.85
 50
270.0
 51
326.96086318505741
  0
LINE
  5
C7F
  8
C4
 10
382.78856323493602
 20
68.684857980259238
 30
0.0
 11
382.59388369128072
 21
68.385525597643891
 31
0.0
  0
ARC
  5
C80
  8
C4
 10
384.38133009568332
 20
67.648955606815889
 30
0.0
 40
1.8999999999999999
 50
90.0
 51
146.96086318505871
  0
ARC
  5
C81
  8
C4
 10
381.88133009568332
 20
53.448955606815872
 30
0.0
 40
0.85
 50
33.039136814942502
 51
90.0
  0
LINE
  5
C82
  8
C4
 10
382.78856323493602
 20
53.61305323337254
 30
0.0
 11
382.59388369128072
 21
53.912385615987887
 31
0.0
  0
ARC
  5
C83
  8
C4
 10
384.38133009568332
 20
54.648955606815889
 30
0.0
 40
1.8999999999999999
 50
213.0391368149412
 51
270.0
  0
ARC
  5
C84
  8
C4
 10
386.88133009568332
 20
68.848955606815906
 30
0.0
 40
0.85
 50
213.03913681494251
 51
270.0
  0
LINE
  5
C85
  8
C4
 10
385.97409695643051
 20
68.684857980259238
 30
0.0
 11
386.16877650008581
 21
68.385525597643891
 31
0.0
  0
ARC
  5
C86
  8
C4
 10
384.38133009568332
 20
67.648955606815889
 30
0.0
 40
1.8999999999999999
 50
33.039136814941259
 51
90.0
  0
ARC
  5
C87
  8
C4
 10
386.88133009568332
 20
53.448955606815872
 30
0.0
 40
0.85
 50
90.0
 51
146.96086318505741
  0
LINE
  5
C88
  8
C4
 10
385.97409695643051
 20
53.61305323337254
 30
0.0
 11
386.16877650008581
 21
53.912385615987887
 31
0.0
  0
ARC
  5
C89
  8
C4
 10
384.38133009568332
 20
54.648955606815889
 30
0.0
 40
1.8999999999999999
 50
270.0
 51
326.96086318505871
  0
ARC
  5
C8A
  8
C4
 10
386.88133009568332
 20
68.848955606815906
 30
0.0
 40
0.85
 50
270.0
 51
326.96086318505741
  0
LINE
  5
C8B
  8
C4
 10
387.78856323493602
 20
68.684857980259238
 30
0.0
 11
387.59388369128078
 21
68.385525597643891
 31
0.0
  0
ARC
  5
C8C
  8
C4
 10
389.38133009568332
 20
67.648955606815889
 30
0.0
 40
1.8999999999999999
 50
90.0
 51
146.96086318505871
  0
ARC
  5
C8D
  8
C4
 10
386.88133009568332
 20
53.448955606815872
 30
0.0
 40
0.85
 50
33.039136814942502
 51
90.0
  0
LINE
  5
C8E
  8
C4
 10
387.78856323493602
 20
53.61305323337254
 30
0.0
 11
387.59388369128078
 21
53.912385615987887
 31
0.0
  0
ARC
  5
C8F
  8
C4
 10
389.38133009568332
 20
54.648955606815889
 30
0.0
 40
1.8999999999999999
 50
213.0391368149412
 51
270.0
  0
ARC
  5
C90
  8
C4
 10
391.88133009568332
 20
68.848955606815906
 30
0.0
 40
0.85
 50
213.03913681494251
 51
270.0
  0
LINE
  5
C91
  8
C4
 10
390.97409695643051
 20
68.684857980259238
 30
0.0
 11
391.16877650008581
 21
68.385525597643891
 31
0.0
  0
ARC
  5
C92
  8
C4
 10
389.38133009568332
 20
67.648955606815889
 30
0.0
 40
1.8999999999999999
 50
33.039136814941259
 51
90.0
  0
ARC
  5
C93
  8
C4
 10
391.88133009568332
 20
53.448955606815872
 30
0.0
 40
0.85
 50
90.0
 51
146.96086318505741
  0
LINE
  5
C94
  8
C4
 10
390.97409695643051
 20
53.61305323337254
 30
0.0
 11
391.16877650008581
 21
53.912385615987887
 31
0.0
  0
ARC
  5
C95
  8
C4
 10
389.38133009568332
 20
54.648955606815889
 30
0.0
 40
1.8999999999999999
 50
270.0
 51
326.96086318505871
  0
ARC
  5
C96
  8
C4
 10
391.88133009568332
 20
68.848955606815906
 30
0.0
 40
0.85
 50
270.0
 51
326.96086318505741
  0
LINE
  5
C97
  8
C4
 10
392.78856323493602
 20
68.684857980259238
 30
0.0
 11
392.59388369128072
 21
68.385525597643891
 31
0.0
  0
ARC
  5
C98
  8
C4
 10
394.38133009568332
 20
67.648955606815889
 30
0.0
 40
1.8999999999999999
 50
90.0
 51
146.96086318505871
  0
ARC
  5
C99
  8
C4
 10
391.88133009568332
 20
53.448955606815872
 30
0.0
 40
0.85
 50
33.039136814942502
 51
90.0
  0
LINE
  5
C9A
  8
C4
 10
392.78856323493602
 20
53.61305323337254
 30
0.0
 11
392.59388369128072
 21
53.912385615987887
 31
0.0
  0
ARC
  5
C9B
  8
C4
 10
394.38133009568332
 20
54.648955606815889
 30
0.0
 40
1.8999999999999999
 50
213.0391368149412
 51
270.0
  0
ARC
  5
C9C
  8
C4
 10
396.88133009568332
 20
68.848955606815906
 30
0.0
 40
0.85
 50
213.03913681494251
 51
270.0
  0
LINE
  5
C9D
  8
C4
 10
395.97409695643051
 20
68.684857980259238
 30
0.0
 11
396.16877650008581
 21
68.385525597643891
 31
0.0
  0
ARC
  5
C9E
  8
C4
 10
394.38133009568332
 20
67.648955606815889
 30
0.0
 40
1.8999999999999999
 50
33.039136814941259
 51
90.0
  0
ARC
  5
C9F
  8
C4
 10
396.88133009568332
 20
53.448955606815872
 30
0.0
 40
0.85
 50
90.0
 51
146.96086318505741
  0
LINE
  5
CA0
  8
C4
 10
395.97409695643051
 20
53.61305323337254
 30
0.0
 11
396.16877650008581
 21
53.912385615987887
 31
0.0
  0
ARC
  5
CA1
  8
C4
 10
394.38133009568332
 20
54.648955606815889
 30
0.0
 40
1.8999999999999999
 50
270.0
 51
326.96086318505871
  0
ARC
  5
CA2
  8
C4
 10
396.88133009568332
 20
68.848955606815906
 30
0.0
 40
0.85
 50
270.0
 51
326.96086318505741
  0
LINE
  5
CA3
  8
C4
 10
397.78856323493602
 20
68.684857980259238
 30
0.0
 11
397.59388369128072
 21
68.385525597643891
 31
0.0
  0
ARC
  5
CA4
  8
C4
 10
399.38133009568332
 20
67.648955606815889
 30
0.0
 40
1.8999999999999999
 50
90.0
 51
146.96086318505871
  0
ARC
  5
CA5
  8
C4
 10
396.88133009568332
 20
53.448955606815872
 30
0.0
 40
0.85
 50
33.039136814942502
 51
90.0
  0
LINE
  5
CA6
  8
C4
 10
397.78856323493602
 20
53.61305323337254
 30
0.0
 11
397.59388369128072
 21
53.912385615987887
 31
0.0
  0
ARC
  5
CA7
  8
C4
 10
399.38133009568332
 20
54.648955606815889
 30
0.0
 40
1.8999999999999999
 50
213.0391368149412
 51
270.0
  0
ARC
  5
CA8
  8
C4
 10
401.88133009568332
 20
68.848955606815906
 30
0.0
 40
0.85
 50
213.03913681494251
 51
270.0
  0
LINE
  5
CA9
  8
C4
 10
400.97409695643063
 20
68.684857980259238
 30
0.0
 11
401.16877650008581
 21
68.385525597643891
 31
0.0
  0
ARC
  5
CAA
  8
C4
 10
399.38133009568332
 20
67.648955606815889
 30
0.0
 40
1.8999999999999999
 50
33.039136814941259
 51
90.0
  0
ARC
  5
CAB
  8
C4
 10
401.88133009568332
 20
53.448955606815872
 30
0.0
 40
0.85
 50
90.0
 51
146.96086318505741
  0
LINE
  5
CAC
  8
C4
 10
400.97409695643063
 20
53.61305323337254
 30
0.0
 11
401.16877650008581
 21
53.912385615987887
 31
0.0
  0
ARC
  5
CAD
  8
C4
 10
399.38133009568332
 20
54.648955606815889
 30
0.0
 40
1.8999999999999999
 50
270.0
 51
326.96086318505871
  0
ARC
  5
CAE
  8
C4
 10
401.88133009568332
 20
68.848955606815906
 30
0.0
 40
0.85
 50
270.0
 51
326.96086318505741
  0
LINE
  5
CAF
  8
C4
 10
402.78856323493602
 20
68.684857980259238
 30
0.0
 11
402.59388369128072
 21
68.385525597643891
 31
0.0
  0
ARC
  5
CB0
  8
C4
 10
404.38133009568321
 20
67.648955606815889
 30
0.0
 40
1.8999999999999999
 50
90.0
 51
146.96086318505871
  0
ARC
  5
CB1
  8
C4
 10
401.88133009568332
 20
53.448955606815872
 30
0.0
 40
0.85
 50
33.039136814942502
 51
90.0
  0
LINE
  5
CB2
  8
C4
 10
402.78856323493602
 20
53.61305323337254
 30
0.0
 11
402.59388369128072
 21
53.912385615987887
 31
0.0
  0
ARC
  5
CB3
  8
C4
 10
404.38133009568321
 20
54.648955606815889
 30
0.0
 40
1.8999999999999999
 50
213.0391368149412
 51
270.0
  0
ARC
  5
CB4
  8
C4
 10
406.88133009568332
 20
68.848955606815906
 30
0.0
 40
0.85
 50
213.03913681494251
 51
270.0
  0
LINE
  5
CB5
  8
C4
 10
405.97409695643051
 20
68.684857980259238
 30
0.0
 11
406.16877650008593
 21
68.385525597643891
 31
0.0
  0
ARC
  5
CB6
  8
C4
 10
404.38133009568321
 20
67.648955606815889
 30
0.0
 40
1.8999999999999999
 50
33.039136814941259
 51
90.0
  0
ARC
  5
CB7
  8
C4
 10
406.88133009568332
 20
53.448955606815872
 30
0.0
 40
0.85
 50
90.0
 51
146.96086318505741
  0
LINE
  5
CB8
  8
C4
 10
405.97409695643051
 20
53.61305323337254
 30
0.0
 11
406.16877650008593
 21
53.912385615987887
 31
0.0
  0
ARC
  5
CB9
  8
C4
 10
404.38133009568321
 20
54.648955606815889
 30
0.0
 40
1.8999999999999999
 50
270.0
 51
326.96086318505871
  0
ARC
  5
CBA
  8
C4
 10
406.88133009568332
 20
68.848955606815906
 30
0.0
 40
0.85
 50
270.0
 51
326.96086318505741
  0
LINE
  5
CBB
  8
C4
 10
407.78856323493602
 20
68.684857980259238
 30
0.0
 11
407.59388369128078
 21
68.385525597643891
 31
0.0
  0
ARC
  5
CBC
  8
C4
 10
409.38133009568332
 20
67.648955606815889
 30
0.0
 40
1.8999999999999999
 50
90.0
 51
146.96086318505871
  0
ARC
  5
CBD
  8
C4
 10
406.88133009568332
 20
53.448955606815872
 30
0.0
 40
0.85
 50
33.039136814942502
 51
90.0
  0
LINE
  5
CBE
  8
C4
 10
407.78856323493602
 20
53.61305323337254
 30
0.0
 11
407.59388369128078
 21
53.912385615987887
 31
0.0
  0
ARC
  5
CBF
  8
C4
 10
409.38133009568332
 20
54.648955606815889
 30
0.0
 40
1.8999999999999999
 50
213.0391368149412
 51
270.0
  0
ARC
  5
CC0
  8
C4
 10
411.88133009568332
 20
68.848955606815906
 30
0.0
 40
0.85
 50
213.03913681494251
 51
270.0
  0
LINE
  5
CC1
  8
C4
 10
410.97409695643051
 20
68.684857980259238
 30
0.0
 11
411.16877650008581
 21
68.385525597643891
 31
0.0
  0
ARC
  5
CC2
  8
C4
 10
409.38133009568332
 20
67.648955606815889
 30
0.0
 40
1.8999999999999999
 50
33.039136814941259
 51
90.0
  0
ARC
  5
CC3
  8
C4
 10
411.88133009568332
 20
53.448955606815872
 30
0.0
 40
0.85
 50
90.0
 51
146.96086318505741
  0
LINE
  5
CC4
  8
C4
 10
410.97409695643051
 20
53.61305323337254
 30
0.0
 11
411.16877650008581
 21
53.912385615987887
 31
0.0
  0
ARC
  5
CC5
  8
C4
 10
409.38133009568332
 20
54.648955606815889
 30
0.0
 40
1.8999999999999999
 50
270.0
 51
326.96086318505871
  0
ARC
  5
CC6
  8
C4
 10
411.88133009568332
 20
68.848955606815906
 30
0.0
 40
0.85
 50
270.0
 51
326.96086318505741
  0
LINE
  5
CC7
  8
C4
 10
412.78856323493602
 20
68.684857980259238
 30
0.0
 11
412.59388369128078
 21
68.385525597643891
 31
0.0
  0
ARC
  5
CC8
  8
C4
 10
414.38133009568332
 20
67.648955606815889
 30
0.0
 40
1.8999999999999999
 50
90.0
 51
146.96086318505871
  0
ARC
  5
CC9
  8
C4
 10
411.88133009568332
 20
53.448955606815872
 30
0.0
 40
0.85
 50
33.039136814942502
 51
90.0
  0
LINE
  5
CCA
  8
C4
 10
412.78856323493602
 20
53.61305323337254
 30
0.0
 11
412.59388369128078
 21
53.912385615987887
 31
0.0
  0
ARC
  5
CCB
  8
C4
 10
414.38133009568332
 20
54.648955606815889
 30
0.0
 40
1.8999999999999999
 50
213.0391368149412
 51
270.0
  0
ARC
  5
CCC
  8
C4
 10
416.88133009568321
 20
68.848955606815906
 30
0.0
 40
0.85
 50
213.03913681494251
 51
270.0
  0
LINE
  5
CCD
  8
C4
 10
415.97409695643051
 20
68.684857980259238
 30
0.0
 11
416.16877650008581
 21
68.385525597643891
 31
0.0
  0
ARC
  5
CCE
  8
C4
 10
414.38133009568332
 20
67.648955606815889
 30
0.0
 40
1.8999999999999999
 50
33.039136814941259
 51
90.0
  0
ARC
  5
CCF
  8
C4
 10
416.88133009568321
 20
53.448955606815872
 30
0.0
 40
0.85
 50
90.0
 51
146.96086318505741
  0
LINE
  5
CD0
  8
C4
 10
415.97409695643051
 20
53.61305323337254
 30
0.0
 11
416.16877650008581
 21
53.912385615987887
 31
0.0
  0
ARC
  5
CD1
  8
C4
 10
414.38133009568332
 20
54.648955606815889
 30
0.0
 40
1.8999999999999999
 50
270.0
 51
326.96086318505871
  0
ARC
  5
CD2
  8
C4
 10
416.88133009568321
 20
68.848955606815906
 30
0.0
 40
0.85
 50
270.0
 51
326.96086318505741
  0
LINE
  5
CD3
  8
C4
 10
417.78856323493608
 20
68.684857980259238
 30
0.0
 11
417.59388369128072
 21
68.385525597643891
 31
0.0
  0
ARC
  5
CD4
  8
C4
 10
419.38133009568332
 20
67.648955606815889
 30
0.0
 40
1.8999999999999999
 50
90.0
 51
146.96086318505871
  0
ARC
  5
CD5
  8
C4
 10
416.88133009568321
 20
53.448955606815872
 30
0.0
 40
0.85
 50
33.039136814942502
 51
90.0
  0
LINE
  5
CD6
  8
C4
 10
417.78856323493608
 20
53.61305323337254
 30
0.0
 11
417.59388369128072
 21
53.912385615987887
 31
0.0
  0
ARC
  5
CD7
  8
C4
 10
419.38133009568332
 20
54.648955606815889
 30
0.0
 40
1.8999999999999999
 50
213.0391368149412
 51
270.0
  0
ARC
  5
CD8
  8
C4
 10
421.88133009568332
 20
68.848955606815906
 30
0.0
 40
0.85
 50
213.03913681494251
 51
270.0
  0
LINE
  5
CD9
  8
C4
 10
420.97409695643063
 20
68.684857980259238
 30
0.0
 11
421.16877650008581
 21
68.385525597643891
 31
0.0
  0
ARC
  5
CDA
  8
C4
 10
419.38133009568332
 20
67.648955606815889
 30
0.0
 40
1.8999999999999999
 50
33.039136814941259
 51
90.0
  0
ARC
  5
CDB
  8
C4
 10
421.88133009568332
 20
53.448955606815872
 30
0.0
 40
0.85
 50
90.0
 51
146.96086318505741
  0
LINE
  5
CDC
  8
C4
 10
420.97409695643063
 20
53.61305323337254
 30
0.0
 11
421.16877650008581
 21
53.912385615987887
 31
0.0
  0
ARC
  5
CDD
  8
C4
 10
419.38133009568332
 20
54.648955606815889
 30
0.0
 40
1.8999999999999999
 50
270.0
 51
326.96086318505871
  0
ARC
  5
CDE
  8
C4
 10
421.88133009568332
 20
68.848955606815906
 30
0.0
 40
0.85
 50
270.0
 51
326.96086318505741
  0
LINE
  5
CDF
  8
C4
 10
422.78856323493602
 20
68.684857980259238
 30
0.0
 11
422.59388369128072
 21
68.385525597643891
 31
0.0
  0
ARC
  5
CE0
  8
C4
 10
424.38133009568332
 20
67.648955606815889
 30
0.0
 40
1.8999999999999999
 50
90.0
 51
146.96086318505871
  0
ARC
  5
CE1
  8
C4
 10
421.88133009568332
 20
53.448955606815872
 30
0.0
 40
0.85
 50
33.039136814942502
 51
90.0
  0
LINE
  5
CE2
  8
C4
 10
422.78856323493602
 20
53.61305323337254
 30
0.0
 11
422.59388369128072
 21
53.912385615987887
 31
0.0
  0
ARC
  5
CE3
  8
C4
 10
424.38133009568332
 20
54.648955606815889
 30
0.0
 40
1.8999999999999999
 50
213.0391368149412
 51
270.0
  0
ARC
  5
CE4
  8
C4
 10
426.88133009568332
 20
68.848955606815906
 30
0.0
 40
0.85
 50
213.03913681494251
 51
270.0
  0
LINE
  5
CE5
  8
C4
 10
425.97409695643063
 20
68.684857980259238
 30
0.0
 11
426.16877650008581
 21
68.385525597643891
 31
0.0
  0
ARC
  5
CE6
  8
C4
 10
424.38133009568332
 20
67.648955606815889
 30
0.0
 40
1.8999999999999999
 50
33.039136814941259
 51
90.0
  0
ARC
  5
CE7
  8
C4
 10
426.88133009568332
 20
53.448955606815872
 30
0.0
 40
0.85
 50
90.0
 51
146.96086318505741
  0
LINE
  5
CE8
  8
C4
 10
425.97409695643063
 20
53.61305323337254
 30
0.0
 11
426.16877650008581
 21
53.912385615987887
 31
0.0
  0
ARC
  5
CE9
  8
C4
 10
424.38133009568332
 20
54.648955606815889
 30
0.0
 40
1.8999999999999999
 50
270.0
 51
326.96086318505871
  0
ARC
  5
CEA
  8
C4
 10
426.88133009568332
 20
68.848955606815906
 30
0.0
 40
0.85
 50
270.0
 51
326.96086318505741
  0
LINE
  5
CEB
  8
C4
 10
427.78856323493602
 20
68.684857980259238
 30
0.0
 11
427.59388369128072
 21
68.385525597643891
 31
0.0
  0
ARC
  5
CEC
  8
C4
 10
429.38133009568332
 20
67.648955606815889
 30
0.0
 40
1.8999999999999999
 50
90.0
 51
146.96086318505871
  0
ARC
  5
CED
  8
C4
 10
426.88133009568332
 20
53.448955606815872
 30
0.0
 40
0.85
 50
33.039136814942502
 51
90.0
  0
LINE
  5
CEE
  8
C4
 10
427.78856323493602
 20
53.61305323337254
 30
0.0
 11
427.59388369128072
 21
53.912385615987887
 31
0.0
  0
ARC
  5
CEF
  8
C4
 10
429.38133009568332
 20
54.648955606815889
 30
0.0
 40
1.8999999999999999
 50
213.0391368149412
 51
270.0
  0
ARC
  5
CF0
  8
C4
 10
431.88133009568332
 20
68.848955606815906
 30
0.0
 40
0.85
 50
213.03913681494251
 51
270.0
  0
LINE
  5
CF1
  8
C4
 10
430.97409695643051
 20
68.684857980259238
 30
0.0
 11
431.16877650008593
 21
68.385525597643891
 31
0.0
  0
ARC
  5
CF2
  8
C4
 10
429.38133009568332
 20
67.648955606815889
 30
0.0
 40
1.8999999999999999
 50
33.039136814941259
 51
90.0
  0
ARC
  5
CF3
  8
C4
 10
431.88133009568332
 20
53.448955606815872
 30
0.0
 40
0.85
 50
90.0
 51
146.96086318505741
  0
LINE
  5
CF4
  8
C4
 10
430.97409695643051
 20
53.61305323337254
 30
0.0
 11
431.16877650008593
 21
53.912385615987887
 31
0.0
  0
ARC
  5
CF5
  8
C4
 10
429.38133009568332
 20
54.648955606815889
 30
0.0
 40
1.8999999999999999
 50
270.0
 51
326.96086318505871
  0
ARC
  5
CF6
  8
C4
 10
431.88133009568332
 20
68.848955606815906
 30
0.0
 40
0.85
 50
270.0
 51
326.96086318505741
  0
LINE
  5
CF7
  8
C4
 10
432.78856323493602
 20
68.684857980259238
 30
0.0
 11
432.59388369128078
 21
68.385525597643891
 31
0.0
  0
ARC
  5
CF8
  8
C4
 10
434.38133009568332
 20
67.648955606815889
 30
0.0
 40
1.8999999999999999
 50
90.0
 51
146.96086318505871
  0
ARC
  5
CF9
  8
C4
 10
431.88133009568332
 20
53.448955606815872
 30
0.0
 40
0.85
 50
33.039136814942502
 51
90.0
  0
LINE
  5
CFA
  8
C4
 10
432.78856323493602
 20
53.61305323337254
 30
0.0
 11
432.59388369128078
 21
53.912385615987887
 31
0.0
  0
ARC
  5
CFB
  8
C4
 10
434.38133009568332
 20
54.648955606815889
 30
0.0
 40
1.8999999999999999
 50
213.0391368149412
 51
270.0
  0
ARC
  5
CFC
  8
C4
 10
436.88133009568332
 20
68.848955606815906
 30
0.0
 40
0.85
 50
213.03913681494251
 51
270.0
  0
LINE
  5
CFD
  8
C4
 10
435.97409695643051
 20
68.684857980259238
 30
0.0
 11
436.16877650008581
 21
68.385525597643891
 31
0.0
  0
ARC
  5
CFE
  8
C4
 10
434.38133009568332
 20
67.648955606815889
 30
0.0
 40
1.8999999999999999
 50
33.039136814941259
 51
90.0
  0
ARC
  5
CFF
  8
C4
 10
436.88133009568332
 20
53.448955606815872
 30
0.0
 40
0.85
 50
90.0
 51
146.96086318505741
  0
LINE
  5
D00
  8
C4
 10
435.97409695643051
 20
53.61305323337254
 30
0.0
 11
436.16877650008581
 21
53.912385615987887
 31
0.0
  0
ARC
  5
D01
  8
C4
 10
434.38133009568332
 20
54.648955606815889
 30
0.0
 40
1.8999999999999999
 50
270.0
 51
326.96086318505871
  0
ARC
  5
D02
  8
C4
 10
436.88133009568332
 20
68.848955606815906
 30
0.0
 40
0.85
 50
270.0
 51
326.96086318505741
  0
LINE
  5
D03
  8
C4
 10
437.78856323493602
 20
68.684857980259238
 30
0.0
 11
437.59388369128078
 21
68.385525597643891
 31
0.0
  0
ARC
  5
D04
  8
C4
 10
439.38133009568332
 20
67.648955606815889
 30
0.0
 40
1.8999999999999999
 50
90.0
 51
146.96086318505871
  0
ARC
  5
D05
  8
C4
 10
436.88133009568332
 20
53.448955606815872
 30
0.0
 40
0.85
 50
33.039136814942502
 51
90.0
  0
LINE
  5
D06
  8
C4
 10
437.78856323493602
 20
53.61305323337254
 30
0.0
 11
437.59388369128078
 21
53.912385615987887
 31
0.0
  0
ARC
  5
D07
  8
C4
 10
439.38133009568332
 20
54.648955606815889
 30
0.0
 40
1.8999999999999999
 50
213.0391368149412
 51
270.0
  0
ARC
  5
D08
  8
C4
 10
441.88133009568332
 20
68.848955606815906
 30
0.0
 40
0.85
 50
213.03913681494251
 51
270.0
  0
LINE
  5
D09
  8
C4
 10
440.97409695643051
 20
68.684857980259238
 30
0.0
 11
441.16877650008581
 21
68.385525597643891
 31
0.0
  0
ARC
  5
D0A
  8
C4
 10
439.38133009568332
 20
67.648955606815889
 30
0.0
 40
1.8999999999999999
 50
33.039136814941259
 51
90.0
  0
ARC
  5
D0B
  8
C4
 10
441.88133009568332
 20
53.448955606815872
 30
0.0
 40
0.85
 50
90.0
 51
146.96086318505741
  0
LINE
  5
D0C
  8
C4
 10
440.97409695643051
 20
53.61305323337254
 30
0.0
 11
441.16877650008581
 21
53.912385615987887
 31
0.0
  0
ARC
  5
D0D
  8
C4
 10
439.38133009568332
 20
54.648955606815889
 30
0.0
 40
1.8999999999999999
 50
270.0
 51
326.96086318505871
  0
ARC
  5
D0E
  8
C4
 10
441.88133009568332
 20
68.848955606815906
 30
0.0
 40
0.85
 50
270.0
 51
326.96086318505741
  0
LINE
  5
D0F
  8
C4
 10
442.78856323493608
 20
68.684857980259238
 30
0.0
 11
442.59388369128072
 21
68.385525597643891
 31
0.0
  0
ARC
  5
D10
  8
C4
 10
444.38133009568332
 20
67.648955606815889
 30
0.0
 40
1.8999999999999999
 50
90.0
 51
146.96086318505871
  0
ARC
  5
D11
  8
C4
 10
441.88133009568332
 20
53.448955606815872
 30
0.0
 40
0.85
 50
33.039136814942502
 51
90.0
  0
LINE
  5
D12
  8
C4
 10
442.78856323493608
 20
53.61305323337254
 30
0.0
 11
442.59388369128072
 21
53.912385615987887
 31
0.0
  0
ARC
  5
D13
  8
C4
 10
444.38133009568332
 20
54.648955606815889
 30
0.0
 40
1.8999999999999999
 50
213.0391368149412
 51
270.0
  0
ARC
  5
D14
  8
C4
 10
446.88133009568332
 20
68.848955606815906
 30
0.0
 40
0.85
 50
213.03913681494251
 51
270.0
  0
LINE
  5
D15
  8
C4
 10
445.97409695643063
 20
68.684857980259238
 30
0.0
 11
446.16877650008581
 21
68.385525597643891
 31
0.0
  0
ARC
  5
D16
  8
C4
 10
444.38133009568332
 20
67.648955606815889
 30
0.0
 40
1.8999999999999999
 50
33.039136814941259
 51
90.0
  0
ARC
  5
D17
  8
C4
 10
446.88133009568332
 20
53.448955606815872
 30
0.0
 40
0.85
 50
90.0
 51
146.96086318505741
  0
LINE
  5
D18
  8
C4
 10
445.97409695643063
 20
53.61305323337254
 30
0.0
 11
446.16877650008581
 21
53.912385615987887
 31
0.0
  0
ARC
  5
D19
  8
C4
 10
444.38133009568332
 20
54.648955606815889
 30
0.0
 40
1.8999999999999999
 50
270.0
 51
326.96086318505871
  0
ARC
  5
D1A
  8
C4
 10
446.88133009568332
 20
68.848955606815906
 30
0.0
 40
0.85
 50
270.0
 51
326.96086318505741
  0
LINE
  5
D1B
  8
C4
 10
447.78856323493602
 20
68.684857980259238
 30
0.0
 11
447.59388369128072
 21
68.385525597643891
 31
0.0
  0
ARC
  5
D1C
  8
C4
 10
449.38133009568332
 20
67.648955606815889
 30
0.0
 40
1.8999999999999999
 50
90.0
 51
146.96086318505871
  0
ARC
  5
D1D
  8
C4
 10
446.88133009568332
 20
53.448955606815872
 30
0.0
 40
0.85
 50
33.039136814942502
 51
90.0
  0
LINE
  5
D1E
  8
C4
 10
447.78856323493602
 20
53.61305323337254
 30
0.0
 11
447.59388369128072
 21
53.912385615987887
 31
0.0
  0
ARC
  5
D1F
  8
C4
 10
449.38133009568332
 20
54.648955606815889
 30
0.0
 40
1.8999999999999999
 50
213.0391368149412
 51
270.0
  0
ARC
  5
D20
  8
C4
 10
451.88133009568332
 20
68.848955606815906
 30
0.0
 40
0.85
 50
213.03913681494251
 51
270.0
  0
LINE
  5
D21
  8
C4
 10
450.97409695643063
 20
68.684857980259238
 30
0.0
 11
451.16877650008581
 21
68.385525597643891
 31
0.0
  0
ARC
  5
D22
  8
C4
 10
449.38133009568332
 20
67.648955606815889
 30
0.0
 40
1.8999999999999999
 50
33.039136814941259
 51
90.0
  0
ARC
  5
D23
  8
C4
 10
451.88133009568332
 20
53.448955606815872
 30
0.0
 40
0.85
 50
90.0
 51
146.96086318505741
  0
LINE
  5
D24
  8
C4
 10
450.97409695643063
 20
53.61305323337254
 30
0.0
 11
451.16877650008581
 21
53.912385615987887
 31
0.0
  0
ARC
  5
D25
  8
C4
 10
449.38133009568332
 20
54.648955606815889
 30
0.0
 40
1.8999999999999999
 50
270.0
 51
326.96086318505871
  0
ARC
  5
D26
  8
C4
 10
451.88133009568332
 20
68.848955606815906
 30
0.0
 40
0.85
 50
270.0
 51
326.96086318505741
  0
LINE
  5
D27
  8
C4
 10
452.78856323493602
 20
68.684857980259238
 30
0.0
 11
452.59388369128072
 21
68.385525597643891
 31
0.0
  0
ARC
  5
D28
  8
C4
 10
454.38133009568332
 20
67.648955606815889
 30
0.0
 40
1.8999999999999999
 50
90.0
 51
146.96086318505871
  0
ARC
  5
D29
  8
C4
 10
451.88133009568332
 20
53.448955606815872
 30
0.0
 40
0.85
 50
33.039136814942502
 51
90.0
  0
LINE
  5
D2A
  8
C4
 10
452.78856323493602
 20
53.61305323337254
 30
0.0
 11
452.59388369128072
 21
53.912385615987887
 31
0.0
  0
ARC
  5
D2B
  8
C4
 10
454.38133009568332
 20
54.648955606815889
 30
0.0
 40
1.8999999999999999
 50
213.0391368149412
 51
270.0
  0
ARC
  5
D2C
  8
C4
 10
456.88133009568332
 20
68.848955606815906
 30
0.0
 40
0.85
 50
213.03913681494251
 51
270.0
  0
LINE
  5
D2D
  8
C4
 10
455.97409695643051
 20
68.684857980259238
 30
0.0
 11
456.16877650008593
 21
68.385525597643891
 31
0.0
  0
ARC
  5
D2E
  8
C4
 10
454.38133009568332
 20
67.648955606815889
 30
0.0
 40
1.8999999999999999
 50
33.039136814941259
 51
90.0
  0
ARC
  5
D2F
  8
C4
 10
456.88133009568332
 20
53.448955606815872
 30
0.0
 40
0.85
 50
90.0
 51
146.96086318505741
  0
LINE
  5
D30
  8
C4
 10
455.97409695643051
 20
53.61305323337254
 30
0.0
 11
456.16877650008593
 21
53.912385615987887
 31
0.0
  0
ARC
  5
D31
  8
C4
 10
454.38133009568332
 20
54.648955606815889
 30
0.0
 40
1.8999999999999999
 50
270.0
 51
326.96086318505871
  0
ARC
  5
D32
  8
C4
 10
456.88133009568332
 20
68.848955606815906
 30
0.0
 40
0.85
 50
270.0
 51
326.96086318505741
  0
LINE
  5
D33
  8
C4
 10
457.78856323493602
 20
68.684857980259238
 30
0.0
 11
457.59388369128078
 21
68.385525597643891
 31
0.0
  0
ARC
  5
D34
  8
C4
 10
459.38133009568332
 20
67.648955606815889
 30
0.0
 40
1.8999999999999999
 50
90.0
 51
146.96086318505871
  0
ARC
  5
D35
  8
C4
 10
456.88133009568332
 20
53.448955606815872
 30
0.0
 40
0.85
 50
33.039136814942502
 51
90.0
  0
LINE
  5
D36
  8
C4
 10
457.78856323493602
 20
53.61305323337254
 30
0.0
 11
457.59388369128078
 21
53.912385615987887
 31
0.0
  0
ARC
  5
D37
  8
C4
 10
459.38133009568332
 20
54.648955606815889
 30
0.0
 40
1.8999999999999999
 50
213.0391368149412
 51
270.0
  0
ARC
  5
D38
  8
C4
 10
461.88133009568332
 20
68.848955606815906
 30
0.0
 40
0.85
 50
213.03913681494251
 51
270.0
  0
LINE
  5
D39
  8
C4
 10
460.97409695643051
 20
68.684857980259238
 30
0.0
 11
461.16877650008581
 21
68.385525597643891
 31
0.0
  0
ARC
  5
D3A
  8
C4
 10
459.38133009568332
 20
67.648955606815889
 30
0.0
 40
1.8999999999999999
 50
33.039136814941259
 51
90.0
  0
ARC
  5
D3B
  8
C4
 10
461.88133009568332
 20
53.448955606815872
 30
0.0
 40
0.85
 50
90.0
 51
146.96086318505741
  0
LINE
  5
D3C
  8
C4
 10
460.97409695643051
 20
53.61305323337254
 30
0.0
 11
461.16877650008581
 21
53.912385615987887
 31
0.0
  0
ARC
  5
D3D
  8
C4
 10
459.38133009568332
 20
54.648955606815889
 30
0.0
 40
1.8999999999999999
 50
270.0
 51
326.96086318505871
  0
ARC
  5
D3E
  8
C4
 10
461.88133009568332
 20
68.848955606815906
 30
0.0
 40
0.85
 50
270.0
 51
326.96086318505741
  0
LINE
  5
D3F
  8
C4
 10
462.78856323493602
 20
68.684857980259238
 30
0.0
 11
462.59388369128078
 21
68.385525597643891
 31
0.0
  0
ARC
  5
D40
  8
C4
 10
464.38133009568332
 20
67.648955606815889
 30
0.0
 40
1.8999999999999999
 50
90.0
 51
146.96086318505871
  0
ARC
  5
D41
  8
C4
 10
461.88133009568332
 20
53.448955606815872
 30
0.0
 40
0.85
 50
33.039136814942502
 51
90.0
  0
LINE
  5
D42
  8
C4
 10
462.78856323493602
 20
53.61305323337254
 30
0.0
 11
462.59388369128078
 21
53.912385615987887
 31
0.0
  0
ARC
  5
D43
  8
C4
 10
464.38133009568332
 20
54.648955606815889
 30
0.0
 40
1.8999999999999999
 50
213.0391368149412
 51
270.0
  0
ARC
  5
D44
  8
C4
 10
466.88133009568332
 20
68.848955606815906
 30
0.0
 40
0.85
 50
213.03913681494251
 51
270.0
  0
LINE
  5
D45
  8
C4
 10
465.97409695643051
 20
68.684857980259238
 30
0.0
 11
466.16877650008581
 21
68.385525597643891
 31
0.0
  0
ARC
  5
D46
  8
C4
 10
464.38133009568332
 20
67.648955606815889
 30
0.0
 40
1.8999999999999999
 50
33.039136814941259
 51
90.0
  0
ARC
  5
D47
  8
C4
 10
466.88133009568332
 20
53.448955606815872
 30
0.0
 40
0.85
 50
90.0
 51
146.96086318505741
  0
LINE
  5
D48
  8
C4
 10
465.97409695643051
 20
53.61305323337254
 30
0.0
 11
466.16877650008581
 21
53.912385615987887
 31
0.0
  0
ARC
  5
D49
  8
C4
 10
464.38133009568332
 20
54.648955606815889
 30
0.0
 40
1.8999999999999999
 50
270.0
 51
326.96086318505871
  0
ARC
  5
D4A
  8
C4
 10
466.88133009568332
 20
68.848955606815906
 30
0.0
 40
0.85
 50
270.0
 51
326.96086318505741
  0
LINE
  5
D4B
  8
C4
 10
467.78856323493608
 20
68.684857980259238
 30
0.0
 11
467.59388369128072
 21
68.385525597643891
 31
0.0
  0
ARC
  5
D4C
  8
C4
 10
469.38133009568332
 20
67.648955606815889
 30
0.0
 40
1.8999999999999999
 50
90.0
 51
146.96086318505871
  0
ARC
  5
D4D
  8
C4
 10
466.88133009568332
 20
53.448955606815872
 30
0.0
 40
0.85
 50
33.039136814942502
 51
90.0
  0
LINE
  5
D4E
  8
C4
 10
467.78856323493608
 20
53.61305323337254
 30
0.0
 11
467.59388369128072
 21
53.912385615987887
 31
0.0
  0
ARC
  5
D4F
  8
C4
 10
469.38133009568332
 20
54.648955606815889
 30
0.0
 40
1.8999999999999999
 50
213.0391368149412
 51
270.0
  0
ARC
  5
D50
  8
C4
 10
471.88133009568332
 20
68.848955606815906
 30
0.0
 40
0.85
 50
213.03913681494251
 51
270.0
  0
LINE
  5
D51
  8
C4
 10
470.97409695643063
 20
68.684857980259238
 30
0.0
 11
471.16877650008581
 21
68.385525597643891
 31
0.0
  0
ARC
  5
D52
  8
C4
 10
469.38133009568332
 20
67.648955606815889
 30
0.0
 40
1.8999999999999999
 50
33.039136814941259
 51
90.0
  0
ARC
  5
D53
  8
C4
 10
471.88133009568332
 20
53.448955606815872
 30
0.0
 40
0.85
 50
90.0
 51
146.96086318505741
  0
LINE
  5
D54
  8
C4
 10
470.97409695643063
 20
53.61305323337254
 30
0.0
 11
471.16877650008581
 21
53.912385615987887
 31
0.0
  0
ARC
  5
D55
  8
C4
 10
469.38133009568332
 20
54.648955606815889
 30
0.0
 40
1.8999999999999999
 50
270.0
 51
326.96086318505871
  0
ARC
  5
D56
  8
C4
 10
471.88133009568332
 20
68.848955606815906
 30
0.0
 40
0.85
 50
270.0
 51
326.96086318505741
  0
LINE
  5
D57
  8
C4
 10
472.78856323493602
 20
68.684857980259238
 30
0.0
 11
472.59388369128072
 21
68.385525597643891
 31
0.0
  0
ARC
  5
D58
  8
C4
 10
474.38133009568332
 20
67.648955606815889
 30
0.0
 40
1.8999999999999999
 50
90.0
 51
146.96086318505871
  0
ARC
  5
D59
  8
C4
 10
471.88133009568332
 20
53.448955606815872
 30
0.0
 40
0.85
 50
33.039136814942502
 51
90.0
  0
LINE
  5
D5A
  8
C4
 10
472.78856323493602
 20
53.61305323337254
 30
0.0
 11
472.59388369128072
 21
53.912385615987887
 31
0.0
  0
ARC
  5
D5B
  8
C4
 10
474.38133009568332
 20
54.648955606815889
 30
0.0
 40
1.8999999999999999
 50
213.0391368149412
 51
270.0
  0
ARC
  5
D5C
  8
C4
 10
476.88133009568332
 20
68.848955606815906
 30
0.0
 40
0.85
 50
213.03913681494251
 51
270.0
  0
LINE
  5
D5D
  8
C4
 10
475.97409695643063
 20
68.684857980259238
 30
0.0
 11
476.16877650008581
 21
68.385525597643891
 31
0.0
  0
ARC
  5
D5E
  8
C4
 10
474.38133009568332
 20
67.648955606815889
 30
0.0
 40
1.8999999999999999
 50
33.039136814941259
 51
90.0
  0
ARC
  5
D5F
  8
C4
 10
476.88133009568332
 20
53.448955606815872
 30
0.0
 40
0.85
 50
90.0
 51
146.96086318505741
  0
LINE
  5
D60
  8
C4
 10
475.97409695643063
 20
53.61305323337254
 30
0.0
 11
476.16877650008581
 21
53.912385615987887
 31
0.0
  0
ARC
  5
D61
  8
C4
 10
474.38133009568332
 20
54.648955606815889
 30
0.0
 40
1.8999999999999999
 50
270.0
 51
326.96086318505871
  0
ARC
  5
D62
  8
C4
 10
476.88133009568332
 20
68.848955606815906
 30
0.0
 40
0.85
 50
270.0
 51
326.96086318505741
  0
LINE
  5
D63
  8
C4
 10
477.78856323493602
 20
68.684857980259238
 30
0.0
 11
477.59388369128072
 21
68.385525597643891
 31
0.0
  0
ARC
  5
D64
  8
C4
 10
479.38133009568332
 20
67.648955606815889
 30
0.0
 40
1.8999999999999999
 50
90.0
 51
146.96086318505871
  0
ARC
  5
D65
  8
C4
 10
476.88133009568332
 20
53.448955606815872
 30
0.0
 40
0.85
 50
33.039136814942502
 51
90.0
  0
LINE
  5
D66
  8
C4
 10
477.78856323493602
 20
53.61305323337254
 30
0.0
 11
477.59388369128072
 21
53.912385615987887
 31
0.0
  0
ARC
  5
D67
  8
C4
 10
479.38133009568332
 20
54.648955606815889
 30
0.0
 40
1.8999999999999999
 50
213.0391368149412
 51
270.0
  0
ARC
  5
D68
  8
C4
 10
481.88133009568332
 20
68.848955606815906
 30
0.0
 40
0.85
 50
213.03913681494251
 51
270.0
  0
LINE
  5
D69
  8
C4
 10
480.97409695643051
 20
68.684857980259238
 30
0.0
 11
481.16877650008593
 21
68.385525597643891
 31
0.0
  0
ARC
  5
D6A
  8
C4
 10
479.38133009568332
 20
67.648955606815889
 30
0.0
 40
1.8999999999999999
 50
33.039136814941259
 51
90.0
  0
ARC
  5
D6B
  8
C4
 10
481.88133009568332
 20
53.448955606815872
 30
0.0
 40
0.85
 50
90.0
 51
146.96086318505741
  0
LINE
  5
D6C
  8
C4
 10
480.97409695643051
 20
53.61305323337254
 30
0.0
 11
481.16877650008593
 21
53.912385615987887
 31
0.0
  0
ARC
  5
D6D
  8
C4
 10
479.38133009568332
 20
54.648955606815889
 30
0.0
 40
1.8999999999999999
 50
270.0
 51
326.96086318505871
  0
ARC
  5
D6E
  8
C4
 10
481.88133009568332
 20
68.848955606815906
 30
0.0
 40
0.85
 50
270.0
 51
326.96086318505741
  0
LINE
  5
D6F
  8
C4
 10
482.78856323493602
 20
68.684857980259238
 30
0.0
 11
482.59388369128078
 21
68.385525597643891
 31
0.0
  0
ARC
  5
D70
  8
C4
 10
484.38133009568332
 20
67.648955606815889
 30
0.0
 40
1.8999999999999999
 50
90.0
 51
146.96086318505871
  0
ARC
  5
D71
  8
C4
 10
481.88133009568332
 20
53.448955606815872
 30
0.0
 40
0.85
 50
33.039136814942502
 51
90.0
  0
LINE
  5
D72
  8
C4
 10
482.78856323493602
 20
53.61305323337254
 30
0.0
 11
482.59388369128078
 21
53.912385615987887
 31
0.0
  0
ARC
  5
D73
  8
C4
 10
484.38133009568332
 20
54.648955606815889
 30
0.0
 40
1.8999999999999999
 50
213.0391368149412
 51
270.0
  0
ARC
  5
D74
  8
C4
 10
486.88133009568332
 20
68.848955606815906
 30
0.0
 40
0.85
 50
213.03913681494251
 51
270.0
  0
LINE
  5
D75
  8
C4
 10
485.97409695643051
 20
68.684857980259238
 30
0.0
 11
486.16877650008581
 21
68.385525597643891
 31
0.0
  0
ARC
  5
D76
  8
C4
 10
484.38133009568332
 20
67.648955606815889
 30
0.0
 40
1.8999999999999999
 50
33.039136814941259
 51
90.0
  0
ARC
  5
D77
  8
C4
 10
486.88133009568332
 20
53.448955606815872
 30
0.0
 40
0.85
 50
90.0
 51
146.96086318505741
  0
LINE
  5
D78
  8
C4
 10
485.97409695643051
 20
53.61305323337254
 30
0.0
 11
486.16877650008581
 21
53.912385615987887
 31
0.0
  0
ARC
  5
D79
  8
C4
 10
484.38133009568332
 20
54.648955606815889
 30
0.0
 40
1.8999999999999999
 50
270.0
 51
326.96086318505871
  0
ARC
  5
D7A
  8
C4
 10
486.88133009568332
 20
68.848955606815906
 30
0.0
 40
0.85
 50
270.0
 51
326.96086318505741
  0
LINE
  5
D7B
  8
C4
 10
487.78856323493602
 20
68.684857980259238
 30
0.0
 11
487.59388369128078
 21
68.385525597643891
 31
0.0
  0
ARC
  5
D7C
  8
C4
 10
489.38133009568332
 20
67.648955606815889
 30
0.0
 40
1.8999999999999999
 50
90.0
 51
146.96086318505871
  0
ARC
  5
D7D
  8
C4
 10
486.88133009568332
 20
53.448955606815872
 30
0.0
 40
0.85
 50
33.039136814942502
 51
90.0
  0
LINE
  5
D7E
  8
C4
 10
487.78856323493602
 20
53.61305323337254
 30
0.0
 11
487.59388369128078
 21
53.912385615987887
 31
0.0
  0
ARC
  5
D7F
  8
C4
 10
489.38133009568332
 20
54.648955606815889
 30
0.0
 40
1.8999999999999999
 50
213.0391368149412
 51
270.0
  0
ARC
  5
D80
  8
C4
 10
491.88133009568332
 20
68.848955606815906
 30
0.0
 40
0.85
 50
213.03913681494251
 51
270.0
  0
LINE
  5
D81
  8
C4
 10
490.97409695643051
 20
68.684857980259238
 30
0.0
 11
491.16877650008581
 21
68.385525597643891
 31
0.0
  0
ARC
  5
D82
  8
C4
 10
489.38133009568332
 20
67.648955606815889
 30
0.0
 40
1.8999999999999999
 50
33.039136814941259
 51
90.0
  0
ARC
  5
D83
  8
C4
 10
491.88133009568332
 20
53.448955606815872
 30
0.0
 40
0.85
 50
90.0
 51
146.96086318505741
  0
LINE
  5
D84
  8
C4
 10
490.97409695643051
 20
53.61305323337254
 30
0.0
 11
491.16877650008581
 21
53.912385615987887
 31
0.0
  0
ARC
  5
D85
  8
C4
 10
489.38133009568332
 20
54.648955606815889
 30
0.0
 40
1.8999999999999999
 50
270.0
 51
326.96086318505871
  0
ARC
  5
D86
  8
C4
 10
491.88133009568332
 20
68.848955606815906
 30
0.0
 40
0.85
 50
270.0
 51
326.96086318505741
  0
LINE
  5
D87
  8
C4
 10
492.78856323493608
 20
68.684857980259238
 30
0.0
 11
492.59388369128072
 21
68.385525597643891
 31
0.0
  0
ARC
  5
D88
  8
C4
 10
494.38133009568332
 20
67.648955606815889
 30
0.0
 40
1.8999999999999999
 50
90.0
 51
146.96086318505871
  0
ARC
  5
D89
  8
C4
 10
491.88133009568332
 20
53.448955606815872
 30
0.0
 40
0.85
 50
33.039136814942502
 51
90.0
  0
LINE
  5
D8A
  8
C4
 10
492.78856323493608
 20
53.61305323337254
 30
0.0
 11
492.59388369128072
 21
53.912385615987887
 31
0.0
  0
ARC
  5
D8B
  8
C4
 10
494.38133009568332
 20
54.648955606815889
 30
0.0
 40
1.8999999999999999
 50
213.0391368149412
 51
270.0
  0
ARC
  5
D8C
  8
C4
 10
496.88133009568332
 20
68.848955606815906
 30
0.0
 40
0.85
 50
213.03913681494251
 51
270.0
  0
LINE
  5
D8D
  8
C4
 10
495.97409695643063
 20
68.684857980259238
 30
0.0
 11
496.16877650008581
 21
68.385525597643891
 31
0.0
  0
ARC
  5
D8E
  8
C4
 10
494.38133009568332
 20
67.648955606815889
 30
0.0
 40
1.8999999999999999
 50
33.039136814941259
 51
90.0
  0
ARC
  5
D8F
  8
C4
 10
496.88133009568332
 20
53.448955606815872
 30
0.0
 40
0.85
 50
90.0
 51
146.96086318505741
  0
LINE
  5
D90
  8
C4
 10
495.97409695643063
 20
53.61305323337254
 30
0.0
 11
496.16877650008581
 21
53.912385615987887
 31
0.0
  0
ARC
  5
D91
  8
C4
 10
494.38133009568332
 20
54.648955606815889
 30
0.0
 40
1.8999999999999999
 50
270.0
 51
326.96086318505871
  0
ARC
  5
D92
  8
C4
 10
496.88133009568332
 20
68.848955606815906
 30
0.0
 40
0.85
 50
270.0
 51
326.96086318505741
  0
LINE
  5
D93
  8
C4
 10
497.78856323493602
 20
68.684857980259238
 30
0.0
 11
497.59388369128072
 21
68.385525597643891
 31
0.0
  0
ARC
  5
D94
  8
C4
 10
499.38133009568332
 20
67.648955606815889
 30
0.0
 40
1.8999999999999999
 50
90.0
 51
146.96086318505871
  0
ARC
  5
D95
  8
C4
 10
496.88133009568332
 20
53.448955606815872
 30
0.0
 40
0.85
 50
33.039136814942502
 51
90.0
  0
LINE
  5
D96
  8
C4
 10
497.78856323493602
 20
53.61305323337254
 30
0.0
 11
497.59388369128072
 21
53.912385615987887
 31
0.0
  0
ARC
  5
D97
  8
C4
 10
499.38133009568332
 20
54.648955606815889
 30
0.0
 40
1.8999999999999999
 50
213.0391368149412
 51
270.0
  0
ARC
  5
D98
  8
C4
 10
501.88133009568332
 20
68.848955606815906
 30
0.0
 40
0.85
 50
213.03913681494251
 51
270.0
  0
LINE
  5
D99
  8
C4
 10
500.97409695643063
 20
68.684857980259238
 30
0.0
 11
501.16877650008581
 21
68.385525597643891
 31
0.0
  0
ARC
  5
D9A
  8
C4
 10
499.38133009568332
 20
67.648955606815889
 30
0.0
 40
1.8999999999999999
 50
33.039136814941259
 51
90.0
  0
ARC
  5
D9B
  8
C4
 10
501.88133009568332
 20
53.448955606815872
 30
0.0
 40
0.85
 50
90.0
 51
146.96086318505741
  0
LINE
  5
D9C
  8
C4
 10
500.97409695643063
 20
53.61305323337254
 30
0.0
 11
501.16877650008581
 21
53.912385615987887
 31
0.0
  0
ARC
  5
D9D
  8
C4
 10
499.38133009568332
 20
54.648955606815889
 30
0.0
 40
1.8999999999999999
 50
270.0
 51
326.96086318505871
  0
ARC
  5
D9E
  8
C4
 10
501.88133009568332
 20
68.848955606815906
 30
0.0
 40
0.85
 50
270.0
 51
326.96086318505741
  0
LINE
  5
D9F
  8
C4
 10
502.78856323493602
 20
68.684857980259238
 30
0.0
 11
502.59388369128072
 21
68.385525597643891
 31
0.0
  0
ARC
  5
DA0
  8
C4
 10
504.38133009568332
 20
67.648955606815889
 30
0.0
 40
1.8999999999999999
 50
90.0
 51
146.96086318505871
  0
ARC
  5
DA1
  8
C4
 10
501.88133009568332
 20
53.448955606815872
 30
0.0
 40
0.85
 50
33.039136814942502
 51
90.0
  0
LINE
  5
DA2
  8
C4
 10
502.78856323493602
 20
53.61305323337254
 30
0.0
 11
502.59388369128072
 21
53.912385615987887
 31
0.0
  0
ARC
  5
DA3
  8
C4
 10
504.38133009568332
 20
54.648955606815889
 30
0.0
 40
1.8999999999999999
 50
213.0391368149412
 51
270.0
  0
ARC
  5
DA4
  8
C4
 10
506.88133009568332
 20
68.848955606815906
 30
0.0
 40
0.85
 50
213.03913681494251
 51
270.0
  0
LINE
  5
DA5
  8
C4
 10
505.97409695643051
 20
68.684857980259238
 30
0.0
 11
506.16877650008593
 21
68.385525597643891
 31
0.0
  0
ARC
  5
DA6
  8
C4
 10
504.38133009568332
 20
67.648955606815889
 30
0.0
 40
1.8999999999999999
 50
33.039136814941259
 51
90.0
  0
ARC
  5
DA7
  8
C4
 10
506.88133009568332
 20
53.448955606815872
 30
0.0
 40
0.85
 50
90.0
 51
146.96086318505741
  0
LINE
  5
DA8
  8
C4
 10
505.97409695643051
 20
53.61305323337254
 30
0.0
 11
506.16877650008593
 21
53.912385615987887
 31
0.0
  0
ARC
  5
DA9
  8
C4
 10
504.38133009568332
 20
54.648955606815889
 30
0.0
 40
1.8999999999999999
 50
270.0
 51
326.96086318505871
  0
ARC
  5
DAA
  8
C4
 10
506.88133009568332
 20
68.848955606815906
 30
0.0
 40
0.85
 50
270.0
 51
326.96086318505741
  0
LINE
  5
DAB
  8
C4
 10
507.78856323493602
 20
68.684857980259238
 30
0.0
 11
507.59388369128078
 21
68.385525597643891
 31
0.0
  0
ARC
  5
DAC
  8
C4
 10
509.38133009568332
 20
67.648955606815889
 30
0.0
 40
1.8999999999999999
 50
90.0
 51
146.96086318505871
  0
ARC
  5
DAD
  8
C4
 10
506.88133009568332
 20
53.448955606815872
 30
0.0
 40
0.85
 50
33.039136814942502
 51
90.0
  0
LINE
  5
DAE
  8
C4
 10
507.78856323493602
 20
53.61305323337254
 30
0.0
 11
507.59388369128078
 21
53.912385615987887
 31
0.0
  0
ARC
  5
DAF
  8
C4
 10
509.38133009568332
 20
54.648955606815889
 30
0.0
 40
1.8999999999999999
 50
213.0391368149412
 51
270.0
  0
ARC
  5
DB0
  8
C4
 10
511.88133009568332
 20
68.848955606815906
 30
0.0
 40
0.85
 50
213.03913681494251
 51
270.0
  0
LINE
  5
DB1
  8
C4
 10
510.97409695643051
 20
68.684857980259238
 30
0.0
 11
511.16877650008581
 21
68.385525597643891
 31
0.0
  0
ARC
  5
DB2
  8
C4
 10
509.38133009568332
 20
67.648955606815889
 30
0.0
 40
1.8999999999999999
 50
33.039136814941259
 51
90.0
  0
ARC
  5
DB3
  8
C4
 10
511.88133009568332
 20
53.448955606815872
 30
0.0
 40
0.85
 50
90.0
 51
146.96086318505741
  0
LINE
  5
DB4
  8
C4
 10
510.97409695643051
 20
53.61305323337254
 30
0.0
 11
511.16877650008581
 21
53.912385615987887
 31
0.0
  0
ARC
  5
DB5
  8
C4
 10
509.38133009568332
 20
54.648955606815889
 30
0.0
 40
1.8999999999999999
 50
270.0
 51
326.96086318505871
  0
ARC
  5
DB6
  8
C4
 10
511.88133009568332
 20
68.848955606815906
 30
0.0
 40
0.85
 50
270.0
 51
326.96086318505741
  0
LINE
  5
DB7
  8
C4
 10
512.78856323493596
 20
68.684857980259238
 30
0.0
 11
512.59388369128078
 21
68.385525597643891
 31
0.0
  0
ARC
  5
DB8
  8
C4
 10
514.38133009568332
 20
67.648955606815889
 30
0.0
 40
1.8999999999999999
 50
90.0
 51
146.96086318505871
  0
ARC
  5
DB9
  8
C4
 10
511.88133009568332
 20
53.448955606815872
 30
0.0
 40
0.85
 50
33.039136814942502
 51
90.0
  0
LINE
  5
DBA
  8
C4
 10
512.78856323493596
 20
53.61305323337254
 30
0.0
 11
512.59388369128078
 21
53.912385615987887
 31
0.0
  0
ARC
  5
DBB
  8
C4
 10
514.38133009568332
 20
54.648955606815889
 30
0.0
 40
1.8999999999999999
 50
213.0391368149412
 51
270.0
  0
ARC
  5
DBC
  8
C4
 10
516.88133009568332
 20
68.848955606815906
 30
0.0
 40
0.85
 50
213.03913681494251
 51
270.0
  0
LINE
  5
DBD
  8
C4
 10
515.97409695643046
 20
68.684857980259238
 30
0.0
 11
516.16877650008576
 21
68.385525597643891
 31
0.0
  0
ARC
  5
DBE
  8
C4
 10
514.38133009568332
 20
67.648955606815889
 30
0.0
 40
1.8999999999999999
 50
33.039136814941259
 51
90.0
  0
ARC
  5
DBF
  8
C4
 10
516.88133009568332
 20
53.448955606815872
 30
0.0
 40
0.85
 50
90.0
 51
146.96086318505741
  0
LINE
  5
DC0
  8
C4
 10
515.97409695643046
 20
53.61305323337254
 30
0.0
 11
516.16877650008576
 21
53.912385615987887
 31
0.0
  0
ARC
  5
DC1
  8
C4
 10
514.38133009568332
 20
54.648955606815889
 30
0.0
 40
1.8999999999999999
 50
270.0
 51
326.96086318505871
  0
ARC
  5
DC2
  8
C4
 10
516.88133009568332
 20
68.848955606815906
 30
0.0
 40
0.85
 50
270.0
 51
326.96086318505741
  0
LINE
  5
DC3
  8
C4
 10
517.78856323493608
 20
68.684857980259238
 30
0.0
 11
517.59388369128067
 21
68.385525597643891
 31
0.0
  0
ARC
  5
DC4
  8
C4
 10
519.38133009568332
 20
67.648955606815889
 30
0.0
 40
1.8999999999999999
 50
90.0
 51
146.96086318505871
  0
ARC
  5
DC5
  8
C4
 10
516.88133009568332
 20
53.448955606815872
 30
0.0
 40
0.85
 50
33.039136814942502
 51
90.0
  0
LINE
  5
DC6
  8
C4
 10
517.78856323493608
 20
53.61305323337254
 30
0.0
 11
517.59388369128067
 21
53.912385615987887
 31
0.0
  0
ARC
  5
DC7
  8
C4
 10
519.38133009568332
 20
54.648955606815889
 30
0.0
 40
1.8999999999999999
 50
213.0391368149412
 51
270.0
  0
ARC
  5
DC8
  8
C4
 10
521.88133009568332
 20
68.848955606815906
 30
0.0
 40
0.85
 50
213.03913681494251
 51
270.0
  0
LINE
  5
DC9
  8
C4
 10
520.97409695643057
 20
68.684857980259238
 30
0.0
 11
521.16877650008576
 21
68.385525597643891
 31
0.0
  0
ARC
  5
DCA
  8
C4
 10
519.38133009568332
 20
67.648955606815889
 30
0.0
 40
1.8999999999999999
 50
33.039136814941259
 51
90.0
  0
ARC
  5
DCB
  8
C4
 10
521.88133009568332
 20
53.448955606815872
 30
0.0
 40
0.85
 50
90.0
 51
146.96086318505741
  0
LINE
  5
DCC
  8
C4
 10
520.97409695643057
 20
53.61305323337254
 30
0.0
 11
521.16877650008576
 21
53.912385615987887
 31
0.0
  0
ARC
  5
DCD
  8
C4
 10
519.38133009568332
 20
54.648955606815889
 30
0.0
 40
1.8999999999999999
 50
270.0
 51
326.96086318505871
  0
ARC
  5
DCE
  8
C4
 10
521.88133009568332
 20
68.848955606815906
 30
0.0
 40
0.85
 50
270.0
 51
326.96086318505741
  0
LINE
  5
DCF
  8
C4
 10
522.78856323493596
 20
68.684857980259238
 30
0.0
 11
522.59388369128067
 21
68.385525597643891
 31
0.0
  0
ARC
  5
DD0
  8
C4
 10
524.38133009568332
 20
67.648955606815889
 30
0.0
 40
1.8999999999999999
 50
90.0
 51
146.96086318505871
  0
ARC
  5
DD1
  8
C4
 10
521.88133009568332
 20
53.448955606815872
 30
0.0
 40
0.85
 50
33.039136814942502
 51
90.0
  0
LINE
  5
DD2
  8
C4
 10
522.78856323493596
 20
53.61305323337254
 30
0.0
 11
522.59388369128067
 21
53.912385615987887
 31
0.0
  0
ARC
  5
DD3
  8
C4
 10
524.38133009568332
 20
54.648955606815889
 30
0.0
 40
1.8999999999999999
 50
213.0391368149412
 51
270.0
  0
ARC
  5
DD4
  8
C4
 10
526.88133009568332
 20
68.848955606815906
 30
0.0
 40
0.85
 50
213.03913681494251
 51
270.0
  0
LINE
  5
DD5
  8
C4
 10
525.97409695643057
 20
68.684857980259238
 30
0.0
 11
526.16877650008576
 21
68.385525597643891
 31
0.0
  0
ARC
  5
DD6
  8
C4
 10
524.38133009568332
 20
67.648955606815889
 30
0.0
 40
1.8999999999999999
 50
33.039136814941259
 51
90.0
  0
ARC
  5
DD7
  8
C4
 10
526.88133009568332
 20
53.448955606815872
 30
0.0
 40
0.85
 50
90.0
 51
146.96086318505741
  0
LINE
  5
DD8
  8
C4
 10
525.97409695643057
 20
53.61305323337254
 30
0.0
 11
526.16877650008576
 21
53.912385615987887
 31
0.0
  0
ARC
  5
DD9
  8
C4
 10
524.38133009568332
 20
54.648955606815889
 30
0.0
 40
1.8999999999999999
 50
270.0
 51
326.96086318505871
  0
ARC
  5
DDA
  8
C4
 10
526.88133009568332
 20
68.848955606815906
 30
0.0
 40
0.85
 50
270.0
 51
326.96086318505741
  0
LINE
  5
DDB
  8
C4
 10
527.78856323493596
 20
68.684857980259238
 30
0.0
 11
527.59388369128067
 21
68.385525597643891
 31
0.0
  0
ARC
  5
DDC
  8
C4
 10
529.38133009568332
 20
67.648955606815889
 30
0.0
 40
1.8999999999999999
 50
90.0
 51
146.96086318505871
  0
ARC
  5
DDD
  8
C4
 10
526.88133009568332
 20
53.448955606815872
 30
0.0
 40
0.85
 50
33.039136814942502
 51
90.0
  0
LINE
  5
DDE
  8
C4
 10
527.78856323493596
 20
53.61305323337254
 30
0.0
 11
527.59388369128067
 21
53.912385615987887
 31
0.0
  0
ARC
  5
DDF
  8
C4
 10
529.38133009568332
 20
54.648955606815889
 30
0.0
 40
1.8999999999999999
 50
213.0391368149412
 51
270.0
  0
ARC
  5
DE0
  8
C4
 10
531.88133009568332
 20
68.848955606815906
 30
0.0
 40
0.85
 50
213.03913681494251
 51
270.0
  0
LINE
  5
DE1
  8
C4
 10
530.97409695643046
 20
68.684857980259238
 30
0.0
 11
531.16877650008587
 21
68.385525597643891
 31
0.0
  0
ARC
  5
DE2
  8
C4
 10
529.38133009568332
 20
67.648955606815889
 30
0.0
 40
1.8999999999999999
 50
33.039136814941259
 51
90.0
  0
ARC
  5
DE3
  8
C4
 10
531.88133009568332
 20
53.448955606815872
 30
0.0
 40
0.85
 50
90.0
 51
146.96086318505741
  0
LINE
  5
DE4
  8
C4
 10
530.97409695643046
 20
53.61305323337254
 30
0.0
 11
531.16877650008587
 21
53.912385615987887
 31
0.0
  0
ARC
  5
DE5
  8
C4
 10
529.38133009568332
 20
54.648955606815889
 30
0.0
 40
1.8999999999999999
 50
270.0
 51
326.96086318505871
  0
ARC
  5
DE6
  8
C4
 10
531.88133009568332
 20
68.848955606815906
 30
0.0
 40
0.85
 50
270.0
 51
326.96086318505741
  0
LINE
  5
DE7
  8
C4
 10
532.78856323493596
 20
68.684857980259238
 30
0.0
 11
532.59388369128078
 21
68.385525597643891
 31
0.0
  0
ARC
  5
DE8
  8
C4
 10
534.38133009568332
 20
67.648955606815889
 30
0.0
 40
1.8999999999999999
 50
90.0
 51
146.96086318505871
  0
ARC
  5
DE9
  8
C4
 10
531.88133009568332
 20
53.448955606815872
 30
0.0
 40
0.85
 50
33.039136814942502
 51
90.0
  0
LINE
  5
DEA
  8
C4
 10
532.78856323493596
 20
53.61305323337254
 30
0.0
 11
532.59388369128078
 21
53.912385615987887
 31
0.0
  0
ARC
  5
DEB
  8
C4
 10
534.38133009568332
 20
54.648955606815889
 30
0.0
 40
1.8999999999999999
 50
213.0391368149412
 51
270.0
  0
ARC
  5
DEC
  8
C4
 10
536.88133009568332
 20
68.848955606815906
 30
0.0
 40
0.85
 50
213.03913681494251
 51
270.0
  0
LINE
  5
DED
  8
C4
 10
535.97409695643046
 20
68.684857980259238
 30
0.0
 11
536.16877650008576
 21
68.385525597643891
 31
0.0
  0
ARC
  5
DEE
  8
C4
 10
534.38133009568332
 20
67.648955606815889
 30
0.0
 40
1.8999999999999999
 50
33.039136814941259
 51
90.0
  0
ARC
  5
DEF
  8
C4
 10
536.88133009568332
 20
53.448955606815872
 30
0.0
 40
0.85
 50
90.0
 51
146.96086318505741
  0
LINE
  5
DF0
  8
C4
 10
535.97409695643046
 20
53.61305323337254
 30
0.0
 11
536.16877650008576
 21
53.912385615987887
 31
0.0
  0
ARC
  5
DF1
  8
C4
 10
534.38133009568332
 20
54.648955606815889
 30
0.0
 40
1.8999999999999999
 50
270.0
 51
326.96086318505871
  0
ARC
  5
DF2
  8
C4
 10
536.88133009568332
 20
68.848955606815906
 30
0.0
 40
0.85
 50
270.0
 51
326.96086318505741
  0
LINE
  5
DF3
  8
C4
 10
537.78856323493596
 20
68.684857980259238
 30
0.0
 11
537.59388369128078
 21
68.385525597643891
 31
0.0
  0
ARC
  5
DF4
  8
C4
 10
539.38133009568332
 20
67.648955606815889
 30
0.0
 40
1.8999999999999999
 50
90.0
 51
146.96086318505871
  0
ARC
  5
DF5
  8
C4
 10
536.88133009568332
 20
53.448955606815872
 30
0.0
 40
0.85
 50
33.039136814942502
 51
90.0
  0
LINE
  5
DF6
  8
C4
 10
537.78856323493596
 20
53.61305323337254
 30
0.0
 11
537.59388369128078
 21
53.912385615987887
 31
0.0
  0
ARC
  5
DF7
  8
C4
 10
539.38133009568332
 20
54.648955606815889
 30
0.0
 40
1.8999999999999999
 50
213.0391368149412
 51
270.0
  0
ARC
  5
DF8
  8
C4
 10
541.88133009568332
 20
68.848955606815906
 30
0.0
 40
0.85
 50
213.03913681494251
 51
270.0
  0
LINE
  5
DF9
  8
C4
 10
540.97409695643046
 20
68.684857980259238
 30
0.0
 11
541.16877650008576
 21
68.385525597643891
 31
0.0
  0
ARC
  5
DFA
  8
C4
 10
539.38133009568332
 20
67.648955606815889
 30
0.0
 40
1.8999999999999999
 50
33.039136814941259
 51
90.0
  0
ARC
  5
DFB
  8
C4
 10
541.88133009568332
 20
53.448955606815872
 30
0.0
 40
0.85
 50
90.0
 51
146.96086318505741
  0
LINE
  5
DFC
  8
C4
 10
540.97409695643046
 20
53.61305323337254
 30
0.0
 11
541.16877650008576
 21
53.912385615987887
 31
0.0
  0
ARC
  5
DFD
  8
C4
 10
539.38133009568332
 20
54.648955606815889
 30
0.0
 40
1.8999999999999999
 50
270.0
 51
326.96086318505871
  0
ARC
  5
DFE
  8
C4
 10
541.88133009568332
 20
68.848955606815906
 30
0.0
 40
0.85
 50
270.0
 51
326.96086318505741
  0
LINE
  5
DFF
  8
C4
 10
542.78856323493608
 20
68.684857980259238
 30
0.0
 11
542.59388369128067
 21
68.385525597643891
 31
0.0
  0
ARC
  5
E00
  8
C4
 10
544.38133009568332
 20
67.648955606815889
 30
0.0
 40
1.8999999999999999
 50
90.0
 51
146.96086318505871
  0
ARC
  5
E01
  8
C4
 10
541.88133009568332
 20
53.448955606815872
 30
0.0
 40
0.85
 50
33.039136814942502
 51
90.0
  0
LINE
  5
E02
  8
C4
 10
542.78856323493608
 20
53.61305323337254
 30
0.0
 11
542.59388369128067
 21
53.912385615987887
 31
0.0
  0
ARC
  5
E03
  8
C4
 10
544.38133009568332
 20
54.648955606815889
 30
0.0
 40
1.8999999999999999
 50
213.0391368149412
 51
270.0
  0
ARC
  5
E04
  8
C4
 10
546.88133009568332
 20
68.848955606815906
 30
0.0
 40
0.85
 50
213.03913681494251
 51
270.0
  0
LINE
  5
E05
  8
C4
 10
545.97409695643057
 20
68.684857980259238
 30
0.0
 11
546.16877650008576
 21
68.385525597643891
 31
0.0
  0
ARC
  5
E06
  8
C4
 10
544.38133009568332
 20
67.648955606815889
 30
0.0
 40
1.8999999999999999
 50
33.039136814941259
 51
90.0
  0
ARC
  5
E07
  8
C4
 10
546.88133009568332
 20
53.448955606815872
 30
0.0
 40
0.85
 50
90.0
 51
146.96086318505741
  0
LINE
  5
E08
  8
C4
 10
545.97409695643057
 20
53.61305323337254
 30
0.0
 11
546.16877650008576
 21
53.912385615987887
 31
0.0
  0
ARC
  5
E09
  8
C4
 10
544.38133009568332
 20
54.648955606815889
 30
0.0
 40
1.8999999999999999
 50
270.0
 51
326.96086318505871
  0
ARC
  5
E0A
  8
C4
 10
546.88133009568332
 20
68.848955606815906
 30
0.0
 40
0.85
 50
270.0
 51
326.96086318505741
  0
LINE
  5
E0B
  8
C4
 10
547.78856323493596
 20
68.684857980259238
 30
0.0
 11
547.59388369128067
 21
68.385525597643891
 31
0.0
  0
ARC
  5
E0C
  8
C4
 10
549.38133009568332
 20
67.648955606815889
 30
0.0
 40
1.8999999999999999
 50
90.0
 51
146.96086318505871
  0
ARC
  5
E0D
  8
C4
 10
546.88133009568332
 20
53.448955606815872
 30
0.0
 40
0.85
 50
33.039136814942502
 51
90.0
  0
LINE
  5
E0E
  8
C4
 10
547.78856323493596
 20
53.61305323337254
 30
0.0
 11
547.59388369128067
 21
53.912385615987887
 31
0.0
  0
ARC
  5
E0F
  8
C4
 10
549.38133009568332
 20
54.648955606815889
 30
0.0
 40
1.8999999999999999
 50
213.0391368149412
 51
270.0
  0
ARC
  5
E10
  8
C4
 10
551.88133009568332
 20
68.848955606815906
 30
0.0
 40
0.85
 50
213.03913681494251
 51
270.0
  0
LINE
  5
E11
  8
C4
 10
550.97409695643057
 20
68.684857980259238
 30
0.0
 11
551.16877650008576
 21
68.385525597643891
 31
0.0
  0
ARC
  5
E12
  8
C4
 10
549.38133009568332
 20
67.648955606815889
 30
0.0
 40
1.8999999999999999
 50
33.039136814941259
 51
90.0
  0
ARC
  5
E13
  8
C4
 10
551.88133009568332
 20
53.448955606815872
 30
0.0
 40
0.85
 50
90.0
 51
146.96086318505741
  0
LINE
  5
E14
  8
C4
 10
550.97409695643057
 20
53.61305323337254
 30
0.0
 11
551.16877650008576
 21
53.912385615987887
 31
0.0
  0
ARC
  5
E15
  8
C4
 10
549.38133009568332
 20
54.648955606815889
 30
0.0
 40
1.8999999999999999
 50
270.0
 51
326.96086318505871
  0
ARC
  5
E16
  8
C4
 10
551.88133009568332
 20
68.848955606815906
 30
0.0
 40
0.85
 50
270.0
 51
326.96086318505741
  0
LINE
  5
E17
  8
C4
 10
552.78856323493596
 20
68.684857980259238
 30
0.0
 11
552.59388369128067
 21
68.385525597643891
 31
0.0
  0
ARC
  5
E18
  8
C4
 10
554.38133009568332
 20
67.648955606815889
 30
0.0
 40
1.8999999999999999
 50
90.0
 51
146.96086318505871
  0
ARC
  5
E19
  8
C4
 10
551.88133009568332
 20
53.448955606815872
 30
0.0
 40
0.85
 50
33.039136814942502
 51
90.0
  0
LINE
  5
E1A
  8
C4
 10
552.78856323493596
 20
53.61305323337254
 30
0.0
 11
552.59388369128067
 21
53.912385615987887
 31
0.0
  0
ARC
  5
E1B
  8
C4
 10
554.38133009568332
 20
54.648955606815889
 30
0.0
 40
1.8999999999999999
 50
213.0391368149412
 51
270.0
  0
ARC
  5
E1C
  8
C4
 10
556.88133009568332
 20
68.848955606815906
 30
0.0
 40
0.85
 50
213.03913681494251
 51
270.0
  0
LINE
  5
E1D
  8
C4
 10
555.97409695643046
 20
68.684857980259238
 30
0.0
 11
556.16877650008587
 21
68.385525597643891
 31
0.0
  0
ARC
  5
E1E
  8
C4
 10
554.38133009568332
 20
67.648955606815889
 30
0.0
 40
1.8999999999999999
 50
33.039136814941259
 51
90.0
  0
ARC
  5
E1F
  8
C4
 10
556.88133009568332
 20
53.448955606815872
 30
0.0
 40
0.85
 50
90.0
 51
146.96086318505741
  0
LINE
  5
E20
  8
C4
 10
555.97409695643046
 20
53.61305323337254
 30
0.0
 11
556.16877650008587
 21
53.912385615987887
 31
0.0
  0
ARC
  5
E21
  8
C4
 10
554.38133009568332
 20
54.648955606815889
 30
0.0
 40
1.8999999999999999
 50
270.0
 51
326.96086318505871
  0
ARC
  5
E22
  8
C4
 10
556.88133009568332
 20
68.848955606815906
 30
0.0
 40
0.85
 50
270.0
 51
326.96086318505741
  0
LINE
  5
E23
  8
C4
 10
557.78856323493596
 20
68.684857980259238
 30
0.0
 11
557.59388369128078
 21
68.385525597643891
 31
0.0
  0
ARC
  5
E24
  8
C4
 10
559.38133009568332
 20
67.648955606815889
 30
0.0
 40
1.8999999999999999
 50
90.0
 51
146.96086318505871
  0
ARC
  5
E25
  8
C4
 10
556.88133009568332
 20
53.448955606815872
 30
0.0
 40
0.85
 50
33.039136814942502
 51
90.0
  0
LINE
  5
E26
  8
C4
 10
557.78856323493596
 20
53.61305323337254
 30
0.0
 11
557.59388369128078
 21
53.912385615987887
 31
0.0
  0
ARC
  5
E27
  8
C4
 10
559.38133009568332
 20
54.648955606815889
 30
0.0
 40
1.8999999999999999
 50
213.0391368149412
 51
270.0
  0
ARC
  5
E28
  8
C4
 10
561.88133009568332
 20
68.848955606815906
 30
0.0
 40
0.85
 50
213.03913681494251
 51
270.0
  0
LINE
  5
E29
  8
C4
 10
560.97409695643046
 20
68.684857980259238
 30
0.0
 11
561.16877650008576
 21
68.385525597643891
 31
0.0
  0
ARC
  5
E2A
  8
C4
 10
559.38133009568332
 20
67.648955606815889
 30
0.0
 40
1.8999999999999999
 50
33.039136814941259
 51
90.0
  0
ARC
  5
E2B
  8
C4
 10
561.88133009568332
 20
53.448955606815872
 30
0.0
 40
0.85
 50
90.0
 51
146.96086318505741
  0
LINE
  5
E2C
  8
C4
 10
560.97409695643046
 20
53.61305323337254
 30
0.0
 11
561.16877650008576
 21
53.912385615987887
 31
0.0
  0
ARC
  5
E2D
  8
C4
 10
559.38133009568332
 20
54.648955606815889
 30
0.0
 40
1.8999999999999999
 50
270.0
 51
326.96086318505871
  0
ARC
  5
E2E
  8
C4
 10
561.88133009568332
 20
68.848955606815906
 30
0.0
 40
0.85
 50
270.0
 51
326.96086318505741
  0
LINE
  5
E2F
  8
C4
 10
562.78856323493596
 20
68.684857980259238
 30
0.0
 11
562.59388369128078
 21
68.385525597643891
 31
0.0
  0
ARC
  5
E30
  8
C4
 10
564.38133009568332
 20
67.648955606815889
 30
0.0
 40
1.8999999999999999
 50
90.0
 51
146.96086318505871
  0
ARC
  5
E31
  8
C4
 10
561.88133009568332
 20
53.448955606815872
 30
0.0
 40
0.85
 50
33.039136814942502
 51
90.0
  0
LINE
  5
E32
  8
C4
 10
562.78856323493596
 20
53.61305323337254
 30
0.0
 11
562.59388369128078
 21
53.912385615987887
 31
0.0
  0
ARC
  5
E33
  8
C4
 10
564.38133009568332
 20
54.648955606815889
 30
0.0
 40
1.8999999999999999
 50
213.0391368149412
 51
270.0
  0
ARC
  5
E34
  8
C4
 10
566.88133009568332
 20
68.848955606815906
 30
0.0
 40
0.85
 50
213.03913681494251
 51
270.0
  0
LINE
  5
E35
  8
C4
 10
565.97409695643046
 20
68.684857980259238
 30
0.0
 11
566.16877650008576
 21
68.385525597643891
 31
0.0
  0
ARC
  5
E36
  8
C4
 10
564.38133009568332
 20
67.648955606815889
 30
0.0
 40
1.8999999999999999
 50
33.039136814941259
 51
90.0
  0
ARC
  5
E37
  8
C4
 10
566.88133009568332
 20
53.448955606815872
 30
0.0
 40
0.85
 50
90.0
 51
146.96086318505741
  0
LINE
  5
E38
  8
C4
 10
565.97409695643046
 20
53.61305323337254
 30
0.0
 11
566.16877650008576
 21
53.912385615987887
 31
0.0
  0
ARC
  5
E39
  8
C4
 10
564.38133009568332
 20
54.648955606815889
 30
0.0
 40
1.8999999999999999
 50
270.0
 51
326.96086318505871
  0
ARC
  5
E3A
  8
C4
 10
566.88133009568332
 20
68.848955606815906
 30
0.0
 40
0.85
 50
270.0
 51
326.96086318505741
  0
LINE
  5
E3B
  8
C4
 10
567.78856323493608
 20
68.684857980259238
 30
0.0
 11
567.59388369128067
 21
68.385525597643891
 31
0.0
  0
ARC
  5
E3C
  8
C4
 10
569.38133009568332
 20
67.648955606815889
 30
0.0
 40
1.8999999999999999
 50
90.0
 51
146.96086318505871
  0
ARC
  5
E3D
  8
C4
 10
566.88133009568332
 20
53.448955606815872
 30
0.0
 40
0.85
 50
33.039136814942502
 51
90.0
  0
LINE
  5
E3E
  8
C4
 10
567.78856323493608
 20
53.61305323337254
 30
0.0
 11
567.59388369128067
 21
53.912385615987887
 31
0.0
  0
ARC
  5
E3F
  8
C4
 10
569.38133009568332
 20
54.648955606815889
 30
0.0
 40
1.8999999999999999
 50
213.0391368149412
 51
270.0
  0
ARC
  5
E40
  8
C4
 10
571.88133009568332
 20
68.848955606815906
 30
0.0
 40
0.85
 50
213.03913681494251
 51
270.0
  0
LINE
  5
E41
  8
C4
 10
570.97409695643057
 20
68.684857980259238
 30
0.0
 11
571.16877650008576
 21
68.385525597643891
 31
0.0
  0
ARC
  5
E42
  8
C4
 10
569.38133009568332
 20
67.648955606815889
 30
0.0
 40
1.8999999999999999
 50
33.039136814941259
 51
90.0
  0
ARC
  5
E43
  8
C4
 10
571.88133009568332
 20
53.448955606815872
 30
0.0
 40
0.85
 50
90.0
 51
146.96086318505741
  0
LINE
  5
E44
  8
C4
 10
570.97409695643057
 20
53.61305323337254
 30
0.0
 11
571.16877650008576
 21
53.912385615987887
 31
0.0
  0
ARC
  5
E45
  8
C4
 10
569.38133009568332
 20
54.648955606815889
 30
0.0
 40
1.8999999999999999
 50
270.0
 51
326.96086318505871
  0
ARC
  5
E46
  8
C4
 10
571.88133009568332
 20
68.848955606815906
 30
0.0
 40
0.85
 50
270.0
 51
326.96086318505741
  0
LINE
  5
E47
  8
C4
 10
572.78856323493596
 20
68.684857980259238
 30
0.0
 11
572.59388369128067
 21
68.385525597643891
 31
0.0
  0
ARC
  5
E48
  8
C4
 10
574.38133009568332
 20
67.648955606815889
 30
0.0
 40
1.8999999999999999
 50
90.0
 51
146.96086318505871
  0
ARC
  5
E49
  8
C4
 10
571.88133009568332
 20
53.448955606815872
 30
0.0
 40
0.85
 50
33.039136814942502
 51
90.0
  0
LINE
  5
E4A
  8
C4
 10
572.78856323493596
 20
53.61305323337254
 30
0.0
 11
572.59388369128067
 21
53.912385615987887
 31
0.0
  0
ARC
  5
E4B
  8
C4
 10
574.38133009568332
 20
54.648955606815889
 30
0.0
 40
1.8999999999999999
 50
213.0391368149412
 51
270.0
  0
ARC
  5
E4C
  8
C4
 10
576.88133009568332
 20
68.848955606815906
 30
0.0
 40
0.85
 50
213.03913681494251
 51
270.0
  0
LINE
  5
E4D
  8
C4
 10
575.97409695643057
 20
68.684857980259238
 30
0.0
 11
576.16877650008576
 21
68.385525597643891
 31
0.0
  0
ARC
  5
E4E
  8
C4
 10
574.38133009568332
 20
67.648955606815889
 30
0.0
 40
1.8999999999999999
 50
33.039136814941259
 51
90.0
  0
ARC
  5
E4F
  8
C4
 10
576.88133009568332
 20
53.448955606815872
 30
0.0
 40
0.85
 50
90.0
 51
146.96086318505741
  0
LINE
  5
E50
  8
C4
 10
575.97409695643057
 20
53.61305323337254
 30
0.0
 11
576.16877650008576
 21
53.912385615987887
 31
0.0
  0
ARC
  5
E51
  8
C4
 10
574.38133009568332
 20
54.648955606815889
 30
0.0
 40
1.8999999999999999
 50
270.0
 51
326.96086318505871
  0
ARC
  5
E52
  8
C4
 10
576.88133009568332
 20
68.848955606815906
 30
0.0
 40
0.85
 50
270.0
 51
326.96086318505741
  0
LINE
  5
E53
  8
C4
 10
577.78856323493596
 20
68.684857980259238
 30
0.0
 11
577.59388369128067
 21
68.385525597643891
 31
0.0
  0
ARC
  5
E54
  8
C4
 10
579.38133009568332
 20
67.648955606815889
 30
0.0
 40
1.8999999999999999
 50
90.0
 51
146.96086318505871
  0
ARC
  5
E55
  8
C4
 10
576.88133009568332
 20
53.448955606815872
 30
0.0
 40
0.85
 50
33.039136814942502
 51
90.0
  0
LINE
  5
E56
  8
C4
 10
577.78856323493596
 20
53.61305323337254
 30
0.0
 11
577.59388369128067
 21
53.912385615987887
 31
0.0
  0
ARC
  5
E57
  8
C4
 10
579.38133009568332
 20
54.648955606815889
 30
0.0
 40
1.8999999999999999
 50
213.0391368149412
 51
270.0
  0
ARC
  5
E58
  8
C4
 10
581.88133009568332
 20
68.848955606815906
 30
0.0
 40
0.85
 50
213.03913681494251
 51
270.0
  0
LINE
  5
E59
  8
C4
 10
580.97409695643046
 20
68.684857980259238
 30
0.0
 11
581.16877650008587
 21
68.385525597643891
 31
0.0
  0
ARC
  5
E5A
  8
C4
 10
579.38133009568332
 20
67.648955606815889
 30
0.0
 40
1.8999999999999999
 50
33.039136814941259
 51
90.0
  0
ARC
  5
E5B
  8
C4
 10
581.88133009568332
 20
53.448955606815872
 30
0.0
 40
0.85
 50
90.0
 51
146.96086318505741
  0
LINE
  5
E5C
  8
C4
 10
580.97409695643046
 20
53.61305323337254
 30
0.0
 11
581.16877650008587
 21
53.912385615987887
 31
0.0
  0
ARC
  5
E5D
  8
C4
 10
579.38133009568332
 20
54.648955606815889
 30
0.0
 40
1.8999999999999999
 50
270.0
 51
326.96086318505871
  0
ARC
  5
E5E
  8
C4
 10
581.88133009568332
 20
68.848955606815906
 30
0.0
 40
0.85
 50
270.0
 51
326.96086318505741
  0
LINE
  5
E5F
  8
C4
 10
582.78856323493596
 20
68.684857980259238
 30
0.0
 11
582.59388369128078
 21
68.385525597643891
 31
0.0
  0
ARC
  5
E60
  8
C4
 10
584.38133009568332
 20
67.648955606815889
 30
0.0
 40
1.8999999999999999
 50
90.0
 51
146.96086318505871
  0
ARC
  5
E61
  8
C4
 10
581.88133009568332
 20
53.448955606815872
 30
0.0
 40
0.85
 50
33.039136814942502
 51
90.0
  0
LINE
  5
E62
  8
C4
 10
582.78856323493596
 20
53.61305323337254
 30
0.0
 11
582.59388369128078
 21
53.912385615987887
 31
0.0
  0
ARC
  5
E63
  8
C4
 10
584.38133009568332
 20
54.648955606815889
 30
0.0
 40
1.8999999999999999
 50
213.0391368149412
 51
270.0
  0
ARC
  5
E64
  8
C4
 10
586.88133009568332
 20
68.848955606815906
 30
0.0
 40
0.85
 50
213.03913681494251
 51
270.0
  0
LINE
  5
E65
  8
C4
 10
585.97409695643046
 20
68.684857980259238
 30
0.0
 11
586.16877650008576
 21
68.385525597643891
 31
0.0
  0
ARC
  5
E66
  8
C4
 10
584.38133009568332
 20
67.648955606815889
 30
0.0
 40
1.8999999999999999
 50
33.039136814941259
 51
90.0
  0
ARC
  5
E67
  8
C4
 10
586.88133009568332
 20
53.448955606815872
 30
0.0
 40
0.85
 50
90.0
 51
146.96086318505741
  0
LINE
  5
E68
  8
C4
 10
585.97409695643046
 20
53.61305323337254
 30
0.0
 11
586.16877650008576
 21
53.912385615987887
 31
0.0
  0
ARC
  5
E69
  8
C4
 10
584.38133009568332
 20
54.648955606815889
 30
0.0
 40
1.8999999999999999
 50
270.0
 51
326.96086318505871
  0
ARC
  5
E6A
  8
C4
 10
586.88133009568332
 20
68.848955606815906
 30
0.0
 40
0.85
 50
270.0
 51
326.96086318505741
  0
LINE
  5
E6B
  8
C4
 10
587.78856323493596
 20
68.684857980259238
 30
0.0
 11
587.59388369128078
 21
68.385525597643891
 31
0.0
  0
ARC
  5
E6C
  8
C4
 10
589.38133009568332
 20
67.648955606815889
 30
0.0
 40
1.8999999999999999
 50
90.0
 51
146.96086318505871
  0
ARC
  5
E6D
  8
C4
 10
586.88133009568332
 20
53.448955606815872
 30
0.0
 40
0.85
 50
33.039136814942502
 51
90.0
  0
LINE
  5
E6E
  8
C4
 10
587.78856323493596
 20
53.61305323337254
 30
0.0
 11
587.59388369128078
 21
53.912385615987887
 31
0.0
  0
ARC
  5
E6F
  8
C4
 10
589.38133009568332
 20
54.648955606815889
 30
0.0
 40
1.8999999999999999
 50
213.0391368149412
 51
270.0
  0
ARC
  5
E70
  8
C4
 10
591.88133009568332
 20
68.848955606815906
 30
0.0
 40
0.85
 50
213.03913681494251
 51
270.0
  0
LINE
  5
E71
  8
C4
 10
590.97409695643046
 20
68.684857980259238
 30
0.0
 11
591.16877650008576
 21
68.385525597643891
 31
0.0
  0
ARC
  5
E72
  8
C4
 10
589.38133009568332
 20
67.648955606815889
 30
0.0
 40
1.8999999999999999
 50
33.039136814941259
 51
90.0
  0
ARC
  5
E73
  8
C4
 10
591.88133009568332
 20
53.448955606815872
 30
0.0
 40
0.85
 50
90.0
 51
146.96086318505741
  0
LINE
  5
E74
  8
C4
 10
590.97409695643046
 20
53.61305323337254
 30
0.0
 11
591.16877650008576
 21
53.912385615987887
 31
0.0
  0
ARC
  5
E75
  8
C4
 10
589.38133009568332
 20
54.648955606815889
 30
0.0
 40
1.8999999999999999
 50
270.0
 51
326.96086318505871
  0
ARC
  5
E76
  8
C4
 10
591.88133009568332
 20
68.848955606815906
 30
0.0
 40
0.85
 50
270.0
 51
326.96086318505741
  0
LINE
  5
E77
  8
C4
 10
592.78856323493608
 20
68.684857980259238
 30
0.0
 11
592.59388369128067
 21
68.385525597643891
 31
0.0
  0
ARC
  5
E78
  8
C4
 10
594.38133009568332
 20
67.648955606815889
 30
0.0
 40
1.8999999999999999
 50
90.0
 51
146.96086318505871
  0
ARC
  5
E79
  8
C4
 10
591.88133009568332
 20
53.448955606815872
 30
0.0
 40
0.85
 50
33.039136814942502
 51
90.0
  0
LINE
  5
E7A
  8
C4
 10
592.78856323493608
 20
53.61305323337254
 30
0.0
 11
592.59388369128067
 21
53.912385615987887
 31
0.0
  0
ARC
  5
E7B
  8
C4
 10
594.38133009568332
 20
54.648955606815889
 30
0.0
 40
1.8999999999999999
 50
213.0391368149412
 51
270.0
  0
ARC
  5
E7C
  8
C4
 10
596.88133009568332
 20
68.848955606815906
 30
0.0
 40
0.85
 50
213.03913681494251
 51
270.0
  0
LINE
  5
E7D
  8
C4
 10
595.97409695643057
 20
68.684857980259238
 30
0.0
 11
596.16877650008576
 21
68.385525597643891
 31
0.0
  0
ARC
  5
E7E
  8
C4
 10
594.38133009568332
 20
67.648955606815889
 30
0.0
 40
1.8999999999999999
 50
33.039136814941259
 51
90.0
  0
ARC
  5
E7F
  8
C4
 10
596.88133009568332
 20
53.448955606815872
 30
0.0
 40
0.85
 50
90.0
 51
146.96086318505741
  0
LINE
  5
E80
  8
C4
 10
595.97409695643057
 20
53.61305323337254
 30
0.0
 11
596.16877650008576
 21
53.912385615987887
 31
0.0
  0
ARC
  5
E81
  8
C4
 10
594.38133009568332
 20
54.648955606815889
 30
0.0
 40
1.8999999999999999
 50
270.0
 51
326.96086318505871
  0
ARC
  5
E82
  8
C4
 10
596.88133009568332
 20
68.848955606815906
 30
0.0
 40
0.85
 50
270.0
 51
326.96086318505741
  0
LINE
  5
E83
  8
C4
 10
597.78856323493596
 20
68.684857980259238
 30
0.0
 11
597.59388369128067
 21
68.385525597643891
 31
0.0
  0
ARC
  5
E84
  8
C4
 10
599.38133009568332
 20
67.648955606815889
 30
0.0
 40
1.8999999999999999
 50
90.0
 51
146.96086318505871
  0
ARC
  5
E85
  8
C4
 10
596.88133009568332
 20
53.448955606815872
 30
0.0
 40
0.85
 50
33.039136814942502
 51
90.0
  0
LINE
  5
E86
  8
C4
 10
597.78856323493596
 20
53.61305323337254
 30
0.0
 11
597.59388369128067
 21
53.912385615987887
 31
0.0
  0
ARC
  5
E87
  8
C4
 10
599.38133009568332
 20
54.648955606815889
 30
0.0
 40
1.8999999999999999
 50
213.0391368149412
 51
270.0
  0
ARC
  5
E88
  8
C4
 10
601.88133009568332
 20
68.848955606815906
 30
0.0
 40
0.85
 50
213.03913681494251
 51
270.0
  0
LINE
  5
E89
  8
C4
 10
600.97409695643057
 20
68.684857980259238
 30
0.0
 11
601.16877650008576
 21
68.385525597643891
 31
0.0
  0
ARC
  5
E8A
  8
C4
 10
599.38133009568332
 20
67.648955606815889
 30
0.0
 40
1.8999999999999999
 50
33.039136814941259
 51
90.0
  0
ARC
  5
E8B
  8
C4
 10
601.88133009568332
 20
53.448955606815872
 30
0.0
 40
0.85
 50
90.0
 51
146.96086318505741
  0
LINE
  5
E8C
  8
C4
 10
600.97409695643057
 20
53.61305323337254
 30
0.0
 11
601.16877650008576
 21
53.912385615987887
 31
0.0
  0
ARC
  5
E8D
  8
C4
 10
599.38133009568332
 20
54.648955606815889
 30
0.0
 40
1.8999999999999999
 50
270.0
 51
326.96086318505871
  0
ARC
  5
E8E
  8
C4
 10
601.88133009568332
 20
68.848955606815906
 30
0.0
 40
0.85
 50
270.0
 51
326.96086318505741
  0
LINE
  5
E8F
  8
C4
 10
602.78856323493596
 20
68.684857980259238
 30
0.0
 11
602.59388369128067
 21
68.385525597643891
 31
0.0
  0
ARC
  5
E90
  8
C4
 10
604.38133009568332
 20
67.648955606815889
 30
0.0
 40
1.8999999999999999
 50
90.0
 51
146.96086318505871
  0
ARC
  5
E91
  8
C4
 10
601.88133009568332
 20
53.448955606815872
 30
0.0
 40
0.85
 50
33.039136814942502
 51
90.0
  0
LINE
  5
E92
  8
C4
 10
602.78856323493596
 20
53.61305323337254
 30
0.0
 11
602.59388369128067
 21
53.912385615987887
 31
0.0
  0
ARC
  5
E93
  8
C4
 10
604.38133009568332
 20
54.648955606815889
 30
0.0
 40
1.8999999999999999
 50
213.0391368149412
 51
270.0
  0
ARC
  5
E94
  8
C4
 10
606.88133009568332
 20
68.848955606815906
 30
0.0
 40
0.85
 50
213.03913681494251
 51
270.0
  0
LINE
  5
E95
  8
C4
 10
605.97409695643046
 20
68.684857980259238
 30
0.0
 11
606.16877650008587
 21
68.385525597643891
 31
0.0
  0
ARC
  5
E96
  8
C4
 10
604.38133009568332
 20
67.648955606815889
 30
0.0
 40
1.8999999999999999
 50
33.039136814941259
 51
90.0
  0
ARC
  5
E97
  8
C4
 10
606.88133009568332
 20
53.448955606815872
 30
0.0
 40
0.85
 50
90.0
 51
146.96086318505741
  0
LINE
  5
E98
  8
C4
 10
605.97409695643046
 20
53.61305323337254
 30
0.0
 11
606.16877650008587
 21
53.912385615987887
 31
0.0
  0
ARC
  5
E99
  8
C4
 10
604.38133009568332
 20
54.648955606815889
 30
0.0
 40
1.8999999999999999
 50
270.0
 51
326.96086318505871
  0
ARC
  5
E9A
  8
C4
 10
606.88133009568332
 20
68.848955606815906
 30
0.0
 40
0.85
 50
270.0
 51
326.96086318505741
  0
LINE
  5
E9B
  8
C4
 10
607.78856323493596
 20
68.684857980259238
 30
0.0
 11
607.59388369128078
 21
68.385525597643891
 31
0.0
  0
ARC
  5
E9C
  8
C4
 10
609.38133009568332
 20
67.648955606815889
 30
0.0
 40
1.8999999999999999
 50
90.0
 51
146.96086318505871
  0
ARC
  5
E9D
  8
C4
 10
606.88133009568332
 20
53.448955606815872
 30
0.0
 40
0.85
 50
33.039136814942502
 51
90.0
  0
LINE
  5
E9E
  8
C4
 10
607.78856323493596
 20
53.61305323337254
 30
0.0
 11
607.59388369128078
 21
53.912385615987887
 31
0.0
  0
ARC
  5
E9F
  8
C4
 10
609.38133009568332
 20
54.648955606815889
 30
0.0
 40
1.8999999999999999
 50
213.0391368149412
 51
270.0
  0
ARC
  5
EA0
  8
C4
 10
611.88133009568332
 20
68.848955606815906
 30
0.0
 40
0.85
 50
213.03913681494251
 51
270.0
  0
LINE
  5
EA1
  8
C4
 10
610.97409695643046
 20
68.684857980259238
 30
0.0
 11
611.16877650008576
 21
68.385525597643891
 31
0.0
  0
ARC
  5
EA2
  8
C4
 10
609.38133009568332
 20
67.648955606815889
 30
0.0
 40
1.8999999999999999
 50
33.039136814941259
 51
90.0
  0
ARC
  5
EA3
  8
C4
 10
611.88133009568332
 20
53.448955606815872
 30
0.0
 40
0.85
 50
90.0
 51
146.96086318505741
  0
LINE
  5
EA4
  8
C4
 10
610.97409695643046
 20
53.61305323337254
 30
0.0
 11
611.16877650008576
 21
53.912385615987887
 31
0.0
  0
ARC
  5
EA5
  8
C4
 10
609.38133009568332
 20
54.648955606815889
 30
0.0
 40
1.8999999999999999
 50
270.0
 51
326.96086318505871
  0
ARC
  5
EA6
  8
C4
 10
611.88133009568332
 20
68.848955606815906
 30
0.0
 40
0.85
 50
270.0
 51
326.96086318505741
  0
LINE
  5
EA7
  8
C4
 10
612.78856323493608
 20
68.684857980259238
 30
0.0
 11
612.59388369128078
 21
68.385525597643891
 31
0.0
  0
ARC
  5
EA8
  8
C4
 10
614.38133009568332
 20
67.648955606815889
 30
0.0
 40
1.8999999999999999
 50
90.0
 51
146.96086318505871
  0
ARC
  5
EA9
  8
C4
 10
611.88133009568332
 20
53.448955606815872
 30
0.0
 40
0.85
 50
33.039136814942502
 51
90.0
  0
LINE
  5
EAA
  8
C4
 10
612.78856323493608
 20
53.61305323337254
 30
0.0
 11
612.59388369128078
 21
53.912385615987887
 31
0.0
  0
ARC
  5
EAB
  8
C4
 10
614.38133009568332
 20
54.648955606815889
 30
0.0
 40
1.8999999999999999
 50
213.0391368149412
 51
270.0
  0
ARC
  5
EAC
  8
C4
 10
616.88133009568332
 20
68.848955606815906
 30
0.0
 40
0.85
 50
213.03913681494251
 51
270.0
  0
LINE
  5
EAD
  8
C4
 10
615.97409695643046
 20
68.684857980259238
 30
0.0
 11
616.16877650008576
 21
68.385525597643891
 31
0.0
  0
ARC
  5
EAE
  8
C4
 10
614.38133009568332
 20
67.648955606815889
 30
0.0
 40
1.8999999999999999
 50
33.039136814941259
 51
90.0
  0
ARC
  5
EAF
  8
C4
 10
616.88133009568332
 20
53.448955606815872
 30
0.0
 40
0.85
 50
90.0
 51
146.96086318505741
  0
LINE
  5
EB0
  8
C4
 10
615.97409695643046
 20
53.61305323337254
 30
0.0
 11
616.16877650008576
 21
53.912385615987887
 31
0.0
  0
ARC
  5
EB1
  8
C4
 10
614.38133009568332
 20
54.648955606815889
 30
0.0
 40
1.8999999999999999
 50
270.0
 51
326.96086318505871
  0
ARC
  5
EB2
  8
C4
 10
616.88133009568332
 20
68.848955606815906
 30
0.0
 40
0.85
 50
270.0
 51
326.96086318505741
  0
LINE
  5
EB3
  8
C4
 10
617.78856323493608
 20
68.684857980259238
 30
0.0
 11
617.59388369128067
 21
68.385525597643891
 31
0.0
  0
ARC
  5
EB4
  8
C4
 10
619.38133009568332
 20
67.648955606815889
 30
0.0
 40
1.8999999999999999
 50
90.0
 51
146.96086318505871
  0
ARC
  5
EB5
  8
C4
 10
616.88133009568332
 20
53.448955606815872
 30
0.0
 40
0.85
 50
33.039136814942502
 51
90.0
  0
LINE
  5
EB6
  8
C4
 10
617.78856323493608
 20
53.61305323337254
 30
0.0
 11
617.59388369128067
 21
53.912385615987887
 31
0.0
  0
ARC
  5
EB7
  8
C4
 10
619.38133009568332
 20
54.648955606815889
 30
0.0
 40
1.8999999999999999
 50
213.0391368149412
 51
270.0
  0
ARC
  5
EB8
  8
C4
 10
621.88133009568332
 20
68.848955606815906
 30
0.0
 40
0.85
 50
213.03913681494251
 51
270.0
  0
LINE
  5
EB9
  8
C4
 10
620.97409695643057
 20
68.684857980259238
 30
0.0
 11
621.16877650008576
 21
68.385525597643891
 31
0.0
  0
ARC
  5
EBA
  8
C4
 10
619.38133009568332
 20
67.648955606815889
 30
0.0
 40
1.8999999999999999
 50
33.039136814941259
 51
90.0
  0
ARC
  5
EBB
  8
C4
 10
621.88133009568332
 20
53.448955606815872
 30
0.0
 40
0.85
 50
90.0
 51
146.96086318505741
  0
LINE
  5
EBC
  8
C4
 10
620.97409695643057
 20
53.61305323337254
 30
0.0
 11
621.16877650008576
 21
53.912385615987887
 31
0.0
  0
ARC
  5
EBD
  8
C4
 10
619.38133009568332
 20
54.648955606815889
 30
0.0
 40
1.8999999999999999
 50
270.0
 51
326.96086318505871
  0
ARC
  5
EBE
  8
C4
 10
621.88133009568332
 20
68.848955606815906
 30
0.0
 40
0.85
 50
270.0
 51
326.96086318505741
  0
LINE
  5
EBF
  8
C4
 10
622.78856323493596
 20
68.684857980259238
 30
0.0
 11
622.59388369128067
 21
68.385525597643891
 31
0.0
  0
ARC
  5
EC0
  8
C4
 10
624.38133009568332
 20
67.648955606815889
 30
0.0
 40
1.8999999999999999
 50
90.0
 51
146.96086318505871
  0
ARC
  5
EC1
  8
C4
 10
621.88133009568332
 20
53.448955606815872
 30
0.0
 40
0.85
 50
33.039136814942502
 51
90.0
  0
LINE
  5
EC2
  8
C4
 10
622.78856323493596
 20
53.61305323337254
 30
0.0
 11
622.59388369128067
 21
53.912385615987887
 31
0.0
  0
ARC
  5
EC3
  8
C4
 10
624.38133009568332
 20
54.648955606815889
 30
0.0
 40
1.8999999999999999
 50
213.0391368149412
 51
270.0
  0
ARC
  5
EC4
  8
C4
 10
626.88133009568332
 20
68.848955606815906
 30
0.0
 40
0.85
 50
213.03913681494251
 51
270.0
  0
LINE
  5
EC5
  8
C4
 10
625.97409695643057
 20
68.684857980259238
 30
0.0
 11
626.16877650008576
 21
68.385525597643891
 31
0.0
  0
ARC
  5
EC6
  8
C4
 10
624.38133009568332
 20
67.648955606815889
 30
0.0
 40
1.8999999999999999
 50
33.039136814941259
 51
90.0
  0
ARC
  5
EC7
  8
C4
 10
626.88133009568332
 20
53.448955606815872
 30
0.0
 40
0.85
 50
90.0
 51
146.96086318505741
  0
LINE
  5
EC8
  8
C4
 10
625.97409695643057
 20
53.61305323337254
 30
0.0
 11
626.16877650008576
 21
53.912385615987887
 31
0.0
  0
ARC
  5
EC9
  8
C4
 10
624.38133009568332
 20
54.648955606815889
 30
0.0
 40
1.8999999999999999
 50
270.0
 51
326.96086318505871
  0
ARC
  5
ECA
  8
C4
 10
626.88133009568332
 20
68.848955606815906
 30
0.0
 40
0.85
 50
270.0
 51
326.96086318505741
  0
LINE
  5
ECB
  8
C4
 10
627.78856323493596
 20
68.684857980259238
 30
0.0
 11
627.59388369128067
 21
68.385525597643891
 31
0.0
  0
ARC
  5
ECC
  8
C4
 10
629.38133009568332
 20
67.648955606815889
 30
0.0
 40
1.8999999999999999
 50
90.0
 51
146.96086318505871
  0
ARC
  5
ECD
  8
C4
 10
626.88133009568332
 20
53.448955606815872
 30
0.0
 40
0.85
 50
33.039136814942502
 51
90.0
  0
LINE
  5
ECE
  8
C4
 10
627.78856323493596
 20
53.61305323337254
 30
0.0
 11
627.59388369128067
 21
53.912385615987887
 31
0.0
  0
ARC
  5
ECF
  8
C4
 10
629.38133009568332
 20
54.648955606815889
 30
0.0
 40
1.8999999999999999
 50
213.0391368149412
 51
270.0
  0
ARC
  5
ED0
  8
C4
 10
631.88133009568332
 20
68.848955606815906
 30
0.0
 40
0.85
 50
213.03913681494251
 51
270.0
  0
LINE
  5
ED1
  8
C4
 10
630.97409695643046
 20
68.684857980259238
 30
0.0
 11
631.16877650008587
 21
68.385525597643891
 31
0.0
  0
ARC
  5
ED2
  8
C4
 10
629.38133009568332
 20
67.648955606815889
 30
0.0
 40
1.8999999999999999
 50
33.039136814941259
 51
90.0
  0
ARC
  5
ED3
  8
C4
 10
631.88133009568332
 20
53.448955606815872
 30
0.0
 40
0.85
 50
90.0
 51
146.96086318505741
  0
LINE
  5
ED4
  8
C4
 10
630.97409695643046
 20
53.61305323337254
 30
0.0
 11
631.16877650008587
 21
53.912385615987887
 31
0.0
  0
ARC
  5
ED5
  8
C4
 10
629.38133009568332
 20
54.648955606815889
 30
0.0
 40
1.8999999999999999
 50
270.0
 51
326.96086318505871
  0
ARC
  5
ED6
  8
C4
 10
631.88133009568332
 20
68.848955606815906
 30
0.0
 40
0.85
 50
270.0
 51
326.96086318505741
  0
LINE
  5
ED7
  8
C4
 10
632.78856323493596
 20
68.684857980259238
 30
0.0
 11
632.59388369128078
 21
68.385525597643891
 31
0.0
  0
ARC
  5
ED8
  8
C4
 10
634.38133009568332
 20
67.648955606815889
 30
0.0
 40
1.8999999999999999
 50
90.0
 51
146.96086318505871
  0
ARC
  5
ED9
  8
C4
 10
631.88133009568332
 20
53.448955606815872
 30
0.0
 40
0.85
 50
33.039136814942502
 51
90.0
  0
LINE
  5
EDA
  8
C4
 10
632.78856323493596
 20
53.61305323337254
 30
0.0
 11
632.59388369128078
 21
53.912385615987887
 31
0.0
  0
ARC
  5
EDB
  8
C4
 10
634.38133009568332
 20
54.648955606815889
 30
0.0
 40
1.8999999999999999
 50
213.0391368149412
 51
270.0
  0
ARC
  5
EDC
  8
C4
 10
636.88133009568332
 20
68.848955606815906
 30
0.0
 40
0.85
 50
213.03913681494251
 51
270.0
  0
LINE
  5
EDD
  8
C4
 10
635.97409695643046
 20
68.684857980259238
 30
0.0
 11
636.16877650008576
 21
68.385525597643891
 31
0.0
  0
ARC
  5
EDE
  8
C4
 10
634.38133009568332
 20
67.648955606815889
 30
0.0
 40
1.8999999999999999
 50
33.039136814941259
 51
90.0
  0
ARC
  5
EDF
  8
C4
 10
636.88133009568332
 20
53.448955606815872
 30
0.0
 40
0.85
 50
90.0
 51
146.96086318505741
  0
LINE
  5
EE0
  8
C4
 10
635.97409695643046
 20
53.61305323337254
 30
0.0
 11
636.16877650008576
 21
53.912385615987887
 31
0.0
  0
ARC
  5
EE1
  8
C4
 10
634.38133009568332
 20
54.648955606815889
 30
0.0
 40
1.8999999999999999
 50
270.0
 51
326.96086318505871
  0
ARC
  5
EE2
  8
C4
 10
636.88133009568332
 20
68.848955606815906
 30
0.0
 40
0.85
 50
270.0
 51
326.96086318505741
  0
LINE
  5
EE3
  8
C4
 10
637.78856323493608
 20
68.684857980259238
 30
0.0
 11
637.59388369128078
 21
68.385525597643891
 31
0.0
  0
ARC
  5
EE4
  8
C4
 10
639.38133009568332
 20
67.648955606815889
 30
0.0
 40
1.8999999999999999
 50
90.0
 51
146.96086318505871
  0
ARC
  5
EE5
  8
C4
 10
636.88133009568332
 20
53.448955606815872
 30
0.0
 40
0.85
 50
33.039136814942502
 51
90.0
  0
LINE
  5
EE6
  8
C4
 10
637.78856323493608
 20
53.61305323337254
 30
0.0
 11
637.59388369128078
 21
53.912385615987887
 31
0.0
  0
ARC
  5
EE7
  8
C4
 10
639.38133009568332
 20
54.648955606815889
 30
0.0
 40
1.8999999999999999
 50
213.0391368149412
 51
270.0
  0
ARC
  5
EE8
  8
C4
 10
641.88133009568332
 20
68.848955606815906
 30
0.0
 40
0.85
 50
213.03913681494251
 51
270.0
  0
LINE
  5
EE9
  8
C4
 10
640.97409695643046
 20
68.684857980259238
 30
0.0
 11
641.16877650008576
 21
68.385525597643891
 31
0.0
  0
ARC
  5
EEA
  8
C4
 10
639.38133009568332
 20
67.648955606815889
 30
0.0
 40
1.8999999999999999
 50
33.039136814941259
 51
90.0
  0
ARC
  5
EEB
  8
C4
 10
641.88133009568332
 20
53.448955606815872
 30
0.0
 40
0.85
 50
90.0
 51
146.96086318505741
  0
LINE
  5
EEC
  8
C4
 10
640.97409695643046
 20
53.61305323337254
 30
0.0
 11
641.16877650008576
 21
53.912385615987887
 31
0.0
  0
ARC
  5
EED
  8
C4
 10
639.38133009568332
 20
54.648955606815889
 30
0.0
 40
1.8999999999999999
 50
270.0
 51
326.96086318505871
  0
ARC
  5
EEE
  8
C4
 10
641.88133009568332
 20
68.848955606815906
 30
0.0
 40
0.85
 50
270.0
 51
326.96086318505741
  0
LINE
  5
EEF
  8
C4
 10
642.78856323493608
 20
68.684857980259238
 30
0.0
 11
642.59388369128067
 21
68.385525597643891
 31
0.0
  0
ARC
  5
EF0
  8
C4
 10
644.38133009568332
 20
67.648955606815889
 30
0.0
 40
1.8999999999999999
 50
90.0
 51
146.96086318505871
  0
ARC
  5
EF1
  8
C4
 10
641.88133009568332
 20
53.448955606815872
 30
0.0
 40
0.85
 50
33.039136814942502
 51
90.0
  0
LINE
  5
EF2
  8
C4
 10
642.78856323493608
 20
53.61305323337254
 30
0.0
 11
642.59388369128067
 21
53.912385615987887
 31
0.0
  0
ARC
  5
EF3
  8
C4
 10
644.38133009568332
 20
54.648955606815889
 30
0.0
 40
1.8999999999999999
 50
213.0391368149412
 51
270.0
  0
ARC
  5
EF4
  8
C4
 10
646.88133009568332
 20
68.848955606815906
 30
0.0
 40
0.85
 50
213.03913681494251
 51
270.0
  0
LINE
  5
EF5
  8
C4
 10
645.97409695643057
 20
68.684857980259238
 30
0.0
 11
646.16877650008576
 21
68.385525597643891
 31
0.0
  0
ARC
  5
EF6
  8
C4
 10
644.38133009568332
 20
67.648955606815889
 30
0.0
 40
1.8999999999999999
 50
33.039136814941259
 51
90.0
  0
ARC
  5
EF7
  8
C4
 10
646.88133009568332
 20
53.448955606815872
 30
0.0
 40
0.85
 50
90.0
 51
146.96086318505741
  0
LINE
  5
EF8
  8
C4
 10
645.97409695643057
 20
53.61305323337254
 30
0.0
 11
646.16877650008576
 21
53.912385615987887
 31
0.0
  0
ARC
  5
EF9
  8
C4
 10
644.38133009568332
 20
54.648955606815889
 30
0.0
 40
1.8999999999999999
 50
270.0
 51
326.96086318505871
  0
ARC
  5
EFA
  8
C4
 10
646.88133009568332
 20
68.848955606815906
 30
0.0
 40
0.85
 50
270.0
 51
326.96086318505741
  0
LINE
  5
EFB
  8
C4
 10
647.78856323493596
 20
68.684857980259238
 30
0.0
 11
647.59388369128067
 21
68.385525597643891
 31
0.0
  0
ARC
  5
EFC
  8
C4
 10
649.38133009568332
 20
67.648955606815889
 30
0.0
 40
1.8999999999999999
 50
90.0
 51
146.96086318505871
  0
ARC
  5
EFD
  8
C4
 10
646.88133009568332
 20
53.448955606815872
 30
0.0
 40
0.85
 50
33.039136814942502
 51
90.0
  0
LINE
  5
EFE
  8
C4
 10
647.78856323493596
 20
53.61305323337254
 30
0.0
 11
647.59388369128067
 21
53.912385615987887
 31
0.0
  0
ARC
  5
EFF
  8
C4
 10
649.38133009568332
 20
54.648955606815889
 30
0.0
 40
1.8999999999999999
 50
213.0391368149412
 51
270.0
  0
ARC
  5
F00
  8
C4
 10
651.88133009568332
 20
68.848955606815906
 30
0.0
 40
0.85
 50
213.03913681494251
 51
270.0
  0
LINE
  5
F01
  8
C4
 10
650.97409695643057
 20
68.684857980259238
 30
0.0
 11
651.16877650008576
 21
68.385525597643891
 31
0.0
  0
ARC
  5
F02
  8
C4
 10
649.38133009568332
 20
67.648955606815889
 30
0.0
 40
1.8999999999999999
 50
33.039136814941259
 51
90.0
  0
ARC
  5
F03
  8
C4
 10
651.88133009568332
 20
53.448955606815872
 30
0.0
 40
0.85
 50
90.0
 51
146.96086318505741
  0
LINE
  5
F04
  8
C4
 10
650.97409695643057
 20
53.61305323337254
 30
0.0
 11
651.16877650008576
 21
53.912385615987887
 31
0.0
  0
ARC
  5
F05
  8
C4
 10
649.38133009568332
 20
54.648955606815889
 30
0.0
 40
1.8999999999999999
 50
270.0
 51
326.96086318505871
  0
ARC
  5
F06
  8
C4
 10
651.88133009568332
 20
68.848955606815906
 30
0.0
 40
0.85
 50
270.0
 51
326.96086318505741
  0
LINE
  5
F07
  8
C4
 10
652.78856323493596
 20
68.684857980259238
 30
0.0
 11
652.59388369128067
 21
68.385525597643891
 31
0.0
  0
ARC
  5
F08
  8
C4
 10
654.38133009568332
 20
67.648955606815889
 30
0.0
 40
1.8999999999999999
 50
90.0
 51
146.96086318505871
  0
ARC
  5
F09
  8
C4
 10
651.88133009568332
 20
53.448955606815872
 30
0.0
 40
0.85
 50
33.039136814942502
 51
90.0
  0
LINE
  5
F0A
  8
C4
 10
652.78856323493596
 20
53.61305323337254
 30
0.0
 11
652.59388369128067
 21
53.912385615987887
 31
0.0
  0
ARC
  5
F0B
  8
C4
 10
654.38133009568332
 20
54.648955606815889
 30
0.0
 40
1.8999999999999999
 50
213.0391368149412
 51
270.0
  0
ARC
  5
F0C
  8
C4
 10
656.88133009568332
 20
68.848955606815906
 30
0.0
 40
0.85
 50
213.03913681494251
 51
270.0
  0
LINE
  5
F0D
  8
C4
 10
655.97409695643046
 20
68.684857980259238
 30
0.0
 11
656.16877650008587
 21
68.385525597643891
 31
0.0
  0
ARC
  5
F0E
  8
C4
 10
654.38133009568332
 20
67.648955606815889
 30
0.0
 40
1.8999999999999999
 50
33.039136814941259
 51
90.0
  0
ARC
  5
F0F
  8
C4
 10
656.88133009568332
 20
53.448955606815872
 30
0.0
 40
0.85
 50
90.0
 51
146.96086318505741
  0
LINE
  5
F10
  8
C4
 10
655.97409695643046
 20
53.61305323337254
 30
0.0
 11
656.16877650008587
 21
53.912385615987887
 31
0.0
  0
ARC
  5
F11
  8
C4
 10
654.38133009568332
 20
54.648955606815889
 30
0.0
 40
1.8999999999999999
 50
270.0
 51
326.96086318505871
  0
ARC
  5
F12
  8
C4
 10
656.88133009568332
 20
68.848955606815906
 30
0.0
 40
0.85
 50
270.0
 51
326.96086318505741
  0
LINE
  5
F13
  8
C4
 10
657.78856323493596
 20
68.684857980259238
 30
0.0
 11
657.59388369128078
 21
68.385525597643891
 31
0.0
  0
ARC
  5
F14
  8
C4
 10
659.38133009568332
 20
67.648955606815889
 30
0.0
 40
1.8999999999999999
 50
90.0
 51
146.96086318505871
  0
ARC
  5
F15
  8
C4
 10
656.88133009568332
 20
53.448955606815872
 30
0.0
 40
0.85
 50
33.039136814942502
 51
90.0
  0
LINE
  5
F16
  8
C4
 10
657.78856323493596
 20
53.61305323337254
 30
0.0
 11
657.59388369128078
 21
53.912385615987887
 31
0.0
  0
ARC
  5
F17
  8
C4
 10
659.38133009568332
 20
54.648955606815889
 30
0.0
 40
1.8999999999999999
 50
213.0391368149412
 51
270.0
  0
ARC
  5
F18
  8
C4
 10
661.88133009568332
 20
68.848955606815906
 30
0.0
 40
0.85
 50
213.03913681494251
 51
270.0
  0
LINE
  5
F19
  8
C4
 10
660.97409695643046
 20
68.684857980259238
 30
0.0
 11
661.16877650008576
 21
68.385525597643891
 31
0.0
  0
ARC
  5
F1A
  8
C4
 10
659.38133009568332
 20
67.648955606815889
 30
0.0
 40
1.8999999999999999
 50
33.039136814941259
 51
90.0
  0
ARC
  5
F1B
  8
C4
 10
661.88133009568332
 20
53.448955606815872
 30
0.0
 40
0.85
 50
90.0
 51
146.96086318505741
  0
LINE
  5
F1C
  8
C4
 10
660.97409695643046
 20
53.61305323337254
 30
0.0
 11
661.16877650008576
 21
53.912385615987887
 31
0.0
  0
ARC
  5
F1D
  8
C4
 10
659.38133009568332
 20
54.648955606815889
 30
0.0
 40
1.8999999999999999
 50
270.0
 51
326.96086318505871
  0
ARC
  5
F1E
  8
C4
 10
661.88133009568332
 20
68.848955606815906
 30
0.0
 40
0.85
 50
270.0
 51
326.96086318505741
  0
LINE
  5
F1F
  8
C4
 10
662.78856323493608
 20
68.684857980259238
 30
0.0
 11
662.59388369128078
 21
68.385525597643891
 31
0.0
  0
ARC
  5
F20
  8
C4
 10
664.38133009568332
 20
67.648955606815889
 30
0.0
 40
1.8999999999999999
 50
90.0
 51
146.96086318505871
  0
ARC
  5
F21
  8
C4
 10
661.88133009568332
 20
53.448955606815872
 30
0.0
 40
0.85
 50
33.039136814942502
 51
90.0
  0
LINE
  5
F22
  8
C4
 10
662.78856323493608
 20
53.61305323337254
 30
0.0
 11
662.59388369128078
 21
53.912385615987887
 31
0.0
  0
ARC
  5
F23
  8
C4
 10
664.38133009568332
 20
54.648955606815889
 30
0.0
 40
1.8999999999999999
 50
213.0391368149412
 51
270.0
  0
ARC
  5
F24
  8
C4
 10
666.88133009568332
 20
68.848955606815906
 30
0.0
 40
0.85
 50
213.03913681494251
 51
270.0
  0
LINE
  5
F25
  8
C4
 10
665.97409695643046
 20
68.684857980259238
 30
0.0
 11
666.16877650008576
 21
68.385525597643891
 31
0.0
  0
ARC
  5
F26
  8
C4
 10
664.38133009568332
 20
67.648955606815889
 30
0.0
 40
1.8999999999999999
 50
33.039136814941259
 51
90.0
  0
ARC
  5
F27
  8
C4
 10
666.88133009568332
 20
53.448955606815872
 30
0.0
 40
0.85
 50
90.0
 51
146.96086318505741
  0
LINE
  5
F28
  8
C4
 10
665.97409695643046
 20
53.61305323337254
 30
0.0
 11
666.16877650008576
 21
53.912385615987887
 31
0.0
  0
ARC
  5
F29
  8
C4
 10
664.38133009568332
 20
54.648955606815889
 30
0.0
 40
1.8999999999999999
 50
270.0
 51
326.96086318505871
  0
ARC
  5
F2A
  8
C4
 10
666.88133009568332
 20
68.848955606815906
 30
0.0
 40
0.85
 50
270.0
 51
326.96086318505741
  0
LINE
  5
F2B
  8
C4
 10
667.78856323493608
 20
68.684857980259238
 30
0.0
 11
667.59388369128067
 21
68.385525597643891
 31
0.0
  0
ARC
  5
F2C
  8
C4
 10
669.38133009568332
 20
67.648955606815889
 30
0.0
 40
1.8999999999999999
 50
90.0
 51
146.96086318505871
  0
ARC
  5
F2D
  8
C4
 10
666.88133009568332
 20
53.448955606815872
 30
0.0
 40
0.85
 50
33.039136814942502
 51
90.0
  0
LINE
  5
F2E
  8
C4
 10
667.78856323493608
 20
53.61305323337254
 30
0.0
 11
667.59388369128067
 21
53.912385615987887
 31
0.0
  0
ARC
  5
F2F
  8
C4
 10
669.38133009568332
 20
54.648955606815889
 30
0.0
 40
1.8999999999999999
 50
213.0391368149412
 51
270.0
  0
ARC
  5
F30
  8
C4
 10
671.88133009568332
 20
68.848955606815906
 30
0.0
 40
0.85
 50
213.03913681494251
 51
270.0
  0
LINE
  5
F31
  8
C4
 10
670.97409695643057
 20
68.684857980259238
 30
0.0
 11
671.16877650008576
 21
68.385525597643891
 31
0.0
  0
ARC
  5
F32
  8
C4
 10
669.38133009568332
 20
67.648955606815889
 30
0.0
 40
1.8999999999999999
 50
33.039136814941259
 51
90.0
  0
ARC
  5
F33
  8
C4
 10
671.88133009568332
 20
53.448955606815872
 30
0.0
 40
0.85
 50
90.0
 51
146.96086318505741
  0
LINE
  5
F34
  8
C4
 10
670.97409695643057
 20
53.61305323337254
 30
0.0
 11
671.16877650008576
 21
53.912385615987887
 31
0.0
  0
ARC
  5
F35
  8
C4
 10
669.38133009568332
 20
54.648955606815889
 30
0.0
 40
1.8999999999999999
 50
270.0
 51
326.96086318505871
  0
ARC
  5
F36
  8
C4
 10
671.88133009568332
 20
68.848955606815906
 30
0.0
 40
0.85
 50
270.0
 51
326.96086318505741
  0
LINE
  5
F37
  8
C4
 10
672.78856323493596
 20
68.684857980259238
 30
0.0
 11
672.59388369128067
 21
68.385525597643891
 31
0.0
  0
ARC
  5
F38
  8
C4
 10
674.38133009568332
 20
67.648955606815889
 30
0.0
 40
1.8999999999999999
 50
90.0
 51
146.96086318505871
  0
ARC
  5
F39
  8
C4
 10
671.88133009568332
 20
53.448955606815872
 30
0.0
 40
0.85
 50
33.039136814942502
 51
90.0
  0
LINE
  5
F3A
  8
C4
 10
672.78856323493596
 20
53.61305323337254
 30
0.0
 11
672.59388369128067
 21
53.912385615987887
 31
0.0
  0
ARC
  5
F3B
  8
C4
 10
674.38133009568332
 20
54.648955606815889
 30
0.0
 40
1.8999999999999999
 50
213.0391368149412
 51
270.0
  0
ARC
  5
F3C
  8
C4
 10
676.88133009568332
 20
68.848955606815906
 30
0.0
 40
0.85
 50
213.03913681494251
 51
270.0
  0
LINE
  5
F3D
  8
C4
 10
675.97409695643057
 20
68.684857980259238
 30
0.0
 11
676.16877650008576
 21
68.385525597643891
 31
0.0
  0
ARC
  5
F3E
  8
C4
 10
674.38133009568332
 20
67.648955606815889
 30
0.0
 40
1.8999999999999999
 50
33.039136814941259
 51
90.0
  0
ARC
  5
F3F
  8
C4
 10
676.88133009568332
 20
53.448955606815872
 30
0.0
 40
0.85
 50
90.0
 51
146.96086318505741
  0
LINE
  5
F40
  8
C4
 10
675.97409695643057
 20
53.61305323337254
 30
0.0
 11
676.16877650008576
 21
53.912385615987887
 31
0.0
  0
ARC
  5
F41
  8
C4
 10
674.38133009568332
 20
54.648955606815889
 30
0.0
 40
1.8999999999999999
 50
270.0
 51
326.96086318505871
  0
ARC
  5
F42
  8
C4
 10
676.88133009568332
 20
68.848955606815906
 30
0.0
 40
0.85
 50
270.0
 51
326.96086318505741
  0
LINE
  5
F43
  8
C4
 10
677.78856323493596
 20
68.684857980259238
 30
0.0
 11
677.59388369128067
 21
68.385525597643891
 31
0.0
  0
ARC
  5
F44
  8
C4
 10
679.38133009568332
 20
67.648955606815889
 30
0.0
 40
1.8999999999999999
 50
90.0
 51
146.96086318505871
  0
ARC
  5
F45
  8
C4
 10
676.88133009568332
 20
53.448955606815872
 30
0.0
 40
0.85
 50
33.039136814942502
 51
90.0
  0
LINE
  5
F46
  8
C4
 10
677.78856323493596
 20
53.61305323337254
 30
0.0
 11
677.59388369128067
 21
53.912385615987887
 31
0.0
  0
ARC
  5
F47
  8
C4
 10
679.38133009568332
 20
54.648955606815889
 30
0.0
 40
1.8999999999999999
 50
213.0391368149412
 51
270.0
  0
ARC
  5
F48
  8
C4
 10
681.88133009568332
 20
68.848955606815906
 30
0.0
 40
0.85
 50
213.03913681494251
 51
270.0
  0
LINE
  5
F49
  8
C4
 10
680.97409695643046
 20
68.684857980259238
 30
0.0
 11
681.16877650008587
 21
68.385525597643891
 31
0.0
  0
ARC
  5
F4A
  8
C4
 10
679.38133009568332
 20
67.648955606815889
 30
0.0
 40
1.8999999999999999
 50
33.039136814941259
 51
90.0
  0
ARC
  5
F4B
  8
C4
 10
681.88133009568332
 20
53.448955606815872
 30
0.0
 40
0.85
 50
90.0
 51
146.96086318505741
  0
LINE
  5
F4C
  8
C4
 10
680.97409695643046
 20
53.61305323337254
 30
0.0
 11
681.16877650008587
 21
53.912385615987887
 31
0.0
  0
ARC
  5
F4D
  8
C4
 10
679.38133009568332
 20
54.648955606815889
 30
0.0
 40
1.8999999999999999
 50
270.0
 51
326.96086318505871
  0
ARC
  5
F4E
  8
C4
 10
681.88133009568332
 20
68.848955606815906
 30
0.0
 40
0.85
 50
270.0
 51
326.96086318505741
  0
LINE
  5
F4F
  8
C4
 10
682.78856323493596
 20
68.684857980259238
 30
0.0
 11
682.59388369128078
 21
68.385525597643891
 31
0.0
  0
ARC
  5
F50
  8
C4
 10
684.38133009568332
 20
67.648955606815889
 30
0.0
 40
1.8999999999999999
 50
90.0
 51
146.96086318505871
  0
ARC
  5
F51
  8
C4
 10
681.88133009568332
 20
53.448955606815872
 30
0.0
 40
0.85
 50
33.039136814942502
 51
90.0
  0
LINE
  5
F52
  8
C4
 10
682.78856323493596
 20
53.61305323337254
 30
0.0
 11
682.59388369128078
 21
53.912385615987887
 31
0.0
  0
ARC
  5
F53
  8
C4
 10
684.38133009568332
 20
54.648955606815889
 30
0.0
 40
1.8999999999999999
 50
213.0391368149412
 51
270.0
  0
ARC
  5
F54
  8
C4
 10
686.88133009568332
 20
68.848955606815906
 30
0.0
 40
0.85
 50
213.03913681494251
 51
270.0
  0
LINE
  5
F55
  8
C4
 10
685.97409695643046
 20
68.684857980259238
 30
0.0
 11
686.16877650008576
 21
68.385525597643891
 31
0.0
  0
ARC
  5
F56
  8
C4
 10
684.38133009568332
 20
67.648955606815889
 30
0.0
 40
1.8999999999999999
 50
33.039136814941259
 51
90.0
  0
ARC
  5
F57
  8
C4
 10
686.88133009568332
 20
53.448955606815872
 30
0.0
 40
0.85
 50
90.0
 51
146.96086318505741
  0
LINE
  5
F58
  8
C4
 10
685.97409695643046
 20
53.61305323337254
 30
0.0
 11
686.16877650008576
 21
53.912385615987887
 31
0.0
  0
ARC
  5
F59
  8
C4
 10
684.38133009568332
 20
54.648955606815889
 30
0.0
 40
1.8999999999999999
 50
270.0
 51
326.96086318505871
  0
ARC
  5
F5A
  8
C4
 10
686.88133009568332
 20
68.848955606815906
 30
0.0
 40
0.85
 50
270.0
 51
326.96086318505741
  0
LINE
  5
F5B
  8
C4
 10
687.78856323493608
 20
68.684857980259238
 30
0.0
 11
687.59388369128078
 21
68.385525597643891
 31
0.0
  0
ARC
  5
F5C
  8
C4
 10
689.38133009568332
 20
67.648955606815889
 30
0.0
 40
1.8999999999999999
 50
90.0
 51
146.96086318505871
  0
ARC
  5
F5D
  8
C4
 10
686.88133009568332
 20
53.448955606815872
 30
0.0
 40
0.85
 50
33.039136814942502
 51
90.0
  0
LINE
  5
F5E
  8
C4
 10
687.78856323493608
 20
53.61305323337254
 30
0.0
 11
687.59388369128078
 21
53.912385615987887
 31
0.0
  0
ARC
  5
F5F
  8
C4
 10
689.38133009568332
 20
54.648955606815889
 30
0.0
 40
1.8999999999999999
 50
213.0391368149412
 51
270.0
  0
ARC
  5
F60
  8
C4
 10
691.88133009568332
 20
68.848955606815906
 30
0.0
 40
0.85
 50
213.03913681494251
 51
270.0
  0
LINE
  5
F61
  8
C4
 10
690.97409695643046
 20
68.684857980259238
 30
0.0
 11
691.16877650008576
 21
68.385525597643891
 31
0.0
  0
ARC
  5
F62
  8
C4
 10
689.38133009568332
 20
67.648955606815889
 30
0.0
 40
1.8999999999999999
 50
33.039136814941259
 51
90.0
  0
ARC
  5
F63
  8
C4
 10
691.88133009568332
 20
53.448955606815872
 30
0.0
 40
0.85
 50
90.0
 51
146.96086318505741
  0
LINE
  5
F64
  8
C4
 10
690.97409695643046
 20
53.61305323337254
 30
0.0
 11
691.16877650008576
 21
53.912385615987887
 31
0.0
  0
ARC
  5
F65
  8
C4
 10
689.38133009568332
 20
54.648955606815889
 30
0.0
 40
1.8999999999999999
 50
270.0
 51
326.96086318505871
  0
ARC
  5
F66
  8
C4
 10
691.88133009568332
 20
68.848955606815906
 30
0.0
 40
0.85
 50
270.0
 51
326.96086318505741
  0
LINE
  5
F67
  8
C4
 10
692.78856323493608
 20
68.684857980259238
 30
0.0
 11
692.59388369128067
 21
68.385525597643891
 31
0.0
  0
ARC
  5
F68
  8
C4
 10
694.38133009568332
 20
67.648955606815889
 30
0.0
 40
1.8999999999999999
 50
90.0
 51
146.96086318505871
  0
ARC
  5
F69
  8
C4
 10
691.88133009568332
 20
53.448955606815872
 30
0.0
 40
0.85
 50
33.039136814942502
 51
90.0
  0
LINE
  5
F6A
  8
C4
 10
692.78856323493608
 20
53.61305323337254
 30
0.0
 11
692.59388369128067
 21
53.912385615987887
 31
0.0
  0
ARC
  5
F6B
  8
C4
 10
694.38133009568332
 20
54.648955606815889
 30
0.0
 40
1.8999999999999999
 50
213.0391368149412
 51
270.0
  0
ARC
  5
F6C
  8
C4
 10
696.88133009568332
 20
68.848955606815906
 30
0.0
 40
0.85
 50
213.03913681494251
 51
270.0
  0
LINE
  5
F6D
  8
C4
 10
695.97409695643057
 20
68.684857980259238
 30
0.0
 11
696.16877650008576
 21
68.385525597643891
 31
0.0
  0
ARC
  5
F6E
  8
C4
 10
694.38133009568332
 20
67.648955606815889
 30
0.0
 40
1.8999999999999999
 50
33.039136814941259
 51
90.0
  0
ARC
  5
F6F
  8
C4
 10
696.88133009568332
 20
53.448955606815872
 30
0.0
 40
0.85
 50
90.0
 51
146.96086318505741
  0
LINE
  5
F70
  8
C4
 10
695.97409695643057
 20
53.61305323337254
 30
0.0
 11
696.16877650008576
 21
53.912385615987887
 31
0.0
  0
ARC
  5
F71
  8
C4
 10
694.38133009568332
 20
54.648955606815889
 30
0.0
 40
1.8999999999999999
 50
270.0
 51
326.96086318505871
  0
ARC
  5
F72
  8
C4
 10
696.88133009568332
 20
68.848955606815906
 30
0.0
 40
0.85
 50
270.0
 51
326.96086318505741
  0
LINE
  5
F73
  8
C4
 10
697.78856323493596
 20
68.684857980259238
 30
0.0
 11
697.59388369128067
 21
68.385525597643891
 31
0.0
  0
ARC
  5
F74
  8
C4
 10
699.38133009568332
 20
67.648955606815889
 30
0.0
 40
1.8999999999999999
 50
90.0
 51
146.96086318505871
  0
ARC
  5
F75
  8
C4
 10
696.88133009568332
 20
53.448955606815872
 30
0.0
 40
0.85
 50
33.039136814942502
 51
90.0
  0
LINE
  5
F76
  8
C4
 10
697.78856323493596
 20
53.61305323337254
 30
0.0
 11
697.59388369128067
 21
53.912385615987887
 31
0.0
  0
ARC
  5
F77
  8
C4
 10
699.38133009568332
 20
54.648955606815889
 30
0.0
 40
1.8999999999999999
 50
213.0391368149412
 51
270.0
  0
ARC
  5
F78
  8
C4
 10
701.88133009568332
 20
68.848955606815906
 30
0.0
 40
0.85
 50
213.03913681494251
 51
270.0
  0
LINE
  5
F79
  8
C4
 10
700.97409695643057
 20
68.684857980259238
 30
0.0
 11
701.16877650008576
 21
68.385525597643891
 31
0.0
  0
ARC
  5
F7A
  8
C4
 10
699.38133009568332
 20
67.648955606815889
 30
0.0
 40
1.8999999999999999
 50
33.039136814941259
 51
90.0
  0
ARC
  5
F7B
  8
C4
 10
701.88133009568332
 20
53.448955606815872
 30
0.0
 40
0.85
 50
90.0
 51
146.96086318505741
  0
LINE
  5
F7C
  8
C4
 10
700.97409695643057
 20
53.61305323337254
 30
0.0
 11
701.16877650008576
 21
53.912385615987887
 31
0.0
  0
ARC
  5
F7D
  8
C4
 10
699.38133009568332
 20
54.648955606815889
 30
0.0
 40
1.8999999999999999
 50
270.0
 51
326.96086318505871
  0
ARC
  5
F7E
  8
C4
 10
701.88133009568332
 20
68.848955606815906
 30
0.0
 40
0.85
 50
270.0
 51
326.96086318505741
  0
LINE
  5
F7F
  8
C4
 10
702.78856323493596
 20
68.684857980259238
 30
0.0
 11
702.59388369128067
 21
68.385525597643891
 31
0.0
  0
ARC
  5
F80
  8
C4
 10
704.38133009568332
 20
67.648955606815889
 30
0.0
 40
1.8999999999999999
 50
90.0
 51
146.96086318505871
  0
ARC
  5
F81
  8
C4
 10
701.88133009568332
 20
53.448955606815872
 30
0.0
 40
0.85
 50
33.039136814942502
 51
90.0
  0
LINE
  5
F82
  8
C4
 10
702.78856323493596
 20
53.61305323337254
 30
0.0
 11
702.59388369128067
 21
53.912385615987887
 31
0.0
  0
ARC
  5
F83
  8
C4
 10
704.38133009568332
 20
54.648955606815889
 30
0.0
 40
1.8999999999999999
 50
213.0391368149412
 51
270.0
  0
ARC
  5
F84
  8
C4
 10
706.88133009568332
 20
68.848955606815906
 30
0.0
 40
0.85
 50
213.03913681494251
 51
270.0
  0
LINE
  5
F85
  8
C4
 10
705.97409695643046
 20
68.684857980259238
 30
0.0
 11
706.16877650008587
 21
68.385525597643891
 31
0.0
  0
ARC
  5
F86
  8
C4
 10
704.38133009568332
 20
67.648955606815889
 30
0.0
 40
1.8999999999999999
 50
33.039136814941259
 51
90.0
  0
ARC
  5
F87
  8
C4
 10
706.88133009568332
 20
53.448955606815872
 30
0.0
 40
0.85
 50
90.0
 51
146.96086318505741
  0
LINE
  5
F88
  8
C4
 10
705.97409695643046
 20
53.61305323337254
 30
0.0
 11
706.16877650008587
 21
53.912385615987887
 31
0.0
  0
ARC
  5
F89
  8
C4
 10
704.38133009568332
 20
54.648955606815889
 30
0.0
 40
1.8999999999999999
 50
270.0
 51
326.96086318505871
  0
ARC
  5
F8A
  8
C4
 10
706.88133009568332
 20
68.848955606815906
 30
0.0
 40
0.85
 50
270.0
 51
326.96086318505741
  0
LINE
  5
F8B
  8
C4
 10
707.78856323493596
 20
68.684857980259238
 30
0.0
 11
707.59388369128078
 21
68.385525597643891
 31
0.0
  0
ARC
  5
F8C
  8
C4
 10
709.38133009568332
 20
67.648955606815889
 30
0.0
 40
1.8999999999999999
 50
90.0
 51
146.96086318505871
  0
ARC
  5
F8D
  8
C4
 10
706.88133009568332
 20
53.448955606815872
 30
0.0
 40
0.85
 50
33.039136814942502
 51
90.0
  0
LINE
  5
F8E
  8
C4
 10
707.78856323493596
 20
53.61305323337254
 30
0.0
 11
707.59388369128078
 21
53.912385615987887
 31
0.0
  0
ARC
  5
F8F
  8
C4
 10
709.38133009568332
 20
54.648955606815889
 30
0.0
 40
1.8999999999999999
 50
213.0391368149412
 51
270.0
  0
ARC
  5
F90
  8
C4
 10
711.88133009568332
 20
68.848955606815906
 30
0.0
 40
0.85
 50
213.03913681494251
 51
270.0
  0
LINE
  5
F91
  8
C4
 10
710.97409695643046
 20
68.684857980259238
 30
0.0
 11
711.16877650008576
 21
68.385525597643891
 31
0.0
  0
ARC
  5
F92
  8
C4
 10
709.38133009568332
 20
67.648955606815889
 30
0.0
 40
1.8999999999999999
 50
33.039136814941259
 51
90.0
  0
ARC
  5
F93
  8
C4
 10
711.88133009568332
 20
53.448955606815872
 30
0.0
 40
0.85
 50
90.0
 51
146.96086318505741
  0
LINE
  5
F94
  8
C4
 10
710.97409695643046
 20
53.61305323337254
 30
0.0
 11
711.16877650008576
 21
53.912385615987887
 31
0.0
  0
ARC
  5
F95
  8
C4
 10
709.38133009568332
 20
54.648955606815889
 30
0.0
 40
1.8999999999999999
 50
270.0
 51
326.96086318505871
  0
ARC
  5
F96
  8
C4
 10
711.88133009568332
 20
68.848955606815906
 30
0.0
 40
0.85
 50
270.0
 51
326.96086318505741
  0
LINE
  5
F97
  8
C4
 10
712.78856323493608
 20
68.684857980259238
 30
0.0
 11
712.59388369128078
 21
68.385525597643891
 31
0.0
  0
ARC
  5
F98
  8
C4
 10
714.38133009568332
 20
67.648955606815889
 30
0.0
 40
1.8999999999999999
 50
90.0
 51
146.96086318505871
  0
ARC
  5
F99
  8
C4
 10
711.88133009568332
 20
53.448955606815872
 30
0.0
 40
0.85
 50
33.039136814942502
 51
90.0
  0
LINE
  5
F9A
  8
C4
 10
712.78856323493608
 20
53.61305323337254
 30
0.0
 11
712.59388369128078
 21
53.912385615987887
 31
0.0
  0
ARC
  5
F9B
  8
C4
 10
714.38133009568332
 20
54.648955606815889
 30
0.0
 40
1.8999999999999999
 50
213.0391368149412
 51
270.0
  0
ARC
  5
F9C
  8
C4
 10
716.88133009568332
 20
68.848955606815906
 30
0.0
 40
0.85
 50
213.03913681494251
 51
270.0
  0
LINE
  5
F9D
  8
C4
 10
715.97409695643046
 20
68.684857980259238
 30
0.0
 11
716.16877650008576
 21
68.385525597643891
 31
0.0
  0
ARC
  5
F9E
  8
C4
 10
714.38133009568332
 20
67.648955606815889
 30
0.0
 40
1.8999999999999999
 50
33.039136814941259
 51
90.0
  0
ARC
  5
F9F
  8
C4
 10
716.88133009568332
 20
53.448955606815872
 30
0.0
 40
0.85
 50
90.0
 51
146.96086318505741
  0
LINE
  5
FA0
  8
C4
 10
715.97409695643046
 20
53.61305323337254
 30
0.0
 11
716.16877650008576
 21
53.912385615987887
 31
0.0
  0
ARC
  5
FA1
  8
C4
 10
714.38133009568332
 20
54.648955606815889
 30
0.0
 40
1.8999999999999999
 50
270.0
 51
326.96086318505871
  0
ARC
  5
FA2
  8
C4
 10
716.88133009568332
 20
68.848955606815906
 30
0.0
 40
0.85
 50
270.0
 51
326.96086318505741
  0
LINE
  5
FA3
  8
C4
 10
717.78856323493608
 20
68.684857980259238
 30
0.0
 11
717.59388369128067
 21
68.385525597643891
 31
0.0
  0
ARC
  5
FA4
  8
C4
 10
719.38133009568332
 20
67.648955606815889
 30
0.0
 40
1.8999999999999999
 50
90.0
 51
146.96086318505871
  0
ARC
  5
FA5
  8
C4
 10
716.88133009568332
 20
53.448955606815872
 30
0.0
 40
0.85
 50
33.039136814942502
 51
90.0
  0
LINE
  5
FA6
  8
C4
 10
717.78856323493608
 20
53.61305323337254
 30
0.0
 11
717.59388369128067
 21
53.912385615987887
 31
0.0
  0
ARC
  5
FA7
  8
C4
 10
719.38133009568332
 20
54.648955606815889
 30
0.0
 40
1.8999999999999999
 50
213.0391368149412
 51
270.0
  0
ARC
  5
FA8
  8
C4
 10
721.88133009568332
 20
68.848955606815906
 30
0.0
 40
0.85
 50
213.03913681494251
 51
270.0
  0
LINE
  5
FA9
  8
C4
 10
720.97409695643057
 20
68.684857980259238
 30
0.0
 11
721.16877650008576
 21
68.385525597643891
 31
0.0
  0
ARC
  5
FAA
  8
C4
 10
719.38133009568332
 20
67.648955606815889
 30
0.0
 40
1.8999999999999999
 50
33.039136814941259
 51
90.0
  0
ARC
  5
FAB
  8
C4
 10
721.88133009568332
 20
53.448955606815872
 30
0.0
 40
0.85
 50
90.0
 51
146.96086318505741
  0
LINE
  5
FAC
  8
C4
 10
720.97409695643057
 20
53.61305323337254
 30
0.0
 11
721.16877650008576
 21
53.912385615987887
 31
0.0
  0
ARC
  5
FAD
  8
C4
 10
719.38133009568332
 20
54.648955606815889
 30
0.0
 40
1.8999999999999999
 50
270.0
 51
326.96086318505871
  0
ARC
  5
FAE
  8
C4
 10
721.88133009568332
 20
68.848955606815906
 30
0.0
 40
0.85
 50
270.0
 51
326.96086318505741
  0
LINE
  5
FAF
  8
C4
 10
722.78856323493596
 20
68.684857980259238
 30
0.0
 11
722.59388369128067
 21
68.385525597643891
 31
0.0
  0
ARC
  5
FB0
  8
C4
 10
724.38133009568332
 20
67.648955606815889
 30
0.0
 40
1.8999999999999999
 50
90.0
 51
146.96086318505871
  0
ARC
  5
FB1
  8
C4
 10
721.88133009568332
 20
53.448955606815872
 30
0.0
 40
0.85
 50
33.039136814942502
 51
90.0
  0
LINE
  5
FB2
  8
C4
 10
722.78856323493596
 20
53.61305323337254
 30
0.0
 11
722.59388369128067
 21
53.912385615987887
 31
0.0
  0
ARC
  5
FB3
  8
C4
 10
724.38133009568332
 20
54.648955606815889
 30
0.0
 40
1.8999999999999999
 50
213.0391368149412
 51
270.0
  0
ARC
  5
FB4
  8
C4
 10
726.88133009568332
 20
68.848955606815906
 30
0.0
 40
0.85
 50
213.03913681494251
 51
270.0
  0
LINE
  5
FB5
  8
C4
 10
725.97409695643057
 20
68.684857980259238
 30
0.0
 11
726.16877650008576
 21
68.385525597643891
 31
0.0
  0
ARC
  5
FB6
  8
C4
 10
724.38133009568332
 20
67.648955606815889
 30
0.0
 40
1.8999999999999999
 50
33.039136814941259
 51
90.0
  0
ARC
  5
FB7
  8
C4
 10
726.88133009568332
 20
53.448955606815872
 30
0.0
 40
0.85
 50
90.0
 51
146.96086318505741
  0
LINE
  5
FB8
  8
C4
 10
725.97409695643057
 20
53.61305323337254
 30
0.0
 11
726.16877650008576
 21
53.912385615987887
 31
0.0
  0
ARC
  5
FB9
  8
C4
 10
724.38133009568332
 20
54.648955606815889
 30
0.0
 40
1.8999999999999999
 50
270.0
 51
326.96086318505871
  0
ARC
  5
FBA
  8
C4
 10
726.88133009568332
 20
68.848955606815906
 30
0.0
 40
0.85
 50
270.0
 51
326.96086318505741
  0
LINE
  5
FBB
  8
C4
 10
727.78856323493596
 20
68.684857980259238
 30
0.0
 11
727.59388369128067
 21
68.385525597643891
 31
0.0
  0
ARC
  5
FBC
  8
C4
 10
729.38133009568332
 20
67.648955606815889
 30
0.0
 40
1.8999999999999999
 50
90.0
 51
146.96086318505871
  0
ARC
  5
FBD
  8
C4
 10
726.88133009568332
 20
53.448955606815872
 30
0.0
 40
0.85
 50
33.039136814942502
 51
90.0
  0
LINE
  5
FBE
  8
C4
 10
727.78856323493596
 20
53.61305323337254
 30
0.0
 11
727.59388369128067
 21
53.912385615987887
 31
0.0
  0
ARC
  5
FBF
  8
C4
 10
729.38133009568332
 20
54.648955606815889
 30
0.0
 40
1.8999999999999999
 50
213.0391368149412
 51
270.0
  0
ARC
  5
FC0
  8
C4
 10
731.88133009568332
 20
68.848955606815906
 30
0.0
 40
0.85
 50
213.03913681494251
 51
270.0
  0
LINE
  5
FC1
  8
C4
 10
730.97409695643046
 20
68.684857980259238
 30
0.0
 11
731.16877650008587
 21
68.385525597643891
 31
0.0
  0
ARC
  5
FC2
  8
C4
 10
729.38133009568332
 20
67.648955606815889
 30
0.0
 40
1.8999999999999999
 50
33.039136814941259
 51
90.0
  0
ARC
  5
FC3
  8
C4
 10
731.88133009568332
 20
53.448955606815872
 30
0.0
 40
0.85
 50
90.0
 51
146.96086318505741
  0
LINE
  5
FC4
  8
C4
 10
730.97409695643046
 20
53.61305323337254
 30
0.0
 11
731.16877650008587
 21
53.912385615987887
 31
0.0
  0
ARC
  5
FC5
  8
C4
 10
729.38133009568332
 20
54.648955606815889
 30
0.0
 40
1.8999999999999999
 50
270.0
 51
326.96086318505871
  0
ARC
  5
FC6
  8
C4
 10
731.88133009568332
 20
68.848955606815906
 30
0.0
 40
0.85
 50
270.0
 51
326.96086318505741
  0
LINE
  5
FC7
  8
C4
 10
732.78856323493596
 20
68.684857980259238
 30
0.0
 11
732.59388369128078
 21
68.385525597643891
 31
0.0
  0
ARC
  5
FC8
  8
C4
 10
734.38133009568332
 20
67.648955606815889
 30
0.0
 40
1.8999999999999999
 50
90.0
 51
146.96086318505871
  0
ARC
  5
FC9
  8
C4
 10
731.88133009568332
 20
53.448955606815872
 30
0.0
 40
0.85
 50
33.039136814942502
 51
90.0
  0
LINE
  5
FCA
  8
C4
 10
732.78856323493596
 20
53.61305323337254
 30
0.0
 11
732.59388369128078
 21
53.912385615987887
 31
0.0
  0
ARC
  5
FCB
  8
C4
 10
734.38133009568332
 20
54.648955606815889
 30
0.0
 40
1.8999999999999999
 50
213.0391368149412
 51
270.0
  0
ARC
  5
FCC
  8
C4
 10
736.88133009568332
 20
68.848955606815906
 30
0.0
 40
0.85
 50
213.03913681494251
 51
270.0
  0
LINE
  5
FCD
  8
C4
 10
735.97409695643046
 20
68.684857980259238
 30
0.0
 11
736.16877650008576
 21
68.385525597643891
 31
0.0
  0
ARC
  5
FCE
  8
C4
 10
734.38133009568332
 20
67.648955606815889
 30
0.0
 40
1.8999999999999999
 50
33.039136814941259
 51
90.0
  0
ARC
  5
FCF
  8
C4
 10
736.88133009568332
 20
53.448955606815872
 30
0.0
 40
0.85
 50
90.0
 51
146.96086318505741
  0
LINE
  5
FD0
  8
C4
 10
735.97409695643046
 20
53.61305323337254
 30
0.0
 11
736.16877650008576
 21
53.912385615987887
 31
0.0
  0
ARC
  5
FD1
  8
C4
 10
734.38133009568332
 20
54.648955606815889
 30
0.0
 40
1.8999999999999999
 50
270.0
 51
326.96086318505871
  0
ARC
  5
FD2
  8
C4
 10
736.88133009568332
 20
68.848955606815906
 30
0.0
 40
0.85
 50
270.0
 51
326.96086318505741
  0
LINE
  5
FD3
  8
C4
 10
737.78856323493608
 20
68.684857980259238
 30
0.0
 11
737.59388369128078
 21
68.385525597643891
 31
0.0
  0
ARC
  5
FD4
  8
C4
 10
739.38133009568332
 20
67.648955606815889
 30
0.0
 40
1.8999999999999999
 50
90.0
 51
146.96086318505871
  0
ARC
  5
FD5
  8
C4
 10
736.88133009568332
 20
53.448955606815872
 30
0.0
 40
0.85
 50
33.039136814942502
 51
90.0
  0
LINE
  5
FD6
  8
C4
 10
737.78856323493608
 20
53.61305323337254
 30
0.0
 11
737.59388369128078
 21
53.912385615987887
 31
0.0
  0
ARC
  5
FD7
  8
C4
 10
739.38133009568332
 20
54.648955606815889
 30
0.0
 40
1.8999999999999999
 50
213.0391368149412
 51
270.0
  0
ARC
  5
FD8
  8
C4
 10
741.88133009568332
 20
68.848955606815906
 30
0.0
 40
0.85
 50
213.03913681494251
 51
270.0
  0
LINE
  5
FD9
  8
C4
 10
740.97409695643046
 20
68.684857980259238
 30
0.0
 11
741.16877650008576
 21
68.385525597643891
 31
0.0
  0
ARC
  5
FDA
  8
C4
 10
739.38133009568332
 20
67.648955606815889
 30
0.0
 40
1.8999999999999999
 50
33.039136814941259
 51
90.0
  0
ARC
  5
FDB
  8
C4
 10
741.88133009568332
 20
53.448955606815872
 30
0.0
 40
0.85
 50
90.0
 51
146.96086318505741
  0
LINE
  5
FDC
  8
C4
 10
740.97409695643046
 20
53.61305323337254
 30
0.0
 11
741.16877650008576
 21
53.912385615987887
 31
0.0
  0
ARC
  5
FDD
  8
C4
 10
739.38133009568332
 20
54.648955606815889
 30
0.0
 40
1.8999999999999999
 50
270.0
 51
326.96086318505871
  0
ARC
  5
FDE
  8
C4
 10
741.88133009568332
 20
68.848955606815906
 30
0.0
 40
0.85
 50
270.0
 51
326.96086318505741
  0
LINE
  5
FDF
  8
C4
 10
742.78856323493608
 20
68.684857980259238
 30
0.0
 11
742.59388369128067
 21
68.385525597643891
 31
0.0
  0
ARC
  5
FE0
  8
C4
 10
744.38133009568332
 20
67.648955606815889
 30
0.0
 40
1.8999999999999999
 50
90.0
 51
146.96086318505871
  0
ARC
  5
FE1
  8
C4
 10
741.88133009568332
 20
53.448955606815872
 30
0.0
 40
0.85
 50
33.039136814942502
 51
90.0
  0
LINE
  5
FE2
  8
C4
 10
742.78856323493608
 20
53.61305323337254
 30
0.0
 11
742.59388369128067
 21
53.912385615987887
 31
0.0
  0
ARC
  5
FE3
  8
C4
 10
744.38133009568332
 20
54.648955606815889
 30
0.0
 40
1.8999999999999999
 50
213.0391368149412
 51
270.0
  0
ARC
  5
FE4
  8
C4
 10
746.88133009568332
 20
68.848955606815906
 30
0.0
 40
0.85
 50
213.03913681494251
 51
270.0
  0
LINE
  5
FE5
  8
C4
 10
745.97409695643057
 20
68.684857980259238
 30
0.0
 11
746.16877650008576
 21
68.385525597643891
 31
0.0
  0
ARC
  5
FE6
  8
C4
 10
744.38133009568332
 20
67.648955606815889
 30
0.0
 40
1.8999999999999999
 50
33.039136814941259
 51
90.0
  0
ARC
  5
FE7
  8
C4
 10
746.88133009568332
 20
53.448955606815872
 30
0.0
 40
0.85
 50
90.0
 51
146.96086318505741
  0
LINE
  5
FE8
  8
C4
 10
745.97409695643057
 20
53.61305323337254
 30
0.0
 11
746.16877650008576
 21
53.912385615987887
 31
0.0
  0
ARC
  5
FE9
  8
C4
 10
744.38133009568332
 20
54.648955606815889
 30
0.0
 40
1.8999999999999999
 50
270.0
 51
326.96086318505871
  0
ARC
  5
FEA
  8
C4
 10
746.88133009568332
 20
68.848955606815906
 30
0.0
 40
0.85
 50
270.0
 51
326.96086318505741
  0
LINE
  5
FEB
  8
C4
 10
747.78856323493596
 20
68.684857980259238
 30
0.0
 11
747.59388369128067
 21
68.385525597643891
 31
0.0
  0
ARC
  5
FEC
  8
C4
 10
749.38133009568332
 20
67.648955606815889
 30
0.0
 40
1.8999999999999999
 50
90.0
 51
146.96086318505871
  0
ARC
  5
FED
  8
C4
 10
746.88133009568332
 20
53.448955606815872
 30
0.0
 40
0.85
 50
33.039136814942502
 51
90.0
  0
LINE
  5
FEE
  8
C4
 10
747.78856323493596
 20
53.61305323337254
 30
0.0
 11
747.59388369128067
 21
53.912385615987887
 31
0.0
  0
ARC
  5
FEF
  8
C4
 10
749.38133009568332
 20
54.648955606815889
 30
0.0
 40
1.8999999999999999
 50
213.0391368149412
 51
270.0
  0
ARC
  5
FF0
  8
C4
 10
751.88133009568332
 20
68.848955606815906
 30
0.0
 40
0.85
 50
213.03913681494251
 51
270.0
  0
LINE
  5
FF1
  8
C4
 10
750.97409695643057
 20
68.684857980259238
 30
0.0
 11
751.16877650008576
 21
68.385525597643891
 31
0.0
  0
ARC
  5
FF2
  8
C4
 10
749.38133009568332
 20
67.648955606815889
 30
0.0
 40
1.8999999999999999
 50
33.039136814941259
 51
90.0
  0
ARC
  5
FF3
  8
C4
 10
751.88133009568332
 20
53.448955606815872
 30
0.0
 40
0.85
 50
90.0
 51
146.96086318505741
  0
LINE
  5
FF4
  8
C4
 10
750.97409695643057
 20
53.61305323337254
 30
0.0
 11
751.16877650008576
 21
53.912385615987887
 31
0.0
  0
ARC
  5
FF5
  8
C4
 10
749.38133009568332
 20
54.648955606815889
 30
0.0
 40
1.8999999999999999
 50
270.0
 51
326.96086318505871
  0
ARC
  5
FF6
  8
C4
 10
751.88133009568332
 20
68.848955606815906
 30
0.0
 40
0.85
 50
270.0
 51
326.96086318505741
  0
LINE
  5
FF7
  8
C4
 10
752.78856323493596
 20
68.684857980259238
 30
0.0
 11
752.59388369128067
 21
68.385525597643891
 31
0.0
  0
ARC
  5
FF8
  8
C4
 10
754.38133009568332
 20
67.648955606815889
 30
0.0
 40
1.8999999999999999
 50
90.0
 51
146.96086318505871
  0
ARC
  5
FF9
  8
C4
 10
751.88133009568332
 20
53.448955606815872
 30
0.0
 40
0.85
 50
33.039136814942502
 51
90.0
  0
LINE
  5
FFA
  8
C4
 10
752.78856323493596
 20
53.61305323337254
 30
0.0
 11
752.59388369128067
 21
53.912385615987887
 31
0.0
  0
ARC
  5
FFB
  8
C4
 10
754.38133009568332
 20
54.648955606815889
 30
0.0
 40
1.8999999999999999
 50
213.0391368149412
 51
270.0
  0
ARC
  5
FFC
  8
C4
 10
756.88133009568332
 20
68.848955606815906
 30
0.0
 40
0.85
 50
213.03913681494251
 51
270.0
  0
LINE
  5
FFD
  8
C4
 10
755.97409695643046
 20
68.684857980259238
 30
0.0
 11
756.16877650008587
 21
68.385525597643891
 31
0.0
  0
ARC
  5
FFE
  8
C4
 10
754.38133009568332
 20
67.648955606815889
 30
0.0
 40
1.8999999999999999
 50
33.039136814941259
 51
90.0
  0
ARC
  5
FFF
  8
C4
 10
756.88133009568332
 20
53.448955606815872
 30
0.0
 40
0.85
 50
90.0
 51
146.96086318505741
  0
LINE
  5
1000
  8
C4
 10
755.97409695643046
 20
53.61305323337254
 30
0.0
 11
756.16877650008587
 21
53.912385615987887
 31
0.0
  0
ARC
  5
1001
  8
C4
 10
754.38133009568332
 20
54.648955606815889
 30
0.0
 40
1.8999999999999999
 50
270.0
 51
326.96086318505871
  0
ARC
  5
1002
  8
C4
 10
756.88133009568332
 20
68.848955606815906
 30
0.0
 40
0.85
 50
270.0
 51
326.96086318505741
  0
LINE
  5
1003
  8
C4
 10
757.78856323493596
 20
68.684857980259238
 30
0.0
 11
757.59388369128078
 21
68.385525597643891
 31
0.0
  0
ARC
  5
1004
  8
C4
 10
759.38133009568332
 20
67.648955606815889
 30
0.0
 40
1.8999999999999999
 50
90.0
 51
146.96086318505871
  0
ARC
  5
1005
  8
C4
 10
756.88133009568332
 20
53.448955606815872
 30
0.0
 40
0.85
 50
33.039136814942502
 51
90.0
  0
LINE
  5
1006
  8
C4
 10
757.78856323493596
 20
53.61305323337254
 30
0.0
 11
757.59388369128078
 21
53.912385615987887
 31
0.0
  0
ARC
  5
1007
  8
C4
 10
759.38133009568332
 20
54.648955606815889
 30
0.0
 40
1.8999999999999999
 50
213.0391368149412
 51
270.0
  0
ARC
  5
1008
  8
C4
 10
761.88133009568332
 20
68.848955606815906
 30
0.0
 40
0.85
 50
213.03913681494251
 51
270.0
  0
LINE
  5
1009
  8
C4
 10
760.97409695643046
 20
68.684857980259238
 30
0.0
 11
761.16877650008576
 21
68.385525597643891
 31
0.0
  0
ARC
  5
100A
  8
C4
 10
759.38133009568332
 20
67.648955606815889
 30
0.0
 40
1.8999999999999999
 50
33.039136814941259
 51
90.0
  0
ARC
  5
100B
  8
C4
 10
761.88133009568332
 20
53.448955606815872
 30
0.0
 40
0.85
 50
90.0
 51
146.96086318505741
  0
LINE
  5
100C
  8
C4
 10
760.97409695643046
 20
53.61305323337254
 30
0.0
 11
761.16877650008576
 21
53.912385615987887
 31
0.0
  0
ARC
  5
100D
  8
C4
 10
759.38133009568332
 20
54.648955606815889
 30
0.0
 40
1.8999999999999999
 50
270.0
 51
326.96086318505871
  0
ARC
  5
100E
  8
C4
 10
761.88133009568332
 20
68.848955606815906
 30
0.0
 40
0.85
 50
270.0
 51
326.96086318505741
  0
LINE
  5
100F
  8
C4
 10
762.78856323493608
 20
68.684857980259238
 30
0.0
 11
762.59388369128078
 21
68.385525597643891
 31
0.0
  0
ARC
  5
1010
  8
C4
 10
764.38133009568332
 20
67.648955606815889
 30
0.0
 40
1.8999999999999999
 50
90.0
 51
146.96086318505871
  0
ARC
  5
1011
  8
C4
 10
761.88133009568332
 20
53.448955606815872
 30
0.0
 40
0.85
 50
33.039136814942502
 51
90.0
  0
LINE
  5
1012
  8
C4
 10
762.78856323493608
 20
53.61305323337254
 30
0.0
 11
762.59388369128078
 21
53.912385615987887
 31
0.0
  0
ARC
  5
1013
  8
C4
 10
764.38133009568332
 20
54.648955606815889
 30
0.0
 40
1.8999999999999999
 50
213.0391368149412
 51
270.0
  0
ARC
  5
1014
  8
C4
 10
766.88133009568332
 20
68.848955606815906
 30
0.0
 40
0.85
 50
213.03913681494251
 51
270.0
  0
LINE
  5
1015
  8
C4
 10
765.97409695643046
 20
68.684857980259238
 30
0.0
 11
766.16877650008576
 21
68.385525597643891
 31
0.0
  0
ARC
  5
1016
  8
C4
 10
764.38133009568332
 20
67.648955606815889
 30
0.0
 40
1.8999999999999999
 50
33.039136814941259
 51
90.0
  0
ARC
  5
1017
  8
C4
 10
766.88133009568332
 20
53.448955606815872
 30
0.0
 40
0.85
 50
90.0
 51
146.96086318505741
  0
LINE
  5
1018
  8
C4
 10
765.97409695643046
 20
53.61305323337254
 30
0.0
 11
766.16877650008576
 21
53.912385615987887
 31
0.0
  0
ARC
  5
1019
  8
C4
 10
764.38133009568332
 20
54.648955606815889
 30
0.0
 40
1.8999999999999999
 50
270.0
 51
326.96086318505871
  0
ARC
  5
101A
  8
C4
 10
766.88133009568332
 20
68.848955606815906
 30
0.0
 40
0.85
 50
270.0
 51
326.96086318505741
  0
LINE
  5
101B
  8
C4
 10
767.78856323493608
 20
68.684857980259238
 30
0.0
 11
767.59388369128067
 21
68.385525597643891
 31
0.0
  0
ARC
  5
101C
  8
C4
 10
769.38133009568332
 20
67.648955606815889
 30
0.0
 40
1.8999999999999999
 50
90.0
 51
146.96086318505871
  0
ARC
  5
101D
  8
C4
 10
766.88133009568332
 20
53.448955606815872
 30
0.0
 40
0.85
 50
33.039136814942502
 51
90.0
  0
LINE
  5
101E
  8
C4
 10
767.78856323493608
 20
53.61305323337254
 30
0.0
 11
767.59388369128067
 21
53.912385615987887
 31
0.0
  0
ARC
  5
101F
  8
C4
 10
769.38133009568332
 20
54.648955606815889
 30
0.0
 40
1.8999999999999999
 50
213.0391368149412
 51
270.0
  0
ARC
  5
1020
  8
C4
 10
771.88133009568332
 20
68.848955606815906
 30
0.0
 40
0.85
 50
213.03913681494251
 51
270.0
  0
LINE
  5
1021
  8
C4
 10
770.97409695643057
 20
68.684857980259238
 30
0.0
 11
771.16877650008576
 21
68.385525597643891
 31
0.0
  0
ARC
  5
1022
  8
C4
 10
769.38133009568332
 20
67.648955606815889
 30
0.0
 40
1.8999999999999999
 50
33.039136814941259
 51
90.0
  0
ARC
  5
1023
  8
C4
 10
771.88133009568332
 20
53.448955606815872
 30
0.0
 40
0.85
 50
90.0
 51
146.96086318505741
  0
LINE
  5
1024
  8
C4
 10
770.97409695643057
 20
53.61305323337254
 30
0.0
 11
771.16877650008576
 21
53.912385615987887
 31
0.0
  0
ARC
  5
1025
  8
C4
 10
769.38133009568332
 20
54.648955606815889
 30
0.0
 40
1.8999999999999999
 50
270.0
 51
326.96086318505871
  0
ARC
  5
1026
  8
C4
 10
771.88133009568332
 20
68.848955606815906
 30
0.0
 40
0.85
 50
270.0
 51
326.96086318505741
  0
LINE
  5
1027
  8
C4
 10
772.78856323493596
 20
68.684857980259238
 30
0.0
 11
772.59388369128067
 21
68.385525597643891
 31
0.0
  0
ARC
  5
1028
  8
C4
 10
774.38133009568332
 20
67.648955606815889
 30
0.0
 40
1.8999999999999999
 50
90.0
 51
146.96086318505871
  0
ARC
  5
1029
  8
C4
 10
771.88133009568332
 20
53.448955606815872
 30
0.0
 40
0.85
 50
33.039136814942502
 51
90.0
  0
LINE
  5
102A
  8
C4
 10
772.78856323493596
 20
53.61305323337254
 30
0.0
 11
772.59388369128067
 21
53.912385615987887
 31
0.0
  0
ARC
  5
102B
  8
C4
 10
774.38133009568332
 20
54.648955606815889
 30
0.0
 40
1.8999999999999999
 50
213.0391368149412
 51
270.0
  0
ARC
  5
102C
  8
C4
 10
776.88133009568332
 20
68.848955606815906
 30
0.0
 40
0.85
 50
213.03913681494251
 51
270.0
  0
LINE
  5
102D
  8
C4
 10
775.97409695643057
 20
68.684857980259238
 30
0.0
 11
776.16877650008576
 21
68.385525597643891
 31
0.0
  0
ARC
  5
102E
  8
C4
 10
774.38133009568332
 20
67.648955606815889
 30
0.0
 40
1.8999999999999999
 50
33.039136814941259
 51
90.0
  0
ARC
  5
102F
  8
C4
 10
776.88133009568332
 20
53.448955606815872
 30
0.0
 40
0.85
 50
90.0
 51
146.96086318505741
  0
LINE
  5
1030
  8
C4
 10
775.97409695643057
 20
53.61305323337254
 30
0.0
 11
776.16877650008576
 21
53.912385615987887
 31
0.0
  0
ARC
  5
1031
  8
C4
 10
774.38133009568332
 20
54.648955606815889
 30
0.0
 40
1.8999999999999999
 50
270.0
 51
326.96086318505871
  0
ARC
  5
1032
  8
C4
 10
776.88133009568332
 20
68.848955606815906
 30
0.0
 40
0.85
 50
270.0
 51
326.96086318505741
  0
LINE
  5
1033
  8
C4
 10
777.78856323493596
 20
68.684857980259238
 30
0.0
 11
777.59388369128078
 21
68.385525597643891
 31
0.0
  0
ARC
  5
1034
  8
C4
 10
779.38133009568332
 20
67.648955606815889
 30
0.0
 40
1.8999999999999999
 50
90.0
 51
146.96086318505871
  0
ARC
  5
1035
  8
C4
 10
776.88133009568332
 20
53.448955606815872
 30
0.0
 40
0.85
 50
33.039136814942502
 51
90.0
  0
LINE
  5
1036
  8
C4
 10
777.78856323493596
 20
53.61305323337254
 30
0.0
 11
777.59388369128078
 21
53.912385615987887
 31
0.0
  0
ARC
  5
1037
  8
C4
 10
779.38133009568332
 20
54.648955606815889
 30
0.0
 40
1.8999999999999999
 50
213.0391368149412
 51
270.0
  0
ARC
  5
1038
  8
C4
 10
781.88133009568332
 20
68.848955606815906
 30
0.0
 40
0.85
 50
213.03913681494251
 51
270.0
  0
LINE
  5
1039
  8
C4
 10
780.97409695643046
 20
68.684857980259238
 30
0.0
 11
781.16877650008587
 21
68.385525597643891
 31
0.0
  0
ARC
  5
103A
  8
C4
 10
779.38133009568332
 20
67.648955606815889
 30
0.0
 40
1.8999999999999999
 50
33.039136814941259
 51
90.0
  0
ARC
  5
103B
  8
C4
 10
781.88133009568332
 20
53.448955606815872
 30
0.0
 40
0.85
 50
90.0
 51
146.96086318505741
  0
LINE
  5
103C
  8
C4
 10
780.97409695643046
 20
53.61305323337254
 30
0.0
 11
781.16877650008587
 21
53.912385615987887
 31
0.0
  0
ARC
  5
103D
  8
C4
 10
779.38133009568332
 20
54.648955606815889
 30
0.0
 40
1.8999999999999999
 50
270.0
 51
326.96086318505871
  0
ARC
  5
103E
  8
C4
 10
781.88133009568332
 20
68.848955606815906
 30
0.0
 40
0.85
 50
270.0
 51
326.96086318505741
  0
LINE
  5
103F
  8
C4
 10
782.78856323493596
 20
68.684857980259238
 30
0.0
 11
782.59388369128078
 21
68.385525597643891
 31
0.0
  0
ARC
  5
1040
  8
C4
 10
784.38133009568332
 20
67.648955606815889
 30
0.0
 40
1.8999999999999999
 50
90.0
 51
146.96086318505871
  0
ARC
  5
1041
  8
C4
 10
781.88133009568332
 20
53.448955606815872
 30
0.0
 40
0.85
 50
33.039136814942502
 51
90.0
  0
LINE
  5
1042
  8
C4
 10
782.78856323493596
 20
53.61305323337254
 30
0.0
 11
782.59388369128078
 21
53.912385615987887
 31
0.0
  0
ARC
  5
1043
  8
C4
 10
784.38133009568332
 20
54.648955606815889
 30
0.0
 40
1.8999999999999999
 50
213.0391368149412
 51
270.0
  0
ARC
  5
1044
  8
C4
 10
786.88133009568332
 20
68.848955606815906
 30
0.0
 40
0.85
 50
213.03913681494251
 51
270.0
  0
LINE
  5
1045
  8
C4
 10
785.97409695643046
 20
68.684857980259238
 30
0.0
 11
786.16877650008576
 21
68.385525597643891
 31
0.0
  0
ARC
  5
1046
  8
C4
 10
784.38133009568332
 20
67.648955606815889
 30
0.0
 40
1.8999999999999999
 50
33.039136814941259
 51
90.0
  0
ARC
  5
1047
  8
C4
 10
786.88133009568332
 20
53.448955606815872
 30
0.0
 40
0.85
 50
90.0
 51
146.96086318505741
  0
LINE
  5
1048
  8
C4
 10
785.97409695643046
 20
53.61305323337254
 30
0.0
 11
786.16877650008576
 21
53.912385615987887
 31
0.0
  0
ARC
  5
1049
  8
C4
 10
784.38133009568332
 20
54.648955606815889
 30
0.0
 40
1.8999999999999999
 50
270.0
 51
326.96086318505871
  0
ARC
  5
104A
  8
C4
 10
786.88133009568332
 20
68.848955606815906
 30
0.0
 40
0.85
 50
270.0
 51
326.96086318505741
  0
LINE
  5
104B
  8
C4
 10
787.78856323493608
 20
68.684857980259238
 30
0.0
 11
787.59388369128078
 21
68.385525597643891
 31
0.0
  0
ARC
  5
104C
  8
C4
 10
789.38133009568332
 20
67.648955606815889
 30
0.0
 40
1.8999999999999999
 50
90.0
 51
146.96086318505871
  0
ARC
  5
104D
  8
C4
 10
786.88133009568332
 20
53.448955606815872
 30
0.0
 40
0.85
 50
33.039136814942502
 51
90.0
  0
LINE
  5
104E
  8
C4
 10
787.78856323493608
 20
53.61305323337254
 30
0.0
 11
787.59388369128078
 21
53.912385615987887
 31
0.0
  0
ARC
  5
104F
  8
C4
 10
789.38133009568332
 20
54.648955606815889
 30
0.0
 40
1.8999999999999999
 50
213.0391368149412
 51
270.0
  0
ARC
  5
1050
  8
C4
 10
791.88133009568332
 20
68.848955606815906
 30
0.0
 40
0.85
 50
213.03913681494251
 51
270.0
  0
LINE
  5
1051
  8
C4
 10
790.97409695643046
 20
68.684857980259238
 30
0.0
 11
791.16877650008576
 21
68.385525597643891
 31
0.0
  0
ARC
  5
1052
  8
C4
 10
789.38133009568332
 20
67.648955606815889
 30
0.0
 40
1.8999999999999999
 50
33.039136814941259
 51
90.0
  0
ARC
  5
1053
  8
C4
 10
791.88133009568332
 20
53.448955606815872
 30
0.0
 40
0.85
 50
90.0
 51
146.96086318505741
  0
LINE
  5
1054
  8
C4
 10
790.97409695643046
 20
53.61305323337254
 30
0.0
 11
791.16877650008576
 21
53.912385615987887
 31
0.0
  0
ARC
  5
1055
  8
C4
 10
789.38133009568332
 20
54.648955606815889
 30
0.0
 40
1.8999999999999999
 50
270.0
 51
326.96086318505871
  0
ARC
  5
1056
  8
C4
 10
791.88133009568332
 20
68.848955606815906
 30
0.0
 40
0.85
 50
270.0
 51
326.96086318505741
  0
LINE
  5
1057
  8
C4
 10
792.78856323493608
 20
68.684857980259238
 30
0.0
 11
792.59388369128067
 21
68.385525597643891
 31
0.0
  0
ARC
  5
1058
  8
C4
 10
794.38133009568332
 20
67.648955606815889
 30
0.0
 40
1.8999999999999999
 50
90.0
 51
146.96086318505871
  0
ARC
  5
1059
  8
C4
 10
791.88133009568332
 20
53.448955606815872
 30
0.0
 40
0.85
 50
33.039136814942502
 51
90.0
  0
LINE
  5
105A
  8
C4
 10
792.78856323493608
 20
53.61305323337254
 30
0.0
 11
792.59388369128067
 21
53.912385615987887
 31
0.0
  0
ARC
  5
105B
  8
C4
 10
794.38133009568332
 20
54.648955606815889
 30
0.0
 40
1.8999999999999999
 50
213.0391368149412
 51
270.0
  0
ARC
  5
105C
  8
C4
 10
796.88133009568332
 20
68.848955606815906
 30
0.0
 40
0.85
 50
213.03913681494251
 51
270.0
  0
LINE
  5
105D
  8
C4
 10
795.97409695643057
 20
68.684857980259238
 30
0.0
 11
796.16877650008576
 21
68.385525597643891
 31
0.0
  0
ARC
  5
105E
  8
C4
 10
794.38133009568332
 20
67.648955606815889
 30
0.0
 40
1.8999999999999999
 50
33.039136814941259
 51
90.0
  0
ARC
  5
105F
  8
C4
 10
796.88133009568332
 20
53.448955606815872
 30
0.0
 40
0.85
 50
90.0
 51
146.96086318505741
  0
LINE
  5
1060
  8
C4
 10
795.97409695643057
 20
53.61305323337254
 30
0.0
 11
796.16877650008576
 21
53.912385615987887
 31
0.0
  0
ARC
  5
1061
  8
C4
 10
794.38133009568332
 20
54.648955606815889
 30
0.0
 40
1.8999999999999999
 50
270.0
 51
326.96086318505871
  0
ARC
  5
1062
  8
C4
 10
796.88133009568332
 20
68.848955606815906
 30
0.0
 40
0.85
 50
270.0
 51
326.96086318505741
  0
LINE
  5
1063
  8
C4
 10
797.78856323493596
 20
68.684857980259238
 30
0.0
 11
797.59388369128067
 21
68.385525597643891
 31
0.0
  0
ARC
  5
1064
  8
C4
 10
799.38133009568332
 20
67.648955606815889
 30
0.0
 40
1.8999999999999999
 50
90.0
 51
146.96086318505871
  0
ARC
  5
1065
  8
C4
 10
796.88133009568332
 20
53.448955606815872
 30
0.0
 40
0.85
 50
33.039136814942502
 51
90.0
  0
LINE
  5
1066
  8
C4
 10
797.78856323493596
 20
53.61305323337254
 30
0.0
 11
797.59388369128067
 21
53.912385615987887
 31
0.0
  0
ARC
  5
1067
  8
C4
 10
799.38133009568332
 20
54.648955606815889
 30
0.0
 40
1.8999999999999999
 50
213.0391368149412
 51
270.0
  0
ARC
  5
1068
  8
C4
 10
801.88133009568321
 20
68.848955606815906
 30
0.0
 40
0.85
 50
213.03913681494251
 51
270.0
  0
LINE
  5
1069
  8
C4
 10
800.97409695643046
 20
68.684857980259238
 30
0.0
 11
801.16877650008587
 21
68.385525597643891
 31
0.0
  0
ARC
  5
106A
  8
C4
 10
799.38133009568332
 20
67.648955606815889
 30
0.0
 40
1.8999999999999999
 50
33.039136814941259
 51
90.0
  0
ARC
  5
106B
  8
C4
 10
801.88133009568321
 20
53.448955606815872
 30
0.0
 40
0.85
 50
90.0
 51
146.96086318505741
  0
LINE
  5
106C
  8
C4
 10
800.97409695643046
 20
53.61305323337254
 30
0.0
 11
801.16877650008587
 21
53.912385615987887
 31
0.0
  0
ARC
  5
106D
  8
C4
 10
799.38133009568332
 20
54.648955606815889
 30
0.0
 40
1.8999999999999999
 50
270.0
 51
326.96086318505871
  0
ARC
  5
106E
  8
C4
 10
801.88133009568321
 20
68.848955606815906
 30
0.0
 40
0.85
 50
270.0
 51
326.96086318505741
  0
LINE
  5
106F
  8
C4
 10
802.78856323493608
 20
68.684857980259238
 30
0.0
 11
802.59388369128067
 21
68.385525597643891
 31
0.0
  0
ARC
  5
1070
  8
C4
 10
804.38133009568321
 20
67.648955606815889
 30
0.0
 40
1.8999999999999999
 50
90.0
 51
146.96086318505871
  0
ARC
  5
1071
  8
C4
 10
801.88133009568321
 20
53.448955606815872
 30
0.0
 40
0.85
 50
33.039136814942502
 51
90.0
  0
LINE
  5
1072
  8
C4
 10
802.78856323493608
 20
53.61305323337254
 30
0.0
 11
802.59388369128067
 21
53.912385615987887
 31
0.0
  0
ARC
  5
1073
  8
C4
 10
804.38133009568321
 20
54.648955606815889
 30
0.0
 40
1.8999999999999999
 50
213.0391368149412
 51
270.0
  0
ARC
  5
1074
  8
C4
 10
806.88133009568332
 20
68.848955606815906
 30
0.0
 40
0.85
 50
213.03913681494251
 51
270.0
  0
LINE
  5
1075
  8
C4
 10
805.97409695643046
 20
68.684857980259238
 30
0.0
 11
806.16877650008576
 21
68.385525597643891
 31
0.0
  0
ARC
  5
1076
  8
C4
 10
804.38133009568321
 20
67.648955606815889
 30
0.0
 40
1.8999999999999999
 50
33.039136814941259
 51
90.0
  0
ARC
  5
1077
  8
C4
 10
806.88133009568332
 20
53.448955606815872
 30
0.0
 40
0.85
 50
90.0
 51
146.96086318505741
  0
LINE
  5
1078
  8
C4
 10
805.97409695643046
 20
53.61305323337254
 30
0.0
 11
806.16877650008576
 21
53.912385615987887
 31
0.0
  0
ARC
  5
1079
  8
C4
 10
804.38133009568321
 20
54.648955606815889
 30
0.0
 40
1.8999999999999999
 50
270.0
 51
326.96086318505871
  0
ARC
  5
107A
  8
C4
 10
806.88133009568332
 20
68.848955606815906
 30
0.0
 40
0.85
 50
270.0
 51
326.96086318505741
  0
LINE
  5
107B
  8
C4
 10
807.78856323493596
 20
68.684857980259238
 30
0.0
 11
807.59388369128078
 21
68.385525597643891
 31
0.0
  0
ARC
  5
107C
  8
C4
 10
809.38133009568332
 20
67.648955606815889
 30
0.0
 40
1.8999999999999999
 50
90.0
 51
146.96086318505871
  0
ARC
  5
107D
  8
C4
 10
806.88133009568332
 20
53.448955606815872
 30
0.0
 40
0.85
 50
33.039136814942502
 51
90.0
  0
LINE
  5
107E
  8
C4
 10
807.78856323493596
 20
53.61305323337254
 30
0.0
 11
807.59388369128078
 21
53.912385615987887
 31
0.0
  0
ARC
  5
107F
  8
C4
 10
809.38133009568332
 20
54.648955606815889
 30
0.0
 40
1.8999999999999999
 50
213.0391368149412
 51
270.0
  0
ARC
  5
1080
  8
C4
 10
811.88133009568332
 20
68.848955606815906
 30
0.0
 40
0.85
 50
213.03913681494251
 51
270.0
  0
LINE
  5
1081
  8
C4
 10
810.97409695643057
 20
68.684857980259238
 30
0.0
 11
811.16877650008576
 21
68.385525597643891
 31
0.0
  0
ARC
  5
1082
  8
C4
 10
809.38133009568332
 20
67.648955606815889
 30
0.0
 40
1.8999999999999999
 50
33.039136814941259
 51
90.0
  0
ARC
  5
1083
  8
C4
 10
811.88133009568332
 20
53.448955606815872
 30
0.0
 40
0.85
 50
90.0
 51
146.96086318505741
  0
LINE
  5
1084
  8
C4
 10
810.97409695643057
 20
53.61305323337254
 30
0.0
 11
811.16877650008576
 21
53.912385615987887
 31
0.0
  0
ARC
  5
1085
  8
C4
 10
809.38133009568332
 20
54.648955606815889
 30
0.0
 40
1.8999999999999999
 50
270.0
 51
326.96086318505871
  0
ARC
  5
1086
  8
C4
 10
811.88133009568332
 20
68.848955606815906
 30
0.0
 40
0.85
 50
270.0
 51
326.96086318505741
  0
LINE
  5
1087
  8
C4
 10
812.78856323493608
 20
68.684857980259238
 30
0.0
 11
812.59388369128067
 21
68.385525597643891
 31
0.0
  0
ARC
  5
1088
  8
C4
 10
814.38133009568321
 20
67.648955606815889
 30
0.0
 40
1.8999999999999999
 50
90.0
 51
146.96086318505871
  0
ARC
  5
1089
  8
C4
 10
811.88133009568332
 20
53.448955606815872
 30
0.0
 40
0.85
 50
33.039136814942502
 51
90.0
  0
LINE
  5
108A
  8
C4
 10
812.78856323493608
 20
53.61305323337254
 30
0.0
 11
812.59388369128067
 21
53.912385615987887
 31
0.0
  0
ARC
  5
108B
  8
C4
 10
814.38133009568321
 20
54.648955606815889
 30
0.0
 40
1.8999999999999999
 50
213.0391368149412
 51
270.0
  0
ARC
  5
108C
  8
C4
 10
816.88133009568321
 20
68.848955606815906
 30
0.0
 40
0.85
 50
213.03913681494251
 51
270.0
  0
LINE
  5
108D
  8
C4
 10
815.97409695643046
 20
68.684857980259238
 30
0.0
 11
816.16877650008587
 21
68.385525597643891
 31
0.0
  0
ARC
  5
108E
  8
C4
 10
814.38133009568321
 20
67.648955606815889
 30
0.0
 40
1.8999999999999999
 50
33.039136814941259
 51
90.0
  0
ARC
  5
108F
  8
C4
 10
816.88133009568321
 20
53.448955606815872
 30
0.0
 40
0.85
 50
90.0
 51
146.96086318505741
  0
LINE
  5
1090
  8
C4
 10
815.97409695643046
 20
53.61305323337254
 30
0.0
 11
816.16877650008587
 21
53.912385615987887
 31
0.0
  0
ARC
  5
1091
  8
C4
 10
814.38133009568321
 20
54.648955606815889
 30
0.0
 40
1.8999999999999999
 50
270.0
 51
326.96086318505871
  0
ARC
  5
1092
  8
C4
 10
816.88133009568321
 20
68.848955606815906
 30
0.0
 40
0.85
 50
270.0
 51
326.96086318505741
  0
LINE
  5
1093
  8
C4
 10
817.78856323493596
 20
68.684857980259238
 30
0.0
 11
817.59388369128067
 21
68.385525597643891
 31
0.0
  0
ARC
  5
1094
  8
C4
 10
819.38133009568332
 20
67.648955606815889
 30
0.0
 40
1.8999999999999999
 50
90.0
 51
146.96086318505871
  0
ARC
  5
1095
  8
C4
 10
816.88133009568321
 20
53.448955606815872
 30
0.0
 40
0.85
 50
33.039136814942502
 51
90.0
  0
LINE
  5
1096
  8
C4
 10
817.78856323493596
 20
53.61305323337254
 30
0.0
 11
817.59388369128067
 21
53.912385615987887
 31
0.0
  0
ARC
  5
1097
  8
C4
 10
819.38133009568332
 20
54.648955606815889
 30
0.0
 40
1.8999999999999999
 50
213.0391368149412
 51
270.0
  0
ARC
  5
1098
  8
C4
 10
821.88133009568332
 20
68.848955606815906
 30
0.0
 40
0.85
 50
213.03913681494251
 51
270.0
  0
LINE
  5
1099
  8
C4
 10
820.97409695643057
 20
68.684857980259238
 30
0.0
 11
821.16877650008576
 21
68.385525597643891
 31
0.0
  0
ARC
  5
109A
  8
C4
 10
819.38133009568332
 20
67.648955606815889
 30
0.0
 40
1.8999999999999999
 50
33.039136814941259
 51
90.0
  0
ARC
  5
109B
  8
C4
 10
821.88133009568332
 20
53.448955606815872
 30
0.0
 40
0.85
 50
90.0
 51
146.96086318505741
  0
LINE
  5
109C
  8
C4
 10
820.97409695643057
 20
53.61305323337254
 30
0.0
 11
821.16877650008576
 21
53.912385615987887
 31
0.0
  0
ARC
  5
109D
  8
C4
 10
819.38133009568332
 20
54.648955606815889
 30
0.0
 40
1.8999999999999999
 50
270.0
 51
326.96086318505871
  0
ARC
  5
109E
  8
C4
 10
821.88133009568332
 20
68.848955606815906
 30
0.0
 40
0.85
 50
270.0
 51
326.96086318505741
  0
LINE
  5
109F
  8
C4
 10
822.78856323493596
 20
68.684857980259238
 30
0.0
 11
822.59388369128078
 21
68.385525597643891
 31
0.0
  0
ARC
  5
10A0
  8
C4
 10
824.38133009568332
 20
67.648955606815889
 30
0.0
 40
1.8999999999999999
 50
90.0
 51
146.96086318505871
  0
ARC
  5
10A1
  8
C4
 10
821.88133009568332
 20
53.448955606815872
 30
0.0
 40
0.85
 50
33.039136814942502
 51
90.0
  0
LINE
  5
10A2
  8
C4
 10
822.78856323493596
 20
53.61305323337254
 30
0.0
 11
822.59388369128078
 21
53.912385615987887
 31
0.0
  0
ARC
  5
10A3
  8
C4
 10
824.38133009568332
 20
54.648955606815889
 30
0.0
 40
1.8999999999999999
 50
213.0391368149412
 51
270.0
  0
ARC
  5
10A4
  8
C4
 10
826.88133009568321
 20
68.848955606815906
 30
0.0
 40
0.85
 50
213.03913681494251
 51
270.0
  0
LINE
  5
10A5
  8
C4
 10
825.97409695643046
 20
68.684857980259238
 30
0.0
 11
826.16877650008587
 21
68.385525597643891
 31
0.0
  0
ARC
  5
10A6
  8
C4
 10
824.38133009568332
 20
67.648955606815889
 30
0.0
 40
1.8999999999999999
 50
33.039136814941259
 51
90.0
  0
ARC
  5
10A7
  8
C4
 10
826.88133009568321
 20
53.448955606815872
 30
0.0
 40
0.85
 50
90.0
 51
146.96086318505741
  0
LINE
  5
10A8
  8
C4
 10
825.97409695643046
 20
53.61305323337254
 30
0.0
 11
826.16877650008587
 21
53.912385615987887
 31
0.0
  0
ARC
  5
10A9
  8
C4
 10
824.38133009568332
 20
54.648955606815889
 30
0.0
 40
1.8999999999999999
 50
270.0
 51
326.96086318505871
  0
ARC
  5
10AA
  8
C4
 10
826.88133009568321
 20
68.848955606815906
 30
0.0
 40
0.85
 50
270.0
 51
326.96086318505741
  0
LINE
  5
10AB
  8
C4
 10
827.78856323493608
 20
68.684857980259238
 30
0.0
 11
827.59388369128067
 21
68.385525597643891
 31
0.0
  0
ARC
  5
10AC
  8
C4
 10
829.38133009568321
 20
67.648955606815889
 30
0.0
 40
1.8999999999999999
 50
90.0
 51
146.96086318505871
  0
ARC
  5
10AD
  8
C4
 10
826.88133009568321
 20
53.448955606815872
 30
0.0
 40
0.85
 50
33.039136814942502
 51
90.0
  0
LINE
  5
10AE
  8
C4
 10
827.78856323493608
 20
53.61305323337254
 30
0.0
 11
827.59388369128067
 21
53.912385615987887
 31
0.0
  0
ARC
  5
10AF
  8
C4
 10
829.38133009568321
 20
54.648955606815889
 30
0.0
 40
1.8999999999999999
 50
213.0391368149412
 51
270.0
  0
ARC
  5
10B0
  8
C4
 10
831.88133009568332
 20
68.848955606815906
 30
0.0
 40
0.85
 50
213.03913681494251
 51
270.0
  0
LINE
  5
10B1
  8
C4
 10
830.97409695643046
 20
68.684857980259238
 30
0.0
 11
831.16877650008576
 21
68.385525597643891
 31
0.0
  0
ARC
  5
10B2
  8
C4
 10
829.38133009568321
 20
67.648955606815889
 30
0.0
 40
1.8999999999999999
 50
33.039136814941259
 51
90.0
  0
ARC
  5
10B3
  8
C4
 10
831.88133009568332
 20
53.448955606815872
 30
0.0
 40
0.85
 50
90.0
 51
146.96086318505741
  0
LINE
  5
10B4
  8
C4
 10
830.97409695643046
 20
53.61305323337254
 30
0.0
 11
831.16877650008576
 21
53.912385615987887
 31
0.0
  0
ARC
  5
10B5
  8
C4
 10
829.38133009568321
 20
54.648955606815889
 30
0.0
 40
1.8999999999999999
 50
270.0
 51
326.96086318505871
  0
ARC
  5
10B6
  8
C4
 10
831.88133009568332
 20
68.848955606815906
 30
0.0
 40
0.85
 50
270.0
 51
326.96086318505741
  0
LINE
  5
10B7
  8
C4
 10
832.78856323493596
 20
68.684857980259238
 30
0.0
 11
832.59388369128078
 21
68.385525597643891
 31
0.0
  0
ARC
  5
10B8
  8
C4
 10
834.38133009568332
 20
67.648955606815889
 30
0.0
 40
1.8999999999999999
 50
90.0
 51
146.96086318505871
  0
ARC
  5
10B9
  8
C4
 10
831.88133009568332
 20
53.448955606815872
 30
0.0
 40
0.85
 50
33.039136814942502
 51
90.0
  0
LINE
  5
10BA
  8
C4
 10
832.78856323493596
 20
53.61305323337254
 30
0.0
 11
832.59388369128078
 21
53.912385615987887
 31
0.0
  0
ARC
  5
10BB
  8
C4
 10
834.38133009568332
 20
54.648955606815889
 30
0.0
 40
1.8999999999999999
 50
213.0391368149412
 51
270.0
  0
ARC
  5
10BC
  8
C4
 10
836.88133009568332
 20
68.848955606815906
 30
0.0
 40
0.85
 50
213.03913681494251
 51
270.0
  0
LINE
  5
10BD
  8
C4
 10
835.97409695643057
 20
68.684857980259238
 30
0.0
 11
836.16877650008576
 21
68.385525597643891
 31
0.0
  0
ARC
  5
10BE
  8
C4
 10
834.38133009568332
 20
67.648955606815889
 30
0.0
 40
1.8999999999999999
 50
33.039136814941259
 51
90.0
  0
ARC
  5
10BF
  8
C4
 10
836.88133009568332
 20
53.448955606815872
 30
0.0
 40
0.85
 50
90.0
 51
146.96086318505741
  0
LINE
  5
10C0
  8
C4
 10
835.97409695643057
 20
53.61305323337254
 30
0.0
 11
836.16877650008576
 21
53.912385615987887
 31
0.0
  0
ARC
  5
10C1
  8
C4
 10
834.38133009568332
 20
54.648955606815889
 30
0.0
 40
1.8999999999999999
 50
270.0
 51
326.96086318505871
  0
ARC
  5
10C2
  8
C4
 10
836.88133009568332
 20
68.848955606815906
 30
0.0
 40
0.85
 50
270.0
 51
326.96086318505741
  0
LINE
  5
10C3
  8
C4
 10
837.78856323493608
 20
68.684857980259238
 30
0.0
 11
837.59388369128067
 21
68.385525597643891
 31
0.0
  0
ARC
  5
10C4
  8
C4
 10
839.38133009568321
 20
67.648955606815889
 30
0.0
 40
1.8999999999999999
 50
90.0
 51
146.96086318505871
  0
ARC
  5
10C5
  8
C4
 10
836.88133009568332
 20
53.448955606815872
 30
0.0
 40
0.85
 50
33.039136814942502
 51
90.0
  0
LINE
  5
10C6
  8
C4
 10
837.78856323493608
 20
53.61305323337254
 30
0.0
 11
837.59388369128067
 21
53.912385615987887
 31
0.0
  0
ARC
  5
10C7
  8
C4
 10
839.38133009568321
 20
54.648955606815889
 30
0.0
 40
1.8999999999999999
 50
213.0391368149412
 51
270.0
  0
ARC
  5
10C8
  8
C4
 10
841.88133009568321
 20
68.848955606815906
 30
0.0
 40
0.85
 50
213.03913681494251
 51
270.0
  0
LINE
  5
10C9
  8
C4
 10
840.97409695643046
 20
68.684857980259238
 30
0.0
 11
841.16877650008587
 21
68.385525597643891
 31
0.0
  0
ARC
  5
10CA
  8
C4
 10
839.38133009568321
 20
67.648955606815889
 30
0.0
 40
1.8999999999999999
 50
33.039136814941259
 51
90.0
  0
ARC
  5
10CB
  8
C4
 10
841.88133009568321
 20
53.448955606815872
 30
0.0
 40
0.85
 50
90.0
 51
146.96086318505741
  0
LINE
  5
10CC
  8
C4
 10
840.97409695643046
 20
53.61305323337254
 30
0.0
 11
841.16877650008587
 21
53.912385615987887
 31
0.0
  0
ARC
  5
10CD
  8
C4
 10
839.38133009568321
 20
54.648955606815889
 30
0.0
 40
1.8999999999999999
 50
270.0
 51
326.96086318505871
  0
ARC
  5
10CE
  8
C4
 10
841.88133009568321
 20
68.848955606815906
 30
0.0
 40
0.85
 50
270.0
 51
326.96086318505741
  0
LINE
  5
10CF
  8
C4
 10
842.78856323493596
 20
68.684857980259238
 30
0.0
 11
842.59388369128067
 21
68.385525597643891
 31
0.0
  0
ARC
  5
10D0
  8
C4
 10
844.38133009568332
 20
67.648955606815889
 30
0.0
 40
1.8999999999999999
 50
90.0
 51
146.96086318505871
  0
ARC
  5
10D1
  8
C4
 10
841.88133009568321
 20
53.448955606815872
 30
0.0
 40
0.85
 50
33.039136814942502
 51
90.0
  0
LINE
  5
10D2
  8
C4
 10
842.78856323493596
 20
53.61305323337254
 30
0.0
 11
842.59388369128067
 21
53.912385615987887
 31
0.0
  0
ARC
  5
10D3
  8
C4
 10
844.38133009568332
 20
54.648955606815889
 30
0.0
 40
1.8999999999999999
 50
213.0391368149412
 51
270.0
  0
ARC
  5
10D4
  8
C4
 10
846.88133009568332
 20
68.848955606815906
 30
0.0
 40
0.85
 50
213.03913681494251
 51
270.0
  0
LINE
  5
10D5
  8
C4
 10
845.97409695643057
 20
68.684857980259238
 30
0.0
 11
846.16877650008576
 21
68.385525597643891
 31
0.0
  0
ARC
  5
10D6
  8
C4
 10
844.38133009568332
 20
67.648955606815889
 30
0.0
 40
1.8999999999999999
 50
33.039136814941259
 51
90.0
  0
ARC
  5
10D7
  8
C4
 10
846.88133009568332
 20
53.448955606815872
 30
0.0
 40
0.85
 50
90.0
 51
146.96086318505741
  0
LINE
  5
10D8
  8
C4
 10
845.97409695643057
 20
53.61305323337254
 30
0.0
 11
846.16877650008576
 21
53.912385615987887
 31
0.0
  0
ARC
  5
10D9
  8
C4
 10
844.38133009568332
 20
54.648955606815889
 30
0.0
 40
1.8999999999999999
 50
270.0
 51
326.96086318505871
  0
ARC
  5
10DA
  8
C4
 10
846.88133009568332
 20
68.848955606815906
 30
0.0
 40
0.85
 50
270.0
 51
326.96086318505741
  0
LINE
  5
10DB
  8
C4
 10
847.78856323493596
 20
68.684857980259238
 30
0.0
 11
847.59388369128078
 21
68.385525597643891
 31
0.0
  0
ARC
  5
10DC
  8
C4
 10
849.38133009568332
 20
67.648955606815889
 30
0.0
 40
1.8999999999999999
 50
90.0
 51
146.96086318505871
  0
ARC
  5
10DD
  8
C4
 10
846.88133009568332
 20
53.448955606815872
 30
0.0
 40
0.85
 50
33.039136814942502
 51
90.0
  0
LINE
  5
10DE
  8
C4
 10
847.78856323493596
 20
53.61305323337254
 30
0.0
 11
847.59388369128078
 21
53.912385615987887
 31
0.0
  0
ARC
  5
10DF
  8
C4
 10
849.38133009568332
 20
54.648955606815889
 30
0.0
 40
1.8999999999999999
 50
213.0391368149412
 51
270.0
  0
ARC
  5
10E0
  8
C4
 10
851.88133009568321
 20
68.848955606815906
 30
0.0
 40
0.85
 50
213.03913681494251
 51
270.0
  0
LINE
  5
10E1
  8
C4
 10
850.97409695643046
 20
68.684857980259238
 30
0.0
 11
851.16877650008587
 21
68.385525597643891
 31
0.0
  0
ARC
  5
10E2
  8
C4
 10
849.38133009568332
 20
67.648955606815889
 30
0.0
 40
1.8999999999999999
 50
33.039136814941259
 51
90.0
  0
ARC
  5
10E3
  8
C4
 10
851.88133009568321
 20
53.448955606815872
 30
0.0
 40
0.85
 50
90.0
 51
146.96086318505741
  0
LINE
  5
10E4
  8
C4
 10
850.97409695643046
 20
53.61305323337254
 30
0.0
 11
851.16877650008587
 21
53.912385615987887
 31
0.0
  0
ARC
  5
10E5
  8
C4
 10
849.38133009568332
 20
54.648955606815889
 30
0.0
 40
1.8999999999999999
 50
270.0
 51
326.96086318505871
  0
ARC
  5
10E6
  8
C4
 10
851.88133009568321
 20
68.848955606815906
 30
0.0
 40
0.85
 50
270.0
 51
326.96086318505741
  0
LINE
  5
10E7
  8
C4
 10
852.78856323493608
 20
68.684857980259238
 30
0.0
 11
852.59388369128067
 21
68.385525597643891
 31
0.0
  0
ARC
  5
10E8
  8
C4
 10
854.38133009568321
 20
67.648955606815889
 30
0.0
 40
1.8999999999999999
 50
90.0
 51
146.96086318505871
  0
ARC
  5
10E9
  8
C4
 10
851.88133009568321
 20
53.448955606815872
 30
0.0
 40
0.85
 50
33.039136814942502
 51
90.0
  0
LINE
  5
10EA
  8
C4
 10
852.78856323493608
 20
53.61305323337254
 30
0.0
 11
852.59388369128067
 21
53.912385615987887
 31
0.0
  0
ARC
  5
10EB
  8
C4
 10
854.38133009568321
 20
54.648955606815889
 30
0.0
 40
1.8999999999999999
 50
213.0391368149412
 51
270.0
  0
ARC
  5
10EC
  8
C4
 10
856.88133009568332
 20
68.848955606815906
 30
0.0
 40
0.85
 50
213.03913681494251
 51
270.0
  0
LINE
  5
10ED
  8
C4
 10
855.97409695643046
 20
68.684857980259238
 30
0.0
 11
856.16877650008576
 21
68.385525597643891
 31
0.0
  0
ARC
  5
10EE
  8
C4
 10
854.38133009568321
 20
67.648955606815889
 30
0.0
 40
1.8999999999999999
 50
33.039136814941259
 51
90.0
  0
ARC
  5
10EF
  8
C4
 10
856.88133009568332
 20
53.448955606815872
 30
0.0
 40
0.85
 50
90.0
 51
146.96086318505741
  0
LINE
  5
10F0
  8
C4
 10
855.97409695643046
 20
53.61305323337254
 30
0.0
 11
856.16877650008576
 21
53.912385615987887
 31
0.0
  0
ARC
  5
10F1
  8
C4
 10
854.38133009568321
 20
54.648955606815889
 30
0.0
 40
1.8999999999999999
 50
270.0
 51
326.96086318505871
  0
ARC
  5
10F2
  8
C4
 10
856.88133009568332
 20
68.848955606815906
 30
0.0
 40
0.85
 50
270.0
 51
326.96086318505741
  0
LINE
  5
10F3
  8
C4
 10
857.78856323493596
 20
68.684857980259238
 30
0.0
 11
857.59388369128078
 21
68.385525597643891
 31
0.0
  0
ARC
  5
10F4
  8
C4
 10
859.38133009568332
 20
67.648955606815889
 30
0.0
 40
1.8999999999999999
 50
90.0
 51
146.96086318505871
  0
ARC
  5
10F5
  8
C4
 10
856.88133009568332
 20
53.448955606815872
 30
0.0
 40
0.85
 50
33.039136814942502
 51
90.0
  0
LINE
  5
10F6
  8
C4
 10
857.78856323493596
 20
53.61305323337254
 30
0.0
 11
857.59388369128078
 21
53.912385615987887
 31
0.0
  0
ARC
  5
10F7
  8
C4
 10
859.38133009568332
 20
54.648955606815889
 30
0.0
 40
1.8999999999999999
 50
213.0391368149412
 51
270.0
  0
ARC
  5
10F8
  8
C4
 10
861.88133009568332
 20
68.848955606815906
 30
0.0
 40
0.85
 50
213.03913681494251
 51
270.0
  0
LINE
  5
10F9
  8
C4
 10
860.97409695643057
 20
68.684857980259238
 30
0.0
 11
861.16877650008576
 21
68.385525597643891
 31
0.0
  0
ARC
  5
10FA
  8
C4
 10
859.38133009568332
 20
67.648955606815889
 30
0.0
 40
1.8999999999999999
 50
33.039136814941259
 51
90.0
  0
ARC
  5
10FB
  8
C4
 10
861.88133009568332
 20
53.448955606815872
 30
0.0
 40
0.85
 50
90.0
 51
146.96086318505741
  0
LINE
  5
10FC
  8
C4
 10
860.97409695643057
 20
53.61305323337254
 30
0.0
 11
861.16877650008576
 21
53.912385615987887
 31
0.0
  0
ARC
  5
10FD
  8
C4
 10
859.38133009568332
 20
54.648955606815889
 30
0.0
 40
1.8999999999999999
 50
270.0
 51
326.96086318505871
  0
ARC
  5
10FE
  8
C4
 10
861.88133009568332
 20
68.848955606815906
 30
0.0
 40
0.85
 50
270.0
 51
326.96086318505741
  0
LINE
  5
10FF
  8
C4
 10
862.78856323493608
 20
68.684857980259238
 30
0.0
 11
862.59388369128067
 21
68.385525597643891
 31
0.0
  0
ARC
  5
1100
  8
C4
 10
864.38133009568344
 20
67.648955606815889
 30
0.0
 40
1.8999999999999999
 50
90.0
 51
146.96086318505871
  0
ARC
  5
1101
  8
C4
 10
861.88133009568332
 20
53.448955606815872
 30
0.0
 40
0.85
 50
33.039136814942502
 51
90.0
  0
LINE
  5
1102
  8
C4
 10
862.78856323493608
 20
53.61305323337254
 30
0.0
 11
862.59388369128067
 21
53.912385615987887
 31
0.0
  0
ARC
  5
1103
  8
C4
 10
864.38133009568344
 20
54.648955606815889
 30
0.0
 40
1.8999999999999999
 50
213.0391368149412
 51
270.0
  0
ARC
  5
1104
  8
C4
 10
866.88133009568321
 20
68.848955606815906
 30
0.0
 40
0.85
 50
213.03913681494251
 51
270.0
  0
LINE
  5
1105
  8
C4
 10
865.97409695643046
 20
68.684857980259238
 30
0.0
 11
866.16877650008587
 21
68.385525597643891
 31
0.0
  0
ARC
  5
1106
  8
C4
 10
864.38133009568344
 20
67.648955606815889
 30
0.0
 40
1.8999999999999999
 50
33.039136814941259
 51
90.0
  0
ARC
  5
1107
  8
C4
 10
866.88133009568321
 20
53.448955606815872
 30
0.0
 40
0.85
 50
90.0
 51
146.96086318505741
  0
LINE
  5
1108
  8
C4
 10
865.97409695643046
 20
53.61305323337254
 30
0.0
 11
866.16877650008587
 21
53.912385615987887
 31
0.0
  0
ARC
  5
1109
  8
C4
 10
864.38133009568344
 20
54.648955606815889
 30
0.0
 40
1.8999999999999999
 50
270.0
 51
326.96086318505871
  0
ARC
  5
110A
  8
C4
 10
866.88133009568321
 20
68.848955606815906
 30
0.0
 40
0.85
 50
270.0
 51
326.96086318505741
  0
LINE
  5
110B
  8
C4
 10
867.78856323493596
 20
68.684857980259238
 30
0.0
 11
867.59388369128067
 21
68.385525597643891
 31
0.0
  0
ARC
  5
110C
  8
C4
 10
869.38133009568332
 20
67.648955606815889
 30
0.0
 40
1.8999999999999999
 50
90.0
 51
146.96086318505871
  0
ARC
  5
110D
  8
C4
 10
866.88133009568321
 20
53.448955606815872
 30
0.0
 40
0.85
 50
33.039136814942502
 51
90.0
  0
LINE
  5
110E
  8
C4
 10
867.78856323493596
 20
53.61305323337254
 30
0.0
 11
867.59388369128067
 21
53.912385615987887
 31
0.0
  0
ARC
  5
110F
  8
C4
 10
869.38133009568332
 20
54.648955606815889
 30
0.0
 40
1.8999999999999999
 50
213.0391368149412
 51
270.0
  0
ARC
  5
1110
  8
C4
 10
871.88133009568332
 20
68.848955606815906
 30
0.0
 40
0.85
 50
213.03913681494251
 51
270.0
  0
LINE
  5
1111
  8
C4
 10
870.97409695643057
 20
68.684857980259238
 30
0.0
 11
871.16877650008576
 21
68.385525597643891
 31
0.0
  0
ARC
  5
1112
  8
C4
 10
869.38133009568332
 20
67.648955606815889
 30
0.0
 40
1.8999999999999999
 50
33.039136814941259
 51
90.0
  0
ARC
  5
1113
  8
C4
 10
871.88133009568332
 20
53.448955606815872
 30
0.0
 40
0.85
 50
90.0
 51
146.96086318505741
  0
LINE
  5
1114
  8
C4
 10
870.97409695643057
 20
53.61305323337254
 30
0.0
 11
871.16877650008576
 21
53.912385615987887
 31
0.0
  0
ARC
  5
1115
  8
C4
 10
869.38133009568332
 20
54.648955606815889
 30
0.0
 40
1.8999999999999999
 50
270.0
 51
326.96086318505871
  0
ARC
  5
1116
  8
C4
 10
871.88133009568332
 20
68.848955606815906
 30
0.0
 40
0.85
 50
270.0
 51
326.96086318505741
  0
LINE
  5
1117
  8
C4
 10
872.78856323493596
 20
68.684857980259238
 30
0.0
 11
872.59388369128078
 21
68.385525597643891
 31
0.0
  0
ARC
  5
1118
  8
C4
 10
874.38133009568332
 20
67.648955606815889
 30
0.0
 40
1.8999999999999999
 50
90.0
 51
146.96086318505871
  0
ARC
  5
1119
  8
C4
 10
871.88133009568332
 20
53.448955606815872
 30
0.0
 40
0.85
 50
33.039136814942502
 51
90.0
  0
LINE
  5
111A
  8
C4
 10
872.78856323493596
 20
53.61305323337254
 30
0.0
 11
872.59388369128078
 21
53.912385615987887
 31
0.0
  0
ARC
  5
111B
  8
C4
 10
874.38133009568332
 20
54.648955606815889
 30
0.0
 40
1.8999999999999999
 50
213.0391368149412
 51
270.0
  0
ARC
  5
111C
  8
C4
 10
876.88133009568344
 20
68.848955606815906
 30
0.0
 40
0.85
 50
213.03913681494251
 51
270.0
  0
LINE
  5
111D
  8
C4
 10
875.97409695643046
 20
68.684857980259238
 30
0.0
 11
876.16877650008587
 21
68.385525597643891
 31
0.0
  0
ARC
  5
111E
  8
C4
 10
874.38133009568332
 20
67.648955606815889
 30
0.0
 40
1.8999999999999999
 50
33.039136814941259
 51
90.0
  0
ARC
  5
111F
  8
C4
 10
876.88133009568344
 20
53.448955606815872
 30
0.0
 40
0.85
 50
90.0
 51
146.96086318505741
  0
LINE
  5
1120
  8
C4
 10
875.97409695643046
 20
53.61305323337254
 30
0.0
 11
876.16877650008587
 21
53.912385615987887
 31
0.0
  0
ARC
  5
1121
  8
C4
 10
874.38133009568332
 20
54.648955606815889
 30
0.0
 40
1.8999999999999999
 50
270.0
 51
326.96086318505871
  0
ARC
  5
1122
  8
C4
 10
876.88133009568344
 20
68.848955606815906
 30
0.0
 40
0.85
 50
270.0
 51
326.96086318505741
  0
LINE
  5
1123
  8
C4
 10
877.78856323493608
 20
68.684857980259238
 30
0.0
 11
877.59388369128067
 21
68.385525597643891
 31
0.0
  0
ARC
  5
1124
  8
C4
 10
879.38133009568321
 20
67.648955606815889
 30
0.0
 40
1.8999999999999999
 50
90.0
 51
146.96086318505871
  0
ARC
  5
1125
  8
C4
 10
876.88133009568344
 20
53.448955606815872
 30
0.0
 40
0.85
 50
33.039136814942502
 51
90.0
  0
LINE
  5
1126
  8
C4
 10
877.78856323493608
 20
53.61305323337254
 30
0.0
 11
877.59388369128067
 21
53.912385615987887
 31
0.0
  0
ARC
  5
1127
  8
C4
 10
879.38133009568321
 20
54.648955606815889
 30
0.0
 40
1.8999999999999999
 50
213.0391368149412
 51
270.0
  0
ARC
  5
1128
  8
C4
 10
881.88133009568332
 20
68.848955606815906
 30
0.0
 40
0.85
 50
213.03913681494251
 51
270.0
  0
LINE
  5
1129
  8
C4
 10
880.97409695643046
 20
68.684857980259238
 30
0.0
 11
881.16877650008576
 21
68.385525597643891
 31
0.0
  0
ARC
  5
112A
  8
C4
 10
879.38133009568321
 20
67.648955606815889
 30
0.0
 40
1.8999999999999999
 50
33.039136814941259
 51
90.0
  0
ARC
  5
112B
  8
C4
 10
881.88133009568332
 20
53.448955606815872
 30
0.0
 40
0.85
 50
90.0
 51
146.96086318505741
  0
LINE
  5
112C
  8
C4
 10
880.97409695643046
 20
53.61305323337254
 30
0.0
 11
881.16877650008576
 21
53.912385615987887
 31
0.0
  0
ARC
  5
112D
  8
C4
 10
879.38133009568321
 20
54.648955606815889
 30
0.0
 40
1.8999999999999999
 50
270.0
 51
326.96086318505871
  0
ARC
  5
112E
  8
C4
 10
881.88133009568332
 20
68.848955606815906
 30
0.0
 40
0.85
 50
270.0
 51
326.96086318505741
  0
LINE
  5
112F
  8
C4
 10
882.78856323493596
 20
68.684857980259238
 30
0.0
 11
882.59388369128078
 21
68.385525597643891
 31
0.0
  0
ARC
  5
1130
  8
C4
 10
884.38133009568332
 20
67.648955606815889
 30
0.0
 40
1.8999999999999999
 50
90.0
 51
146.96086318505871
  0
ARC
  5
1131
  8
C4
 10
881.88133009568332
 20
53.448955606815872
 30
0.0
 40
0.85
 50
33.039136814942502
 51
90.0
  0
LINE
  5
1132
  8
C4
 10
882.78856323493596
 20
53.61305323337254
 30
0.0
 11
882.59388369128078
 21
53.912385615987887
 31
0.0
  0
ARC
  5
1133
  8
C4
 10
884.38133009568332
 20
54.648955606815889
 30
0.0
 40
1.8999999999999999
 50
213.0391368149412
 51
270.0
  0
ARC
  5
1134
  8
C4
 10
886.88133009568332
 20
68.848955606815906
 30
0.0
 40
0.85
 50
213.03913681494251
 51
270.0
  0
LINE
  5
1135
  8
C4
 10
885.97409695643057
 20
68.684857980259238
 30
0.0
 11
886.16877650008576
 21
68.385525597643891
 31
0.0
  0
ARC
  5
1136
  8
C4
 10
884.38133009568332
 20
67.648955606815889
 30
0.0
 40
1.8999999999999999
 50
33.039136814941259
 51
90.0
  0
ARC
  5
1137
  8
C4
 10
886.88133009568332
 20
53.448955606815872
 30
0.0
 40
0.85
 50
90.0
 51
146.96086318505741
  0
LINE
  5
1138
  8
C4
 10
885.97409695643057
 20
53.61305323337254
 30
0.0
 11
886.16877650008576
 21
53.912385615987887
 31
0.0
  0
ARC
  5
1139
  8
C4
 10
884.38133009568332
 20
54.648955606815889
 30
0.0
 40
1.8999999999999999
 50
270.0
 51
326.96086318505871
  0
ARC
  5
113A
  8
C4
 10
886.88133009568332
 20
68.848955606815906
 30
0.0
 40
0.85
 50
270.0
 51
326.96086318505741
  0
LINE
  5
113B
  8
C4
 10
887.78856323493608
 20
68.684857980259238
 30
0.0
 11
887.59388369128067
 21
68.385525597643891
 31
0.0
  0
ARC
  5
113C
  8
C4
 10
889.38133009568344
 20
67.648955606815889
 30
0.0
 40
1.8999999999999999
 50
90.0
 51
146.96086318505871
  0
ARC
  5
113D
  8
C4
 10
886.88133009568332
 20
53.448955606815872
 30
0.0
 40
0.85
 50
33.039136814942502
 51
90.0
  0
LINE
  5
113E
  8
C4
 10
887.78856323493608
 20
53.61305323337254
 30
0.0
 11
887.59388369128067
 21
53.912385615987887
 31
0.0
  0
ARC
  5
113F
  8
C4
 10
889.38133009568344
 20
54.648955606815889
 30
0.0
 40
1.8999999999999999
 50
213.0391368149412
 51
270.0
  0
ARC
  5
1140
  8
C4
 10
891.88133009568321
 20
68.848955606815906
 30
0.0
 40
0.85
 50
213.03913681494251
 51
270.0
  0
LINE
  5
1141
  8
C4
 10
890.97409695643046
 20
68.684857980259238
 30
0.0
 11
891.16877650008587
 21
68.385525597643891
 31
0.0
  0
ARC
  5
1142
  8
C4
 10
889.38133009568344
 20
67.648955606815889
 30
0.0
 40
1.8999999999999999
 50
33.039136814941259
 51
90.0
  0
ARC
  5
1143
  8
C4
 10
891.88133009568321
 20
53.448955606815872
 30
0.0
 40
0.85
 50
90.0
 51
146.96086318505741
  0
LINE
  5
1144
  8
C4
 10
890.97409695643046
 20
53.61305323337254
 30
0.0
 11
891.16877650008587
 21
53.912385615987887
 31
0.0
  0
ARC
  5
1145
  8
C4
 10
889.38133009568344
 20
54.648955606815889
 30
0.0
 40
1.8999999999999999
 50
270.0
 51
326.96086318505871
  0
ARC
  5
1146
  8
C4
 10
891.88133009568321
 20
68.848955606815906
 30
0.0
 40
0.85
 50
270.0
 51
326.96086318505741
  0
LINE
  5
1147
  8
C4
 10
892.78856323493596
 20
68.684857980259238
 30
0.0
 11
892.59388369128067
 21
68.385525597643891
 31
0.0
  0
ARC
  5
1148
  8
C4
 10
894.38133009568332
 20
67.648955606815889
 30
0.0
 40
1.8999999999999999
 50
90.0
 51
146.96086318505871
  0
ARC
  5
1149
  8
C4
 10
891.88133009568321
 20
53.448955606815872
 30
0.0
 40
0.85
 50
33.039136814942502
 51
90.0
  0
LINE
  5
114A
  8
C4
 10
892.78856323493596
 20
53.61305323337254
 30
0.0
 11
892.59388369128067
 21
53.912385615987887
 31
0.0
  0
ARC
  5
114B
  8
C4
 10
894.38133009568332
 20
54.648955606815889
 30
0.0
 40
1.8999999999999999
 50
213.0391368149412
 51
270.0
  0
ARC
  5
114C
  8
C4
 10
896.88133009568332
 20
68.848955606815906
 30
0.0
 40
0.85
 50
213.03913681494251
 51
270.0
  0
LINE
  5
114D
  8
C4
 10
895.97409695643057
 20
68.684857980259238
 30
0.0
 11
896.16877650008576
 21
68.385525597643891
 31
0.0
  0
ARC
  5
114E
  8
C4
 10
894.38133009568332
 20
67.648955606815889
 30
0.0
 40
1.8999999999999999
 50
33.039136814941259
 51
90.0
  0
ARC
  5
114F
  8
C4
 10
896.88133009568332
 20
53.448955606815872
 30
0.0
 40
0.85
 50
90.0
 51
146.96086318505741
  0
LINE
  5
1150
  8
C4
 10
895.97409695643057
 20
53.61305323337254
 30
0.0
 11
896.16877650008576
 21
53.912385615987887
 31
0.0
  0
ARC
  5
1151
  8
C4
 10
894.38133009568332
 20
54.648955606815889
 30
0.0
 40
1.8999999999999999
 50
270.0
 51
326.96086318505871
  0
ARC
  5
1152
  8
C4
 10
896.88133009568332
 20
68.848955606815906
 30
0.0
 40
0.85
 50
270.0
 51
326.96086318505741
  0
LINE
  5
1153
  8
C4
 10
897.78856323493596
 20
68.684857980259238
 30
0.0
 11
897.59388369128078
 21
68.385525597643891
 31
0.0
  0
ARC
  5
1154
  8
C4
 10
899.38133009568332
 20
67.648955606815889
 30
0.0
 40
1.8999999999999999
 50
90.0
 51
146.96086318505871
  0
ARC
  5
1155
  8
C4
 10
896.88133009568332
 20
53.448955606815872
 30
0.0
 40
0.85
 50
33.039136814942502
 51
90.0
  0
LINE
  5
1156
  8
C4
 10
897.78856323493596
 20
53.61305323337254
 30
0.0
 11
897.59388369128078
 21
53.912385615987887
 31
0.0
  0
ARC
  5
1157
  8
C4
 10
899.38133009568332
 20
54.648955606815889
 30
0.0
 40
1.8999999999999999
 50
213.0391368149412
 51
270.0
  0
ARC
  5
1158
  8
C4
 10
901.88133009568344
 20
68.848955606815906
 30
0.0
 40
0.85
 50
213.03913681494251
 51
270.0
  0
LINE
  5
1159
  8
C4
 10
900.97409695643046
 20
68.684857980259238
 30
0.0
 11
901.16877650008587
 21
68.385525597643891
 31
0.0
  0
ARC
  5
115A
  8
C4
 10
899.38133009568332
 20
67.648955606815889
 30
0.0
 40
1.8999999999999999
 50
33.039136814941259
 51
90.0
  0
ARC
  5
115B
  8
C4
 10
901.88133009568344
 20
53.448955606815872
 30
0.0
 40
0.85
 50
90.0
 51
146.96086318505741
  0
LINE
  5
115C
  8
C4
 10
900.97409695643046
 20
53.61305323337254
 30
0.0
 11
901.16877650008587
 21
53.912385615987887
 31
0.0
  0
ARC
  5
115D
  8
C4
 10
899.38133009568332
 20
54.648955606815889
 30
0.0
 40
1.8999999999999999
 50
270.0
 51
326.96086318505871
  0
ARC
  5
115E
  8
C4
 10
901.88133009568344
 20
68.848955606815906
 30
0.0
 40
0.85
 50
270.0
 51
326.96086318505741
  0
LINE
  5
115F
  8
C4
 10
902.78856323493608
 20
68.684857980259238
 30
0.0
 11
902.59388369128067
 21
68.385525597643891
 31
0.0
  0
ARC
  5
1160
  8
C4
 10
904.38133009568321
 20
67.648955606815889
 30
0.0
 40
1.8999999999999999
 50
90.0
 51
146.96086318505871
  0
ARC
  5
1161
  8
C4
 10
901.88133009568344
 20
53.448955606815872
 30
0.0
 40
0.85
 50
33.039136814942502
 51
90.0
  0
LINE
  5
1162
  8
C4
 10
902.78856323493608
 20
53.61305323337254
 30
0.0
 11
902.59388369128067
 21
53.912385615987887
 31
0.0
  0
ARC
  5
1163
  8
C4
 10
904.38133009568321
 20
54.648955606815889
 30
0.0
 40
1.8999999999999999
 50
213.0391368149412
 51
270.0
  0
ARC
  5
1164
  8
C4
 10
906.88133009568332
 20
68.848955606815906
 30
0.0
 40
0.85
 50
213.03913681494251
 51
270.0
  0
LINE
  5
1165
  8
C4
 10
905.97409695643046
 20
68.684857980259238
 30
0.0
 11
906.16877650008576
 21
68.385525597643891
 31
0.0
  0
ARC
  5
1166
  8
C4
 10
904.38133009568321
 20
67.648955606815889
 30
0.0
 40
1.8999999999999999
 50
33.039136814941259
 51
90.0
  0
ARC
  5
1167
  8
C4
 10
906.88133009568332
 20
53.448955606815872
 30
0.0
 40
0.85
 50
90.0
 51
146.96086318505741
  0
LINE
  5
1168
  8
C4
 10
905.97409695643046
 20
53.61305323337254
 30
0.0
 11
906.16877650008576
 21
53.912385615987887
 31
0.0
  0
ARC
  5
1169
  8
C4
 10
904.38133009568321
 20
54.648955606815889
 30
0.0
 40
1.8999999999999999
 50
270.0
 51
326.96086318505871
  0
ARC
  5
116A
  8
C4
 10
906.88133009568332
 20
68.848955606815906
 30
0.0
 40
0.85
 50
270.0
 51
326.96086318505741
  0
LINE
  5
116B
  8
C4
 10
907.78856323493596
 20
68.684857980259238
 30
0.0
 11
907.59388369128078
 21
68.385525597643891
 31
0.0
  0
ARC
  5
116C
  8
C4
 10
909.38133009568332
 20
67.648955606815889
 30
0.0
 40
1.8999999999999999
 50
90.0
 51
146.96086318505871
  0
ARC
  5
116D
  8
C4
 10
906.88133009568332
 20
53.448955606815872
 30
0.0
 40
0.85
 50
33.039136814942502
 51
90.0
  0
LINE
  5
116E
  8
C4
 10
907.78856323493596
 20
53.61305323337254
 30
0.0
 11
907.59388369128078
 21
53.912385615987887
 31
0.0
  0
ARC
  5
116F
  8
C4
 10
909.38133009568332
 20
54.648955606815889
 30
0.0
 40
1.8999999999999999
 50
213.0391368149412
 51
270.0
  0
ARC
  5
1170
  8
C4
 10
911.88133009568332
 20
68.848955606815906
 30
0.0
 40
0.85
 50
213.03913681494251
 51
270.0
  0
LINE
  5
1171
  8
C4
 10
910.97409695643057
 20
68.684857980259238
 30
0.0
 11
911.16877650008576
 21
68.385525597643891
 31
0.0
  0
ARC
  5
1172
  8
C4
 10
909.38133009568332
 20
67.648955606815889
 30
0.0
 40
1.8999999999999999
 50
33.039136814941259
 51
90.0
  0
ARC
  5
1173
  8
C4
 10
911.88133009568332
 20
53.448955606815872
 30
0.0
 40
0.85
 50
90.0
 51
146.96086318505741
  0
LINE
  5
1174
  8
C4
 10
910.97409695643057
 20
53.61305323337254
 30
0.0
 11
911.16877650008576
 21
53.912385615987887
 31
0.0
  0
ARC
  5
1175
  8
C4
 10
909.38133009568332
 20
54.648955606815889
 30
0.0
 40
1.8999999999999999
 50
270.0
 51
326.96086318505871
  0
ARC
  5
1176
  8
C4
 10
911.88133009568332
 20
68.848955606815906
 30
0.0
 40
0.85
 50
270.0
 51
326.96086318505741
  0
LINE
  5
1177
  8
C4
 10
912.78856323493608
 20
68.684857980259238
 30
0.0
 11
912.59388369128067
 21
68.385525597643891
 31
0.0
  0
ARC
  5
1178
  8
C4
 10
914.38133009568344
 20
67.648955606815889
 30
0.0
 40
1.8999999999999999
 50
90.0
 51
146.96086318505871
  0
ARC
  5
1179
  8
C4
 10
911.88133009568332
 20
53.448955606815872
 30
0.0
 40
0.85
 50
33.039136814942502
 51
90.0
  0
LINE
  5
117A
  8
C4
 10
912.78856323493608
 20
53.61305323337254
 30
0.0
 11
912.59388369128067
 21
53.912385615987887
 31
0.0
  0
ARC
  5
117B
  8
C4
 10
914.38133009568344
 20
54.648955606815889
 30
0.0
 40
1.8999999999999999
 50
213.0391368149412
 51
270.0
  0
ARC
  5
117C
  8
C4
 10
916.88133009568321
 20
68.848955606815906
 30
0.0
 40
0.85
 50
213.03913681494251
 51
270.0
  0
LINE
  5
117D
  8
C4
 10
915.97409695643046
 20
68.684857980259238
 30
0.0
 11
916.16877650008587
 21
68.385525597643891
 31
0.0
  0
ARC
  5
117E
  8
C4
 10
914.38133009568344
 20
67.648955606815889
 30
0.0
 40
1.8999999999999999
 50
33.039136814941259
 51
90.0
  0
ARC
  5
117F
  8
C4
 10
916.88133009568321
 20
53.448955606815872
 30
0.0
 40
0.85
 50
90.0
 51
146.96086318505741
  0
LINE
  5
1180
  8
C4
 10
915.97409695643046
 20
53.61305323337254
 30
0.0
 11
916.16877650008587
 21
53.912385615987887
 31
0.0
  0
ARC
  5
1181
  8
C4
 10
914.38133009568344
 20
54.648955606815889
 30
0.0
 40
1.8999999999999999
 50
270.0
 51
326.96086318505871
  0
ARC
  5
1182
  8
C4
 10
916.88133009568321
 20
68.848955606815906
 30
0.0
 40
0.85
 50
270.0
 51
326.96086318505741
  0
LINE
  5
1183
  8
C4
 10
917.78856323493596
 20
68.684857980259238
 30
0.0
 11
917.59388369128067
 21
68.385525597643891
 31
0.0
  0
ARC
  5
1184
  8
C4
 10
919.38133009568332
 20
67.648955606815889
 30
0.0
 40
1.8999999999999999
 50
90.0
 51
146.96086318505871
  0
ARC
  5
1185
  8
C4
 10
916.88133009568321
 20
53.448955606815872
 30
0.0
 40
0.85
 50
33.039136814942502
 51
90.0
  0
LINE
  5
1186
  8
C4
 10
917.78856323493596
 20
53.61305323337254
 30
0.0
 11
917.59388369128067
 21
53.912385615987887
 31
0.0
  0
ARC
  5
1187
  8
C4
 10
919.38133009568332
 20
54.648955606815889
 30
0.0
 40
1.8999999999999999
 50
213.0391368149412
 51
270.0
  0
ARC
  5
1188
  8
C4
 10
921.88133009568332
 20
68.848955606815906
 30
0.0
 40
0.85
 50
213.03913681494251
 51
270.0
  0
LINE
  5
1189
  8
C4
 10
920.97409695643057
 20
68.684857980259238
 30
0.0
 11
921.16877650008576
 21
68.385525597643891
 31
0.0
  0
ARC
  5
118A
  8
C4
 10
919.38133009568332
 20
67.648955606815889
 30
0.0
 40
1.8999999999999999
 50
33.039136814941259
 51
90.0
  0
ARC
  5
118B
  8
C4
 10
921.88133009568332
 20
53.448955606815872
 30
0.0
 40
0.85
 50
90.0
 51
146.96086318505741
  0
LINE
  5
118C
  8
C4
 10
920.97409695643057
 20
53.61305323337254
 30
0.0
 11
921.16877650008576
 21
53.912385615987887
 31
0.0
  0
ARC
  5
118D
  8
C4
 10
919.38133009568332
 20
54.648955606815889
 30
0.0
 40
1.8999999999999999
 50
270.0
 51
326.96086318505871
  0
ARC
  5
118E
  8
C4
 10
921.88133009568332
 20
68.848955606815906
 30
0.0
 40
0.85
 50
270.0
 51
326.96086318505741
  0
LINE
  5
118F
  8
C4
 10
922.78856323493596
 20
68.684857980259238
 30
0.0
 11
922.59388369128078
 21
68.385525597643891
 31
0.0
  0
ARC
  5
1190
  8
C4
 10
924.38133009568332
 20
67.648955606815889
 30
0.0
 40
1.8999999999999999
 50
90.0
 51
146.96086318505871
  0
ARC
  5
1191
  8
C4
 10
921.88133009568332
 20
53.448955606815872
 30
0.0
 40
0.85
 50
33.039136814942502
 51
90.0
  0
LINE
  5
1192
  8
C4
 10
922.78856323493596
 20
53.61305323337254
 30
0.0
 11
922.59388369128078
 21
53.912385615987887
 31
0.0
  0
ARC
  5
1193
  8
C4
 10
924.38133009568332
 20
54.648955606815889
 30
0.0
 40
1.8999999999999999
 50
213.0391368149412
 51
270.0
  0
ARC
  5
1194
  8
C4
 10
926.88133009568344
 20
68.848955606815906
 30
0.0
 40
0.85
 50
213.03913681494251
 51
270.0
  0
LINE
  5
1195
  8
C4
 10
925.97409695643046
 20
68.684857980259238
 30
0.0
 11
926.16877650008587
 21
68.385525597643891
 31
0.0
  0
ARC
  5
1196
  8
C4
 10
924.38133009568332
 20
67.648955606815889
 30
0.0
 40
1.8999999999999999
 50
33.039136814941259
 51
90.0
  0
ARC
  5
1197
  8
C4
 10
926.88133009568344
 20
53.448955606815872
 30
0.0
 40
0.85
 50
90.0
 51
146.96086318505741
  0
LINE
  5
1198
  8
C4
 10
925.97409695643046
 20
53.61305323337254
 30
0.0
 11
926.16877650008587
 21
53.912385615987887
 31
0.0
  0
ARC
  5
1199
  8
C4
 10
924.38133009568332
 20
54.648955606815889
 30
0.0
 40
1.8999999999999999
 50
270.0
 51
326.96086318505871
  0
ARC
  5
119A
  8
C4
 10
926.88133009568344
 20
68.848955606815906
 30
0.0
 40
0.85
 50
270.0
 51
326.96086318505741
  0
LINE
  5
119B
  8
C4
 10
927.78856323493608
 20
68.684857980259238
 30
0.0
 11
927.59388369128067
 21
68.385525597643891
 31
0.0
  0
ARC
  5
119C
  8
C4
 10
929.38133009568321
 20
67.648955606815889
 30
0.0
 40
1.8999999999999999
 50
90.0
 51
146.96086318505871
  0
ARC
  5
119D
  8
C4
 10
926.88133009568344
 20
53.448955606815872
 30
0.0
 40
0.85
 50
33.039136814942502
 51
90.0
  0
LINE
  5
119E
  8
C4
 10
927.78856323493608
 20
53.61305323337254
 30
0.0
 11
927.59388369128067
 21
53.912385615987887
 31
0.0
  0
ARC
  5
119F
  8
C4
 10
929.38133009568321
 20
54.648955606815889
 30
0.0
 40
1.8999999999999999
 50
213.0391368149412
 51
270.0
  0
ARC
  5
11A0
  8
C4
 10
931.88133009568332
 20
68.848955606815906
 30
0.0
 40
0.85
 50
213.03913681494251
 51
270.0
  0
LINE
  5
11A1
  8
C4
 10
930.97409695643046
 20
68.684857980259238
 30
0.0
 11
931.16877650008576
 21
68.385525597643891
 31
0.0
  0
ARC
  5
11A2
  8
C4
 10
929.38133009568321
 20
67.648955606815889
 30
0.0
 40
1.8999999999999999
 50
33.039136814941259
 51
90.0
  0
ARC
  5
11A3
  8
C4
 10
931.88133009568332
 20
53.448955606815872
 30
0.0
 40
0.85
 50
90.0
 51
146.96086318505741
  0
LINE
  5
11A4
  8
C4
 10
930.97409695643046
 20
53.61305323337254
 30
0.0
 11
931.16877650008576
 21
53.912385615987887
 31
0.0
  0
ARC
  5
11A5
  8
C4
 10
929.38133009568321
 20
54.648955606815889
 30
0.0
 40
1.8999999999999999
 50
270.0
 51
326.96086318505871
  0
ARC
  5
11A6
  8
C4
 10
931.88133009568332
 20
68.848955606815906
 30
0.0
 40
0.85
 50
270.0
 51
326.96086318505741
  0
LINE
  5
11A7
  8
C4
 10
932.78856323493596
 20
68.684857980259238
 30
0.0
 11
932.59388369128078
 21
68.385525597643891
 31
0.0
  0
ARC
  5
11A8
  8
C4
 10
934.38133009568332
 20
67.648955606815889
 30
0.0
 40
1.8999999999999999
 50
90.0
 51
146.96086318505871
  0
ARC
  5
11A9
  8
C4
 10
931.88133009568332
 20
53.448955606815872
 30
0.0
 40
0.85
 50
33.039136814942502
 51
90.0
  0
LINE
  5
11AA
  8
C4
 10
932.78856323493596
 20
53.61305323337254
 30
0.0
 11
932.59388369128078
 21
53.912385615987887
 31
0.0
  0
ARC
  5
11AB
  8
C4
 10
934.38133009568332
 20
54.648955606815889
 30
0.0
 40
1.8999999999999999
 50
213.0391368149412
 51
270.0
  0
ARC
  5
11AC
  8
C4
 10
936.88133009568332
 20
68.848955606815906
 30
0.0
 40
0.85
 50
213.03913681494251
 51
270.0
  0
LINE
  5
11AD
  8
C4
 10
935.97409695643057
 20
68.684857980259238
 30
0.0
 11
936.16877650008576
 21
68.385525597643891
 31
0.0
  0
ARC
  5
11AE
  8
C4
 10
934.38133009568332
 20
67.648955606815889
 30
0.0
 40
1.8999999999999999
 50
33.039136814941259
 51
90.0
  0
ARC
  5
11AF
  8
C4
 10
936.88133009568332
 20
53.448955606815872
 30
0.0
 40
0.85
 50
90.0
 51
146.96086318505741
  0
LINE
  5
11B0
  8
C4
 10
935.97409695643057
 20
53.61305323337254
 30
0.0
 11
936.16877650008576
 21
53.912385615987887
 31
0.0
  0
ARC
  5
11B1
  8
C4
 10
934.38133009568332
 20
54.648955606815889
 30
0.0
 40
1.8999999999999999
 50
270.0
 51
326.96086318505871
  0
ARC
  5
11B2
  8
C4
 10
936.88133009568332
 20
68.848955606815906
 30
0.0
 40
0.85
 50
270.0
 51
326.96086318505741
  0
LINE
  5
11B3
  8
C4
 10
937.78856323493608
 20
68.684857980259238
 30
0.0
 11
937.59388369128067
 21
68.385525597643891
 31
0.0
  0
ARC
  5
11B4
  8
C4
 10
939.38133009568344
 20
67.648955606815889
 30
0.0
 40
1.8999999999999999
 50
90.0
 51
146.96086318505871
  0
ARC
  5
11B5
  8
C4
 10
936.88133009568332
 20
53.448955606815872
 30
0.0
 40
0.85
 50
33.039136814942502
 51
90.0
  0
LINE
  5
11B6
  8
C4
 10
937.78856323493608
 20
53.61305323337254
 30
0.0
 11
937.59388369128067
 21
53.912385615987887
 31
0.0
  0
ARC
  5
11B7
  8
C4
 10
939.38133009568344
 20
54.648955606815889
 30
0.0
 40
1.8999999999999999
 50
213.0391368149412
 51
270.0
  0
ARC
  5
11B8
  8
C4
 10
941.88133009568321
 20
68.848955606815906
 30
0.0
 40
0.85
 50
213.03913681494251
 51
270.0
  0
LINE
  5
11B9
  8
C4
 10
940.97409695643046
 20
68.684857980259238
 30
0.0
 11
941.16877650008587
 21
68.385525597643891
 31
0.0
  0
ARC
  5
11BA
  8
C4
 10
939.38133009568344
 20
67.648955606815889
 30
0.0
 40
1.8999999999999999
 50
33.039136814941259
 51
90.0
  0
ARC
  5
11BB
  8
C4
 10
941.88133009568321
 20
53.448955606815872
 30
0.0
 40
0.85
 50
90.0
 51
146.96086318505741
  0
LINE
  5
11BC
  8
C4
 10
940.97409695643046
 20
53.61305323337254
 30
0.0
 11
941.16877650008587
 21
53.912385615987887
 31
0.0
  0
ARC
  5
11BD
  8
C4
 10
939.38133009568344
 20
54.648955606815889
 30
0.0
 40
1.8999999999999999
 50
270.0
 51
326.96086318505871
  0
ARC
  5
11BE
  8
C4
 10
941.88133009568321
 20
68.848955606815906
 30
0.0
 40
0.85
 50
270.0
 51
326.96086318505741
  0
LINE
  5
11BF
  8
C4
 10
942.78856323493596
 20
68.684857980259238
 30
0.0
 11
942.59388369128067
 21
68.385525597643891
 31
0.0
  0
ARC
  5
11C0
  8
C4
 10
944.38133009568332
 20
67.648955606815889
 30
0.0
 40
1.8999999999999999
 50
90.0
 51
146.96086318505871
  0
ARC
  5
11C1
  8
C4
 10
941.88133009568321
 20
53.448955606815872
 30
0.0
 40
0.85
 50
33.039136814942502
 51
90.0
  0
LINE
  5
11C2
  8
C4
 10
942.78856323493596
 20
53.61305323337254
 30
0.0
 11
942.59388369128067
 21
53.912385615987887
 31
0.0
  0
ARC
  5
11C3
  8
C4
 10
944.38133009568332
 20
54.648955606815889
 30
0.0
 40
1.8999999999999999
 50
213.0391368149412
 51
270.0
  0
ARC
  5
11C4
  8
C4
 10
946.88133009568332
 20
68.848955606815906
 30
0.0
 40
0.85
 50
213.03913681494251
 51
270.0
  0
LINE
  5
11C5
  8
C4
 10
945.97409695643057
 20
68.684857980259238
 30
0.0
 11
946.16877650008576
 21
68.385525597643891
 31
0.0
  0
ARC
  5
11C6
  8
C4
 10
944.38133009568332
 20
67.648955606815889
 30
0.0
 40
1.8999999999999999
 50
33.039136814941259
 51
90.0
  0
ARC
  5
11C7
  8
C4
 10
946.88133009568332
 20
53.448955606815872
 30
0.0
 40
0.85
 50
90.0
 51
146.96086318505741
  0
LINE
  5
11C8
  8
C4
 10
945.97409695643057
 20
53.61305323337254
 30
0.0
 11
946.16877650008576
 21
53.912385615987887
 31
0.0
  0
ARC
  5
11C9
  8
C4
 10
944.38133009568332
 20
54.648955606815889
 30
0.0
 40
1.8999999999999999
 50
270.0
 51
326.96086318505871
  0
ARC
  5
11CA
  8
C4
 10
946.88133009568332
 20
68.848955606815906
 30
0.0
 40
0.85
 50
270.0
 51
326.96086318505741
  0
LINE
  5
11CB
  8
C4
 10
947.78856323493596
 20
68.684857980259238
 30
0.0
 11
947.59388369128078
 21
68.385525597643891
 31
0.0
  0
ARC
  5
11CC
  8
C4
 10
949.38133009568332
 20
67.648955606815889
 30
0.0
 40
1.8999999999999999
 50
90.0
 51
146.96086318505871
  0
ARC
  5
11CD
  8
C4
 10
946.88133009568332
 20
53.448955606815872
 30
0.0
 40
0.85
 50
33.039136814942502
 51
90.0
  0
LINE
  5
11CE
  8
C4
 10
947.78856323493596
 20
53.61305323337254
 30
0.0
 11
947.59388369128078
 21
53.912385615987887
 31
0.0
  0
ARC
  5
11CF
  8
C4
 10
949.38133009568332
 20
54.648955606815889
 30
0.0
 40
1.8999999999999999
 50
213.0391368149412
 51
270.0
  0
ARC
  5
11D0
  8
C4
 10
951.88133009568344
 20
68.848955606815906
 30
0.0
 40
0.85
 50
213.03913681494251
 51
270.0
  0
LINE
  5
11D1
  8
C4
 10
950.97409695643046
 20
68.684857980259238
 30
0.0
 11
951.16877650008587
 21
68.385525597643891
 31
0.0
  0
ARC
  5
11D2
  8
C4
 10
949.38133009568332
 20
67.648955606815889
 30
0.0
 40
1.8999999999999999
 50
33.039136814941259
 51
90.0
  0
ARC
  5
11D3
  8
C4
 10
951.88133009568344
 20
53.448955606815872
 30
0.0
 40
0.85
 50
90.0
 51
146.96086318505741
  0
LINE
  5
11D4
  8
C4
 10
950.97409695643046
 20
53.61305323337254
 30
0.0
 11
951.16877650008587
 21
53.912385615987887
 31
0.0
  0
ARC
  5
11D5
  8
C4
 10
949.38133009568332
 20
54.648955606815889
 30
0.0
 40
1.8999999999999999
 50
270.0
 51
326.96086318505871
  0
ARC
  5
11D6
  8
C4
 10
951.88133009568344
 20
68.848955606815906
 30
0.0
 40
0.85
 50
270.0
 51
326.96086318505741
  0
LINE
  5
11D7
  8
C4
 10
952.78856323493608
 20
68.684857980259238
 30
0.0
 11
952.59388369128067
 21
68.385525597643891
 31
0.0
  0
ARC
  5
11D8
  8
C4
 10
954.38133009568321
 20
67.648955606815889
 30
0.0
 40
1.8999999999999999
 50
90.0
 51
146.96086318505871
  0
ARC
  5
11D9
  8
C4
 10
951.88133009568344
 20
53.448955606815872
 30
0.0
 40
0.85
 50
33.039136814942502
 51
90.0
  0
LINE
  5
11DA
  8
C4
 10
952.78856323493608
 20
53.61305323337254
 30
0.0
 11
952.59388369128067
 21
53.912385615987887
 31
0.0
  0
ARC
  5
11DB
  8
C4
 10
954.38133009568321
 20
54.648955606815889
 30
0.0
 40
1.8999999999999999
 50
213.0391368149412
 51
270.0
  0
ARC
  5
11DC
  8
C4
 10
956.88133009568332
 20
68.848955606815906
 30
0.0
 40
0.85
 50
213.03913681494251
 51
270.0
  0
LINE
  5
11DD
  8
C4
 10
955.97409695643046
 20
68.684857980259238
 30
0.0
 11
956.16877650008576
 21
68.385525597643891
 31
0.0
  0
ARC
  5
11DE
  8
C4
 10
954.38133009568321
 20
67.648955606815889
 30
0.0
 40
1.8999999999999999
 50
33.039136814941259
 51
90.0
  0
ARC
  5
11DF
  8
C4
 10
956.88133009568332
 20
53.448955606815872
 30
0.0
 40
0.85
 50
90.0
 51
146.96086318505741
  0
LINE
  5
11E0
  8
C4
 10
955.97409695643046
 20
53.61305323337254
 30
0.0
 11
956.16877650008576
 21
53.912385615987887
 31
0.0
  0
ARC
  5
11E1
  8
C4
 10
954.38133009568321
 20
54.648955606815889
 30
0.0
 40
1.8999999999999999
 50
270.0
 51
326.96086318505871
  0
ARC
  5
11E2
  8
C4
 10
956.88133009568332
 20
68.848955606815906
 30
0.0
 40
0.85
 50
270.0
 51
326.96086318505741
  0
LINE
  5
11E3
  8
C4
 10
957.78856323493596
 20
68.684857980259238
 30
0.0
 11
957.59388369128078
 21
68.385525597643891
 31
0.0
  0
ARC
  5
11E4
  8
C4
 10
959.38133009568332
 20
67.648955606815889
 30
0.0
 40
1.8999999999999999
 50
90.0
 51
146.96086318505871
  0
ARC
  5
11E5
  8
C4
 10
956.88133009568332
 20
53.448955606815872
 30
0.0
 40
0.85
 50
33.039136814942502
 51
90.0
  0
LINE
  5
11E6
  8
C4
 10
957.78856323493596
 20
53.61305323337254
 30
0.0
 11
957.59388369128078
 21
53.912385615987887
 31
0.0
  0
ARC
  5
11E7
  8
C4
 10
959.38133009568332
 20
54.648955606815889
 30
0.0
 40
1.8999999999999999
 50
213.0391368149412
 51
270.0
  0
ARC
  5
11E8
  8
C4
 10
961.88133009568332
 20
68.848955606815906
 30
0.0
 40
0.85
 50
213.03913681494251
 51
270.0
  0
LINE
  5
11E9
  8
C4
 10
960.97409695643057
 20
68.684857980259238
 30
0.0
 11
961.16877650008576
 21
68.385525597643891
 31
0.0
  0
ARC
  5
11EA
  8
C4
 10
959.38133009568332
 20
67.648955606815889
 30
0.0
 40
1.8999999999999999
 50
33.039136814941259
 51
90.0
  0
ARC
  5
11EB
  8
C4
 10
961.88133009568332
 20
53.448955606815872
 30
0.0
 40
0.85
 50
90.0
 51
146.96086318505741
  0
LINE
  5
11EC
  8
C4
 10
960.97409695643057
 20
53.61305323337254
 30
0.0
 11
961.16877650008576
 21
53.912385615987887
 31
0.0
  0
ARC
  5
11ED
  8
C4
 10
959.38133009568332
 20
54.648955606815889
 30
0.0
 40
1.8999999999999999
 50
270.0
 51
326.96086318505871
  0
ARC
  5
11EE
  8
C4
 10
961.88133009568332
 20
68.848955606815906
 30
0.0
 40
0.85
 50
270.0
 51
326.96086318505741
  0
LINE
  5
11EF
  8
C4
 10
962.78856323493608
 20
68.684857980259238
 30
0.0
 11
962.59388369128067
 21
68.385525597643891
 31
0.0
  0
ARC
  5
11F0
  8
C4
 10
964.38133009568344
 20
67.648955606815889
 30
0.0
 40
1.8999999999999999
 50
90.0
 51
146.96086318505871
  0
ARC
  5
11F1
  8
C4
 10
961.88133009568332
 20
53.448955606815872
 30
0.0
 40
0.85
 50
33.039136814942502
 51
90.0
  0
LINE
  5
11F2
  8
C4
 10
962.78856323493608
 20
53.61305323337254
 30
0.0
 11
962.59388369128067
 21
53.912385615987887
 31
0.0
  0
ARC
  5
11F3
  8
C4
 10
964.38133009568344
 20
54.648955606815889
 30
0.0
 40
1.8999999999999999
 50
213.0391368149412
 51
270.0
  0
ARC
  5
11F4
  8
C4
 10
966.88133009568321
 20
68.848955606815906
 30
0.0
 40
0.85
 50
213.03913681494251
 51
270.0
  0
LINE
  5
11F5
  8
C4
 10
965.97409695643046
 20
68.684857980259238
 30
0.0
 11
966.16877650008587
 21
68.385525597643891
 31
0.0
  0
ARC
  5
11F6
  8
C4
 10
964.38133009568344
 20
67.648955606815889
 30
0.0
 40
1.8999999999999999
 50
33.039136814941259
 51
90.0
  0
ARC
  5
11F7
  8
C4
 10
966.88133009568321
 20
53.448955606815872
 30
0.0
 40
0.85
 50
90.0
 51
146.96086318505741
  0
LINE
  5
11F8
  8
C4
 10
965.97409695643046
 20
53.61305323337254
 30
0.0
 11
966.16877650008587
 21
53.912385615987887
 31
0.0
  0
ARC
  5
11F9
  8
C4
 10
964.38133009568344
 20
54.648955606815889
 30
0.0
 40
1.8999999999999999
 50
270.0
 51
326.96086318505871
  0
ARC
  5
11FA
  8
C4
 10
966.88133009568321
 20
68.848955606815906
 30
0.0
 40
0.85
 50
270.0
 51
326.96086318505741
  0
LINE
  5
11FB
  8
C4
 10
967.78856323493596
 20
68.684857980259238
 30
0.0
 11
967.59388369128067
 21
68.385525597643891
 31
0.0
  0
ARC
  5
11FC
  8
C4
 10
969.38133009568332
 20
67.648955606815889
 30
0.0
 40
1.8999999999999999
 50
90.0
 51
146.96086318505871
  0
ARC
  5
11FD
  8
C4
 10
966.88133009568321
 20
53.448955606815872
 30
0.0
 40
0.85
 50
33.039136814942502
 51
90.0
  0
LINE
  5
11FE
  8
C4
 10
967.78856323493596
 20
53.61305323337254
 30
0.0
 11
967.59388369128067
 21
53.912385615987887
 31
0.0
  0
ARC
  5
11FF
  8
C4
 10
969.38133009568332
 20
54.648955606815889
 30
0.0
 40
1.8999999999999999
 50
213.0391368149412
 51
270.0
  0
ARC
  5
1200
  8
C4
 10
971.88133009568332
 20
68.848955606815906
 30
0.0
 40
0.85
 50
213.03913681494251
 51
270.0
  0
LINE
  5
1201
  8
C4
 10
970.97409695643057
 20
68.684857980259238
 30
0.0
 11
971.16877650008576
 21
68.385525597643891
 31
0.0
  0
ARC
  5
1202
  8
C4
 10
969.38133009568332
 20
67.648955606815889
 30
0.0
 40
1.8999999999999999
 50
33.039136814941259
 51
90.0
  0
ARC
  5
1203
  8
C4
 10
971.88133009568332
 20
53.448955606815872
 30
0.0
 40
0.85
 50
90.0
 51
146.96086318505741
  0
LINE
  5
1204
  8
C4
 10
970.97409695643057
 20
53.61305323337254
 30
0.0
 11
971.16877650008576
 21
53.912385615987887
 31
0.0
  0
ARC
  5
1205
  8
C4
 10
969.38133009568332
 20
54.648955606815889
 30
0.0
 40
1.8999999999999999
 50
270.0
 51
326.96086318505871
  0
ARC
  5
1206
  8
C4
 10
971.88133009568332
 20
68.848955606815906
 30
0.0
 40
0.85
 50
270.0
 51
326.96086318505741
  0
LINE
  5
1207
  8
C4
 10
972.78856323493596
 20
68.684857980259238
 30
0.0
 11
972.59388369128078
 21
68.385525597643891
 31
0.0
  0
ARC
  5
1208
  8
C4
 10
974.38133009568332
 20
67.648955606815889
 30
0.0
 40
1.8999999999999999
 50
90.0
 51
146.96086318505871
  0
ARC
  5
1209
  8
C4
 10
971.88133009568332
 20
53.448955606815872
 30
0.0
 40
0.85
 50
33.039136814942502
 51
90.0
  0
LINE
  5
120A
  8
C4
 10
972.78856323493596
 20
53.61305323337254
 30
0.0
 11
972.59388369128078
 21
53.912385615987887
 31
0.0
  0
ARC
  5
120B
  8
C4
 10
974.38133009568332
 20
54.648955606815889
 30
0.0
 40
1.8999999999999999
 50
213.0391368149412
 51
270.0
  0
ARC
  5
120C
  8
C4
 10
976.88133009568344
 20
68.848955606815906
 30
0.0
 40
0.85
 50
213.03913681494251
 51
270.0
  0
LINE
  5
120D
  8
C4
 10
975.97409695643046
 20
68.684857980259238
 30
0.0
 11
976.16877650008587
 21
68.385525597643891
 31
0.0
  0
ARC
  5
120E
  8
C4
 10
974.38133009568332
 20
67.648955606815889
 30
0.0
 40
1.8999999999999999
 50
33.039136814941259
 51
90.0
  0
ARC
  5
120F
  8
C4
 10
976.88133009568344
 20
53.448955606815872
 30
0.0
 40
0.85
 50
90.0
 51
146.96086318505741
  0
LINE
  5
1210
  8
C4
 10
975.97409695643046
 20
53.61305323337254
 30
0.0
 11
976.16877650008587
 21
53.912385615987887
 31
0.0
  0
ARC
  5
1211
  8
C4
 10
974.38133009568332
 20
54.648955606815889
 30
0.0
 40
1.8999999999999999
 50
270.0
 51
326.96086318505871
  0
ARC
  5
1212
  8
C4
 10
976.88133009568344
 20
68.848955606815906
 30
0.0
 40
0.85
 50
270.0
 51
326.96086318505741
  0
LINE
  5
1213
  8
C4
 10
977.78856323493608
 20
68.684857980259238
 30
0.0
 11
977.59388369128067
 21
68.385525597643891
 31
0.0
  0
ARC
  5
1214
  8
C4
 10
979.38133009568321
 20
67.648955606815889
 30
0.0
 40
1.8999999999999999
 50
90.0
 51
146.96086318505871
  0
ARC
  5
1215
  8
C4
 10
976.88133009568344
 20
53.448955606815872
 30
0.0
 40
0.85
 50
33.039136814942502
 51
90.0
  0
LINE
  5
1216
  8
C4
 10
977.78856323493608
 20
53.61305323337254
 30
0.0
 11
977.59388369128067
 21
53.912385615987887
 31
0.0
  0
ARC
  5
1217
  8
C4
 10
979.38133009568321
 20
54.648955606815889
 30
0.0
 40
1.8999999999999999
 50
213.0391368149412
 51
270.0
  0
ARC
  5
1218
  8
C4
 10
981.88133009568332
 20
68.848955606815906
 30
0.0
 40
0.85
 50
213.03913681494251
 51
270.0
  0
LINE
  5
1219
  8
C4
 10
980.97409695643046
 20
68.684857980259238
 30
0.0
 11
981.16877650008576
 21
68.385525597643891
 31
0.0
  0
ARC
  5
121A
  8
C4
 10
979.38133009568321
 20
67.648955606815889
 30
0.0
 40
1.8999999999999999
 50
33.039136814941259
 51
90.0
  0
ARC
  5
121B
  8
C4
 10
981.88133009568332
 20
53.448955606815872
 30
0.0
 40
0.85
 50
90.0
 51
146.96086318505741
  0
LINE
  5
121C
  8
C4
 10
980.97409695643046
 20
53.61305323337254
 30
0.0
 11
981.16877650008576
 21
53.912385615987887
 31
0.0
  0
ARC
  5
121D
  8
C4
 10
979.38133009568321
 20
54.648955606815889
 30
0.0
 40
1.8999999999999999
 50
270.0
 51
326.96086318505871
  0
ARC
  5
121E
  8
C4
 10
981.88133009568332
 20
68.848955606815906
 30
0.0
 40
0.85
 50
270.0
 51
326.96086318505741
  0
LINE
  5
121F
  8
C4
 10
982.78856323493596
 20
68.684857980259238
 30
0.0
 11
982.59388369128078
 21
68.385525597643891
 31
0.0
  0
ARC
  5
1220
  8
C4
 10
984.38133009568332
 20
67.648955606815889
 30
0.0
 40
1.8999999999999999
 50
90.0
 51
146.96086318505871
  0
ARC
  5
1221
  8
C4
 10
981.88133009568332
 20
53.448955606815872
 30
0.0
 40
0.85
 50
33.039136814942502
 51
90.0
  0
LINE
  5
1222
  8
C4
 10
982.78856323493596
 20
53.61305323337254
 30
0.0
 11
982.59388369128078
 21
53.912385615987887
 31
0.0
  0
ARC
  5
1223
  8
C4
 10
984.38133009568332
 20
54.648955606815889
 30
0.0
 40
1.8999999999999999
 50
213.0391368149412
 51
270.0
  0
ARC
  5
1224
  8
C4
 10
986.88133009568332
 20
68.848955606815906
 30
0.0
 40
0.85
 50
213.03913681494251
 51
270.0
  0
LINE
  5
1225
  8
C4
 10
985.97409695643057
 20
68.684857980259238
 30
0.0
 11
986.16877650008576
 21
68.385525597643891
 31
0.0
  0
ARC
  5
1226
  8
C4
 10
984.38133009568332
 20
67.648955606815889
 30
0.0
 40
1.8999999999999999
 50
33.039136814941259
 51
90.0
  0
ARC
  5
1227
  8
C4
 10
986.88133009568332
 20
53.448955606815872
 30
0.0
 40
0.85
 50
90.0
 51
146.96086318505741
  0
LINE
  5
1228
  8
C4
 10
985.97409695643057
 20
53.61305323337254
 30
0.0
 11
986.16877650008576
 21
53.912385615987887
 31
0.0
  0
ARC
  5
1229
  8
C4
 10
984.38133009568332
 20
54.648955606815889
 30
0.0
 40
1.8999999999999999
 50
270.0
 51
326.96086318505871
  0
ARC
  5
122A
  8
C4
 10
986.88133009568332
 20
68.848955606815906
 30
0.0
 40
0.85
 50
270.0
 51
326.96086318505741
  0
LINE
  5
122B
  8
C4
 10
987.78856323493608
 20
68.684857980259238
 30
0.0
 11
987.59388369128067
 21
68.385525597643891
 31
0.0
  0
ARC
  5
122C
  8
C4
 10
989.38133009568344
 20
67.648955606815889
 30
0.0
 40
1.8999999999999999
 50
90.0
 51
146.96086318505871
  0
ARC
  5
122D
  8
C4
 10
986.88133009568332
 20
53.448955606815872
 30
0.0
 40
0.85
 50
33.039136814942502
 51
90.0
  0
LINE
  5
122E
  8
C4
 10
987.78856323493608
 20
53.61305323337254
 30
0.0
 11
987.59388369128067
 21
53.912385615987887
 31
0.0
  0
ARC
  5
122F
  8
C4
 10
989.38133009568344
 20
54.648955606815889
 30
0.0
 40
1.8999999999999999
 50
213.0391368149412
 51
270.0
  0
ARC
  5
1230
  8
C4
 10
991.88133009568321
 20
68.848955606815906
 30
0.0
 40
0.85
 50
213.03913681494251
 51
270.0
  0
LINE
  5
1231
  8
C4
 10
990.97409695643046
 20
68.684857980259238
 30
0.0
 11
991.16877650008587
 21
68.385525597643891
 31
0.0
  0
ARC
  5
1232
  8
C4
 10
989.38133009568344
 20
67.648955606815889
 30
0.0
 40
1.8999999999999999
 50
33.039136814941259
 51
90.0
  0
ARC
  5
1233
  8
C4
 10
991.88133009568321
 20
53.448955606815872
 30
0.0
 40
0.85
 50
90.0
 51
146.96086318505741
  0
LINE
  5
1234
  8
C4
 10
990.97409695643046
 20
53.61305323337254
 30
0.0
 11
991.16877650008587
 21
53.912385615987887
 31
0.0
  0
ARC
  5
1235
  8
C4
 10
989.38133009568344
 20
54.648955606815889
 30
0.0
 40
1.8999999999999999
 50
270.0
 51
326.96086318505871
  0
ARC
  5
1236
  8
C4
 10
991.88133009568321
 20
68.848955606815906
 30
0.0
 40
0.85
 50
270.0
 51
326.96086318505741
  0
LINE
  5
1237
  8
C4
 10
992.78856323493596
 20
68.684857980259238
 30
0.0
 11
992.59388369128067
 21
68.385525597643891
 31
0.0
  0
ARC
  5
1238
  8
C4
 10
994.38133009568332
 20
67.648955606815889
 30
0.0
 40
1.8999999999999999
 50
90.0
 51
146.96086318505871
  0
ARC
  5
1239
  8
C4
 10
991.88133009568321
 20
53.448955606815872
 30
0.0
 40
0.85
 50
33.039136814942502
 51
90.0
  0
LINE
  5
123A
  8
C4
 10
992.78856323493596
 20
53.61305323337254
 30
0.0
 11
992.59388369128067
 21
53.912385615987887
 31
0.0
  0
ARC
  5
123B
  8
C4
 10
994.38133009568332
 20
54.648955606815889
 30
0.0
 40
1.8999999999999999
 50
213.0391368149412
 51
270.0
  0
ARC
  5
123C
  8
C4
 10
996.88133009568332
 20
68.848955606815906
 30
0.0
 40
0.85
 50
213.03913681494251
 51
270.0
  0
LINE
  5
123D
  8
C4
 10
995.97409695643057
 20
68.684857980259238
 30
0.0
 11
996.16877650008576
 21
68.385525597643891
 31
0.0
  0
ARC
  5
123E
  8
C4
 10
994.38133009568332
 20
67.648955606815889
 30
0.0
 40
1.8999999999999999
 50
33.039136814941259
 51
90.0
  0
ARC
  5
123F
  8
C4
 10
996.88133009568332
 20
53.448955606815872
 30
0.0
 40
0.85
 50
90.0
 51
146.96086318505741
  0
LINE
  5
1240
  8
C4
 10
995.97409695643057
 20
53.61305323337254
 30
0.0
 11
996.16877650008576
 21
53.912385615987887
 31
0.0
  0
ARC
  5
1241
  8
C4
 10
994.38133009568332
 20
54.648955606815889
 30
0.0
 40
1.8999999999999999
 50
270.0
 51
326.96086318505871
  0
ARC
  5
1242
  8
C4
 10
996.88133009568332
 20
68.848955606815906
 30
0.0
 40
0.85
 50
270.0
 51
326.96086318505741
  0
LINE
  5
1243
  8
C4
 10
997.78856323493596
 20
68.684857980259238
 30
0.0
 11
997.59388369128078
 21
68.385525597643891
 31
0.0
  0
ARC
  5
1244
  8
C4
 10
999.38133009568332
 20
67.648955606815889
 30
0.0
 40
1.8999999999999999
 50
90.0
 51
146.96086318505871
  0
ARC
  5
1245
  8
C4
 10
996.88133009568332
 20
53.448955606815872
 30
0.0
 40
0.85
 50
33.039136814942502
 51
90.0
  0
LINE
  5
1246
  8
C4
 10
997.78856323493596
 20
53.61305323337254
 30
0.0
 11
997.59388369128078
 21
53.912385615987887
 31
0.0
  0
ARC
  5
1247
  8
C4
 10
999.38133009568332
 20
54.648955606815889
 30
0.0
 40
1.8999999999999999
 50
213.0391368149412
 51
270.0
  0
ARC
  5
1248
  8
C4
 10
1001.881330095683
 20
68.848955606815906
 30
0.0
 40
0.85
 50
213.03913681494251
 51
270.0
  0
LINE
  5
1249
  8
C4
 10
1000.97409695643
 20
68.684857980259238
 30
0.0
 11
1001.168776500086
 21
68.385525597643891
 31
0.0
  0
ARC
  5
124A
  8
C4
 10
999.38133009568332
 20
67.648955606815889
 30
0.0
 40
1.8999999999999999
 50
33.039136814941259
 51
90.0
  0
ARC
  5
124B
  8
C4
 10
1001.881330095683
 20
53.448955606815872
 30
0.0
 40
0.85
 50
90.0
 51
146.96086318505741
  0
LINE
  5
124C
  8
C4
 10
1000.97409695643
 20
53.61305323337254
 30
0.0
 11
1001.168776500086
 21
53.912385615987887
 31
0.0
  0
ARC
  5
124D
  8
C4
 10
999.38133009568332
 20
54.648955606815889
 30
0.0
 40
1.8999999999999999
 50
270.0
 51
326.96086318505871
  0
ARC
  5
124E
  8
C4
 10
1001.881330095683
 20
68.848955606815906
 30
0.0
 40
0.85
 50
270.0
 51
326.96086318505741
  0
LINE
  5
124F
  8
C4
 10
1002.788563234936
 20
68.684857980259238
 30
0.0
 11
1002.59388369128
 21
68.385525597643891
 31
0.0
  0
ARC
  5
1250
  8
C4
 10
1004.381330095683
 20
67.648955606815889
 30
0.0
 40
1.8999999999999999
 50
90.0
 51
146.96086318505871
  0
ARC
  5
1251
  8
C4
 10
1001.881330095683
 20
53.448955606815872
 30
0.0
 40
0.85
 50
33.039136814942502
 51
90.0
  0
LINE
  5
1252
  8
C4
 10
1002.788563234936
 20
53.61305323337254
 30
0.0
 11
1002.59388369128
 21
53.912385615987887
 31
0.0
  0
ARC
  5
1253
  8
C4
 10
1004.381330095683
 20
54.648955606815889
 30
0.0
 40
1.8999999999999999
 50
213.0391368149412
 51
270.0
  0
ARC
  5
1254
  8
C4
 10
1006.881330095683
 20
68.848955606815906
 30
0.0
 40
0.85
 50
213.03913681494251
 51
270.0
  0
LINE
  5
1255
  8
C4
 10
1005.97409695643
 20
68.684857980259238
 30
0.0
 11
1006.168776500085
 21
68.385525597643891
 31
0.0
  0
ARC
  5
1256
  8
C4
 10
1004.381330095683
 20
67.648955606815889
 30
0.0
 40
1.8999999999999999
 50
33.039136814941259
 51
90.0
  0
ARC
  5
1257
  8
C4
 10
1006.881330095683
 20
53.448955606815872
 30
0.0
 40
0.85
 50
90.0
 51
146.96086318505741
  0
LINE
  5
1258
  8
C4
 10
1005.97409695643
 20
53.61305323337254
 30
0.0
 11
1006.168776500085
 21
53.912385615987887
 31
0.0
  0
ARC
  5
1259
  8
C4
 10
1004.381330095683
 20
54.648955606815889
 30
0.0
 40
1.8999999999999999
 50
270.0
 51
326.96086318505871
  0
ARC
  5
125A
  8
C4
 10
1006.881330095683
 20
68.848955606815906
 30
0.0
 40
0.85
 50
270.0
 51
326.96086318505741
  0
LINE
  5
125B
  8
C4
 10
1007.788563234936
 20
68.684857980259238
 30
0.0
 11
1007.59388369128
 21
68.385525597643891
 31
0.0
  0
ARC
  5
125C
  8
C4
 10
1009.381330095683
 20
67.648955606815889
 30
0.0
 40
1.8999999999999999
 50
90.0
 51
146.96086318505871
  0
ARC
  5
125D
  8
C4
 10
1006.881330095683
 20
53.448955606815872
 30
0.0
 40
0.85
 50
33.039136814942502
 51
90.0
  0
LINE
  5
125E
  8
C4
 10
1007.788563234936
 20
53.61305323337254
 30
0.0
 11
1007.59388369128
 21
53.912385615987887
 31
0.0
  0
ARC
  5
125F
  8
C4
 10
1009.381330095683
 20
54.648955606815889
 30
0.0
 40
1.8999999999999999
 50
213.0391368149412
 51
270.0
  0
ARC
  5
1260
  8
C4
 10
1011.881330095683
 20
68.848955606815906
 30
0.0
 40
0.85
 50
213.03913681494251
 51
270.0
  0
LINE
  5
1261
  8
C4
 10
1010.97409695643
 20
68.684857980259238
 30
0.0
 11
1011.168776500085
 21
68.385525597643891
 31
0.0
  0
ARC
  5
1262
  8
C4
 10
1009.381330095683
 20
67.648955606815889
 30
0.0
 40
1.8999999999999999
 50
33.039136814941259
 51
90.0
  0
ARC
  5
1263
  8
C4
 10
1011.881330095683
 20
53.448955606815872
 30
0.0
 40
0.85
 50
90.0
 51
146.96086318505741
  0
LINE
  5
1264
  8
C4
 10
1010.97409695643
 20
53.61305323337254
 30
0.0
 11
1011.168776500085
 21
53.912385615987887
 31
0.0
  0
ARC
  5
1265
  8
C4
 10
1009.381330095683
 20
54.648955606815889
 30
0.0
 40
1.8999999999999999
 50
270.0
 51
326.96086318505871
  0
ARC
  5
1266
  8
C4
 10
1011.881330095683
 20
68.848955606815906
 30
0.0
 40
0.85
 50
270.0
 51
326.96086318505741
  0
LINE
  5
1267
  8
C4
 10
1012.788563234936
 20
68.684857980259238
 30
0.0
 11
1012.59388369128
 21
68.385525597643891
 31
0.0
  0
ARC
  5
1268
  8
C4
 10
1014.381330095683
 20
67.648955606815889
 30
0.0
 40
1.8999999999999999
 50
90.0
 51
146.96086318505871
  0
ARC
  5
1269
  8
C4
 10
1011.881330095683
 20
53.448955606815872
 30
0.0
 40
0.85
 50
33.039136814942502
 51
90.0
  0
LINE
  5
126A
  8
C4
 10
1012.788563234936
 20
53.61305323337254
 30
0.0
 11
1012.59388369128
 21
53.912385615987887
 31
0.0
  0
ARC
  5
126B
  8
C4
 10
1014.381330095683
 20
54.648955606815889
 30
0.0
 40
1.8999999999999999
 50
213.0391368149412
 51
270.0
  0
ARC
  5
126C
  8
C4
 10
1016.881330095683
 20
68.848955606815906
 30
0.0
 40
0.85
 50
213.03913681494251
 51
270.0
  0
LINE
  5
126D
  8
C4
 10
1015.97409695643
 20
68.684857980259238
 30
0.0
 11
1016.168776500085
 21
68.385525597643891
 31
0.0
  0
ARC
  5
126E
  8
C4
 10
1014.381330095683
 20
67.648955606815889
 30
0.0
 40
1.8999999999999999
 50
33.039136814941259
 51
90.0
  0
ARC
  5
126F
  8
C4
 10
1016.881330095683
 20
53.448955606815872
 30
0.0
 40
0.85
 50
90.0
 51
146.96086318505741
  0
LINE
  5
1270
  8
C4
 10
1015.97409695643
 20
53.61305323337254
 30
0.0
 11
1016.168776500085
 21
53.912385615987887
 31
0.0
  0
ARC
  5
1271
  8
C4
 10
1014.381330095683
 20
54.648955606815889
 30
0.0
 40
1.8999999999999999
 50
270.0
 51
326.96086318505871
  0
ARC
  5
1272
  8
C4
 10
1016.881330095683
 20
68.848955606815906
 30
0.0
 40
0.85
 50
270.0
 51
326.96086318505741
  0
LINE
  5
1273
  8
C4
 10
1017.788563234936
 20
68.684857980259238
 30
0.0
 11
1017.59388369128
 21
68.385525597643891
 31
0.0
  0
ARC
  5
1274
  8
C4
 10
1019.381330095683
 20
67.648955606815889
 30
0.0
 40
1.8999999999999999
 50
90.0
 51
146.96086318505871
  0
ARC
  5
1275
  8
C4
 10
1016.881330095683
 20
53.448955606815872
 30
0.0
 40
0.85
 50
33.039136814942502
 51
90.0
  0
LINE
  5
1276
  8
C4
 10
1017.788563234936
 20
53.61305323337254
 30
0.0
 11
1017.59388369128
 21
53.912385615987887
 31
0.0
  0
ARC
  5
1277
  8
C4
 10
1019.381330095683
 20
54.648955606815889
 30
0.0
 40
1.8999999999999999
 50
213.0391368149412
 51
270.0
  0
ARC
  5
1278
  8
C4
 10
1021.881330095683
 20
68.848955606815906
 30
0.0
 40
0.85
 50
213.03913681494251
 51
270.0
  0
LINE
  5
1279
  8
C4
 10
1020.97409695643
 20
68.684857980259238
 30
0.0
 11
1021.168776500085
 21
68.385525597643891
 31
0.0
  0
ARC
  5
127A
  8
C4
 10
1019.381330095683
 20
67.648955606815889
 30
0.0
 40
1.8999999999999999
 50
33.039136814941259
 51
90.0
  0
ARC
  5
127B
  8
C4
 10
1021.881330095683
 20
53.448955606815872
 30
0.0
 40
0.85
 50
90.0
 51
146.96086318505741
  0
LINE
  5
127C
  8
C4
 10
1020.97409695643
 20
53.61305323337254
 30
0.0
 11
1021.168776500085
 21
53.912385615987887
 31
0.0
  0
ARC
  5
127D
  8
C4
 10
1019.381330095683
 20
54.648955606815889
 30
0.0
 40
1.8999999999999999
 50
270.0
 51
326.96086318505871
  0
ARC
  5
127E
  8
C4
 10
1021.881330095683
 20
68.848955606815906
 30
0.0
 40
0.85
 50
270.0
 51
326.96086318505741
  0
LINE
  5
127F
  8
C4
 10
1022.788563234936
 20
68.684857980259238
 30
0.0
 11
1022.59388369128
 21
68.385525597643891
 31
0.0
  0
ARC
  5
1280
  8
C4
 10
1024.3813300956831
 20
67.648955606815889
 30
0.0
 40
1.8999999999999999
 50
90.0
 51
146.96086318505871
  0
ARC
  5
1281
  8
C4
 10
1021.881330095683
 20
53.448955606815872
 30
0.0
 40
0.85
 50
33.039136814942502
 51
90.0
  0
LINE
  5
1282
  8
C4
 10
1022.788563234936
 20
53.61305323337254
 30
0.0
 11
1022.59388369128
 21
53.912385615987887
 31
0.0
  0
ARC
  5
1283
  8
C4
 10
1024.3813300956831
 20
54.648955606815889
 30
0.0
 40
1.8999999999999999
 50
213.0391368149412
 51
270.0
  0
ARC
  5
1284
  8
C4
 10
1026.8813300956831
 20
68.848955606815906
 30
0.0
 40
0.85
 50
213.03913681494251
 51
270.0
  0
LINE
  5
1285
  8
C4
 10
1025.97409695643
 20
68.684857980259238
 30
0.0
 11
1026.168776500085
 21
68.385525597643891
 31
0.0
  0
ARC
  5
1286
  8
C4
 10
1024.3813300956831
 20
67.648955606815889
 30
0.0
 40
1.8999999999999999
 50
33.039136814941259
 51
90.0
  0
ARC
  5
1287
  8
C4
 10
1026.8813300956831
 20
53.448955606815872
 30
0.0
 40
0.85
 50
90.0
 51
146.96086318505741
  0
LINE
  5
1288
  8
C4
 10
1025.97409695643
 20
53.61305323337254
 30
0.0
 11
1026.168776500085
 21
53.912385615987887
 31
0.0
  0
ARC
  5
1289
  8
C4
 10
1024.3813300956831
 20
54.648955606815889
 30
0.0
 40
1.8999999999999999
 50
270.0
 51
326.96086318505871
  0
ARC
  5
128A
  8
C4
 10
1026.8813300956831
 20
68.848955606815906
 30
0.0
 40
0.85
 50
270.0
 51
326.96086318505741
  0
LINE
  5
128B
  8
C4
 10
1027.788563234936
 20
68.684857980259238
 30
0.0
 11
1027.5938836912801
 21
68.385525597643891
 31
0.0
  0
ARC
  5
128C
  8
C4
 10
1029.3813300956831
 20
67.648955606815889
 30
0.0
 40
1.8999999999999999
 50
90.0
 51
146.96086318505871
  0
ARC
  5
128D
  8
C4
 10
1026.8813300956831
 20
53.448955606815872
 30
0.0
 40
0.85
 50
33.039136814942502
 51
90.0
  0
LINE
  5
128E
  8
C4
 10
1027.788563234936
 20
53.61305323337254
 30
0.0
 11
1027.5938836912801
 21
53.912385615987887
 31
0.0
  0
ARC
  5
128F
  8
C4
 10
1029.3813300956831
 20
54.648955606815889
 30
0.0
 40
1.8999999999999999
 50
213.0391368149412
 51
270.0
  0
ARC
  5
1290
  8
C4
 10
1031.8813300956831
 20
68.848955606815906
 30
0.0
 40
0.85
 50
213.03913681494251
 51
270.0
  0
LINE
  5
1291
  8
C4
 10
1030.97409695643
 20
68.684857980259238
 30
0.0
 11
1031.168776500085
 21
68.385525597643891
 31
0.0
  0
ARC
  5
1292
  8
C4
 10
1029.3813300956831
 20
67.648955606815889
 30
0.0
 40
1.8999999999999999
 50
33.039136814941259
 51
90.0
  0
ARC
  5
1293
  8
C4
 10
1031.8813300956831
 20
53.448955606815872
 30
0.0
 40
0.85
 50
90.0
 51
146.96086318505741
  0
LINE
  5
1294
  8
C4
 10
1030.97409695643
 20
53.61305323337254
 30
0.0
 11
1031.168776500085
 21
53.912385615987887
 31
0.0
  0
ARC
  5
1295
  8
C4
 10
1029.3813300956831
 20
54.648955606815889
 30
0.0
 40
1.8999999999999999
 50
270.0
 51
326.96086318505871
  0
ARC
  5
1296
  8
C4
 10
1031.8813300956831
 20
68.848955606815906
 30
0.0
 40
0.85
 50
270.0
 51
326.96086318505741
  0
LINE
  5
1297
  8
C4
 10
1032.788563234936
 20
68.684857980259238
 30
0.0
 11
1032.5938836912801
 21
68.385525597643891
 31
0.0
  0
ARC
  5
1298
  8
C4
 10
1034.3813300956831
 20
67.648955606815889
 30
0.0
 40
1.8999999999999999
 50
90.0
 51
146.96086318505871
  0
ARC
  5
1299
  8
C4
 10
1031.8813300956831
 20
53.448955606815872
 30
0.0
 40
0.85
 50
33.039136814942502
 51
90.0
  0
LINE
  5
129A
  8
C4
 10
1032.788563234936
 20
53.61305323337254
 30
0.0
 11
1032.5938836912801
 21
53.912385615987887
 31
0.0
  0
ARC
  5
129B
  8
C4
 10
1034.3813300956831
 20
54.648955606815889
 30
0.0
 40
1.8999999999999999
 50
213.0391368149412
 51
270.0
  0
ARC
  5
129C
  8
C4
 10
1036.8813300956831
 20
68.848955606815906
 30
0.0
 40
0.85
 50
213.03913681494251
 51
270.0
  0
LINE
  5
129D
  8
C4
 10
1035.97409695643
 20
68.684857980259238
 30
0.0
 11
1036.168776500085
 21
68.385525597643891
 31
0.0
  0
ARC
  5
129E
  8
C4
 10
1034.3813300956831
 20
67.648955606815889
 30
0.0
 40
1.8999999999999999
 50
33.039136814941259
 51
90.0
  0
ARC
  5
129F
  8
C4
 10
1036.8813300956831
 20
53.448955606815872
 30
0.0
 40
0.85
 50
90.0
 51
146.96086318505741
  0
LINE
  5
12A0
  8
C4
 10
1035.97409695643
 20
53.61305323337254
 30
0.0
 11
1036.168776500085
 21
53.912385615987887
 31
0.0
  0
ARC
  5
12A1
  8
C4
 10
1034.3813300956831
 20
54.648955606815889
 30
0.0
 40
1.8999999999999999
 50
270.0
 51
326.96086318505871
  0
ARC
  5
12A2
  8
C4
 10
1036.8813300956831
 20
68.848955606815906
 30
0.0
 40
0.85
 50
270.0
 51
326.96086318505741
  0
LINE
  5
12A3
  8
C4
 10
1037.788563234936
 20
68.684857980259238
 30
0.0
 11
1037.5938836912801
 21
68.385525597643891
 31
0.0
  0
ARC
  5
12A4
  8
C4
 10
1039.3813300956831
 20
67.648955606815889
 30
0.0
 40
1.8999999999999999
 50
90.0
 51
146.96086318505871
  0
ARC
  5
12A5
  8
C4
 10
1036.8813300956831
 20
53.448955606815872
 30
0.0
 40
0.85
 50
33.039136814942502
 51
90.0
  0
LINE
  5
12A6
  8
C4
 10
1037.788563234936
 20
53.61305323337254
 30
0.0
 11
1037.5938836912801
 21
53.912385615987887
 31
0.0
  0
ARC
  5
12A7
  8
C4
 10
1039.3813300956831
 20
54.648955606815889
 30
0.0
 40
1.8999999999999999
 50
213.0391368149412
 51
270.0
  0
ARC
  5
12A8
  8
C4
 10
1041.8813300956831
 20
68.848955606815906
 30
0.0
 40
0.85
 50
213.03913681494251
 51
270.0
  0
LINE
  5
12A9
  8
C4
 10
1040.97409695643
 20
68.684857980259238
 30
0.0
 11
1041.1687765000861
 21
68.385525597643891
 31
0.0
  0
ARC
  5
12AA
  8
C4
 10
1039.3813300956831
 20
67.648955606815889
 30
0.0
 40
1.8999999999999999
 50
33.039136814941259
 51
90.0
  0
ARC
  5
12AB
  8
C4
 10
1041.8813300956831
 20
53.448955606815872
 30
0.0
 40
0.85
 50
90.0
 51
146.96086318505741
  0
LINE
  5
12AC
  8
C4
 10
1040.97409695643
 20
53.61305323337254
 30
0.0
 11
1041.1687765000861
 21
53.912385615987887
 31
0.0
  0
ARC
  5
12AD
  8
C4
 10
1039.3813300956831
 20
54.648955606815889
 30
0.0
 40
1.8999999999999999
 50
270.0
 51
326.96086318505871
  0
ARC
  5
12AE
  8
C4
 10
1041.8813300956831
 20
68.848955606815906
 30
0.0
 40
0.85
 50
270.0
 51
326.96086318505741
  0
LINE
  5
12AF
  8
C4
 10
1042.788563234936
 20
68.684857980259238
 30
0.0
 11
1042.5938836912801
 21
68.385525597643891
 31
0.0
  0
ARC
  5
12B0
  8
C4
 10
1044.3813300956831
 20
67.648955606815889
 30
0.0
 40
1.8999999999999999
 50
90.0
 51
146.96086318505871
  0
ARC
  5
12B1
  8
C4
 10
1041.8813300956831
 20
53.448955606815872
 30
0.0
 40
0.85
 50
33.039136814942502
 51
90.0
  0
LINE
  5
12B2
  8
C4
 10
1042.788563234936
 20
53.61305323337254
 30
0.0
 11
1042.5938836912801
 21
53.912385615987887
 31
0.0
  0
ARC
  5
12B3
  8
C4
 10
1044.3813300956831
 20
54.648955606815889
 30
0.0
 40
1.8999999999999999
 50
213.0391368149412
 51
270.0
  0
ARC
  5
12B4
  8
C4
 10
1046.8813300956831
 20
68.848955606815906
 30
0.0
 40
0.85
 50
213.03913681494251
 51
270.0
  0
LINE
  5
12B5
  8
C4
 10
1045.97409695643
 20
68.684857980259238
 30
0.0
 11
1046.168776500085
 21
68.385525597643891
 31
0.0
  0
ARC
  5
12B6
  8
C4
 10
1044.3813300956831
 20
67.648955606815889
 30
0.0
 40
1.8999999999999999
 50
33.039136814941259
 51
90.0
  0
ARC
  5
12B7
  8
C4
 10
1046.8813300956831
 20
53.448955606815872
 30
0.0
 40
0.85
 50
90.0
 51
146.96086318505741
  0
LINE
  5
12B8
  8
C4
 10
1045.97409695643
 20
53.61305323337254
 30
0.0
 11
1046.168776500085
 21
53.912385615987887
 31
0.0
  0
ARC
  5
12B9
  8
C4
 10
1044.3813300956831
 20
54.648955606815889
 30
0.0
 40
1.8999999999999999
 50
270.0
 51
326.96086318505871
  0
ARC
  5
12BA
  8
C4
 10
1046.8813300956831
 20
68.848955606815906
 30
0.0
 40
0.85
 50
270.0
 51
326.96086318505741
  0
LINE
  5
12BB
  8
C4
 10
1047.788563234936
 20
68.684857980259238
 30
0.0
 11
1047.5938836912801
 21
68.385525597643891
 31
0.0
  0
ARC
  5
12BC
  8
C4
 10
1049.3813300956831
 20
67.648955606815889
 30
0.0
 40
1.8999999999999999
 50
90.0
 51
146.96086318505871
  0
ARC
  5
12BD
  8
C4
 10
1046.8813300956831
 20
53.448955606815872
 30
0.0
 40
0.85
 50
33.039136814942502
 51
90.0
  0
LINE
  5
12BE
  8
C4
 10
1047.788563234936
 20
53.61305323337254
 30
0.0
 11
1047.5938836912801
 21
53.912385615987887
 31
0.0
  0
ARC
  5
12BF
  8
C4
 10
1049.3813300956831
 20
54.648955606815889
 30
0.0
 40
1.8999999999999999
 50
213.0391368149412
 51
270.0
  0
ARC
  5
12C0
  8
C4
 10
1051.8813300956831
 20
68.848955606815906
 30
0.0
 40
0.85
 50
213.03913681494251
 51
270.0
  0
LINE
  5
12C1
  8
C4
 10
1050.97409695643
 20
68.684857980259238
 30
0.0
 11
1051.168776500085
 21
68.385525597643891
 31
0.0
  0
ARC
  5
12C2
  8
C4
 10
1049.3813300956831
 20
67.648955606815889
 30
0.0
 40
1.8999999999999999
 50
33.039136814941259
 51
90.0
  0
ARC
  5
12C3
  8
C4
 10
1051.8813300956831
 20
53.448955606815872
 30
0.0
 40
0.85
 50
90.0
 51
146.96086318505741
  0
LINE
  5
12C4
  8
C4
 10
1050.97409695643
 20
53.61305323337254
 30
0.0
 11
1051.168776500085
 21
53.912385615987887
 31
0.0
  0
ARC
  5
12C5
  8
C4
 10
1049.3813300956831
 20
54.648955606815889
 30
0.0
 40
1.8999999999999999
 50
270.0
 51
326.96086318505871
  0
ARC
  5
12C6
  8
C4
 10
1051.8813300956831
 20
68.848955606815906
 30
0.0
 40
0.85
 50
270.0
 51
326.96086318505741
  0
LINE
  5
12C7
  8
C4
 10
1052.788563234936
 20
68.684857980259238
 30
0.0
 11
1052.5938836912801
 21
68.385525597643891
 31
0.0
  0
ARC
  5
12C8
  8
C4
 10
1054.3813300956831
 20
67.648955606815889
 30
0.0
 40
1.8999999999999999
 50
90.0
 51
146.96086318505871
  0
ARC
  5
12C9
  8
C4
 10
1051.8813300956831
 20
53.448955606815872
 30
0.0
 40
0.85
 50
33.039136814942502
 51
90.0
  0
LINE
  5
12CA
  8
C4
 10
1052.788563234936
 20
53.61305323337254
 30
0.0
 11
1052.5938836912801
 21
53.912385615987887
 31
0.0
  0
ARC
  5
12CB
  8
C4
 10
1054.3813300956831
 20
54.648955606815889
 30
0.0
 40
1.8999999999999999
 50
213.0391368149412
 51
270.0
  0
ARC
  5
12CC
  8
C4
 10
1056.8813300956831
 20
68.848955606815906
 30
0.0
 40
0.85
 50
213.03913681494251
 51
270.0
  0
LINE
  5
12CD
  8
C4
 10
1055.97409695643
 20
68.684857980259238
 30
0.0
 11
1056.168776500085
 21
68.385525597643891
 31
0.0
  0
ARC
  5
12CE
  8
C4
 10
1054.3813300956831
 20
67.648955606815889
 30
0.0
 40
1.8999999999999999
 50
33.039136814941259
 51
90.0
  0
ARC
  5
12CF
  8
C4
 10
1056.8813300956831
 20
53.448955606815872
 30
0.0
 40
0.85
 50
90.0
 51
146.96086318505741
  0
LINE
  5
12D0
  8
C4
 10
1055.97409695643
 20
53.61305323337254
 30
0.0
 11
1056.168776500085
 21
53.912385615987887
 31
0.0
  0
ARC
  5
12D1
  8
C4
 10
1054.3813300956831
 20
54.648955606815889
 30
0.0
 40
1.8999999999999999
 50
270.0
 51
326.96086318505871
  0
ARC
  5
12D2
  8
C4
 10
1056.8813300956831
 20
68.848955606815906
 30
0.0
 40
0.85
 50
270.0
 51
326.96086318505741
  0
LINE
  5
12D3
  8
C4
 10
1057.788563234936
 20
68.684857980259238
 30
0.0
 11
1057.5938836912801
 21
68.385525597643891
 31
0.0
  0
ARC
  5
12D4
  8
C4
 10
1059.3813300956831
 20
67.648955606815889
 30
0.0
 40
1.8999999999999999
 50
90.0
 51
146.96086318505871
  0
ARC
  5
12D5
  8
C4
 10
1056.8813300956831
 20
53.448955606815872
 30
0.0
 40
0.85
 50
33.039136814942502
 51
90.0
  0
LINE
  5
12D6
  8
C4
 10
1057.788563234936
 20
53.61305323337254
 30
0.0
 11
1057.5938836912801
 21
53.912385615987887
 31
0.0
  0
ARC
  5
12D7
  8
C4
 10
1059.3813300956831
 20
54.648955606815889
 30
0.0
 40
1.8999999999999999
 50
213.0391368149412
 51
270.0
  0
ARC
  5
12D8
  8
C4
 10
1061.8813300956831
 20
68.848955606815906
 30
0.0
 40
0.85
 50
213.03913681494251
 51
270.0
  0
LINE
  5
12D9
  8
C4
 10
1060.97409695643
 20
68.684857980259238
 30
0.0
 11
1061.1687765000861
 21
68.385525597643891
 31
0.0
  0
ARC
  5
12DA
  8
C4
 10
1059.3813300956831
 20
67.648955606815889
 30
0.0
 40
1.8999999999999999
 50
33.039136814941259
 51
90.0
  0
ARC
  5
12DB
  8
C4
 10
1061.8813300956831
 20
53.448955606815872
 30
0.0
 40
0.85
 50
90.0
 51
146.96086318505741
  0
LINE
  5
12DC
  8
C4
 10
1060.97409695643
 20
53.61305323337254
 30
0.0
 11
1061.1687765000861
 21
53.912385615987887
 31
0.0
  0
ARC
  5
12DD
  8
C4
 10
1059.3813300956831
 20
54.648955606815889
 30
0.0
 40
1.8999999999999999
 50
270.0
 51
326.96086318505871
  0
ARC
  5
12DE
  8
C4
 10
1061.8813300956831
 20
68.848955606815906
 30
0.0
 40
0.85
 50
270.0
 51
326.96086318505741
  0
LINE
  5
12DF
  8
C4
 10
1062.788563234936
 20
68.684857980259238
 30
0.0
 11
1062.593883691281
 21
68.385525597643891
 31
0.0
  0
ARC
  5
12E0
  8
C4
 10
1064.3813300956831
 20
67.648955606815889
 30
0.0
 40
1.8999999999999999
 50
90.0
 51
146.96086318505871
  0
ARC
  5
12E1
  8
C4
 10
1061.8813300956831
 20
53.448955606815872
 30
0.0
 40
0.85
 50
33.039136814942502
 51
90.0
  0
LINE
  5
12E2
  8
C4
 10
1062.788563234936
 20
53.61305323337254
 30
0.0
 11
1062.593883691281
 21
53.912385615987887
 31
0.0
  0
ARC
  5
12E3
  8
C4
 10
1064.3813300956831
 20
54.648955606815889
 30
0.0
 40
1.8999999999999999
 50
213.0391368149412
 51
270.0
  0
ARC
  5
12E4
  8
C4
 10
1066.8813300956831
 20
68.848955606815906
 30
0.0
 40
0.85
 50
213.03913681494251
 51
270.0
  0
LINE
  5
12E5
  8
C4
 10
1065.97409695643
 20
68.684857980259238
 30
0.0
 11
1066.1687765000861
 21
68.385525597643891
 31
0.0
  0
ARC
  5
12E6
  8
C4
 10
1064.3813300956831
 20
67.648955606815889
 30
0.0
 40
1.8999999999999999
 50
33.039136814941259
 51
90.0
  0
ARC
  5
12E7
  8
C4
 10
1066.8813300956831
 20
53.448955606815872
 30
0.0
 40
0.85
 50
90.0
 51
146.96086318505741
  0
LINE
  5
12E8
  8
C4
 10
1065.97409695643
 20
53.61305323337254
 30
0.0
 11
1066.1687765000861
 21
53.912385615987887
 31
0.0
  0
ARC
  5
12E9
  8
C4
 10
1064.3813300956831
 20
54.648955606815889
 30
0.0
 40
1.8999999999999999
 50
270.0
 51
326.96086318505871
  0
ARC
  5
12EA
  8
C4
 10
1066.8813300956831
 20
68.848955606815906
 30
0.0
 40
0.85
 50
270.0
 51
326.96086318505741
  0
LINE
  5
12EB
  8
C4
 10
1067.788563234936
 20
68.684857980259238
 30
0.0
 11
1067.593883691281
 21
68.385525597643891
 31
0.0
  0
ARC
  5
12EC
  8
C4
 10
1069.3813300956831
 20
67.648955606815889
 30
0.0
 40
1.8999999999999999
 50
90.0
 51
146.96086318505871
  0
ARC
  5
12ED
  8
C4
 10
1066.8813300956831
 20
53.448955606815872
 30
0.0
 40
0.85
 50
33.039136814942502
 51
90.0
  0
LINE
  5
12EE
  8
C4
 10
1067.788563234936
 20
53.61305323337254
 30
0.0
 11
1067.593883691281
 21
53.912385615987887
 31
0.0
  0
ARC
  5
12EF
  8
C4
 10
1069.3813300956831
 20
54.648955606815889
 30
0.0
 40
1.8999999999999999
 50
213.0391368149412
 51
270.0
  0
ARC
  5
12F0
  8
C4
 10
1071.8813300956831
 20
68.848955606815906
 30
0.0
 40
0.85
 50
213.03913681494251
 51
270.0
  0
LINE
  5
12F1
  8
C4
 10
1070.97409695643
 20
68.684857980259238
 30
0.0
 11
1071.1687765000861
 21
68.385525597643891
 31
0.0
  0
ARC
  5
12F2
  8
C4
 10
1069.3813300956831
 20
67.648955606815889
 30
0.0
 40
1.8999999999999999
 50
33.039136814941259
 51
90.0
  0
ARC
  5
12F3
  8
C4
 10
1071.8813300956831
 20
53.448955606815872
 30
0.0
 40
0.85
 50
90.0
 51
146.96086318505741
  0
LINE
  5
12F4
  8
C4
 10
1070.97409695643
 20
53.61305323337254
 30
0.0
 11
1071.1687765000861
 21
53.912385615987887
 31
0.0
  0
ARC
  5
12F5
  8
C4
 10
1069.3813300956831
 20
54.648955606815889
 30
0.0
 40
1.8999999999999999
 50
270.0
 51
326.96086318505871
  0
ARC
  5
12F6
  8
C4
 10
1071.8813300956831
 20
68.848955606815906
 30
0.0
 40
0.85
 50
270.0
 51
326.96086318505741
  0
LINE
  5
12F7
  8
C4
 10
1072.788563234936
 20
68.684857980259238
 30
0.0
 11
1072.593883691281
 21
68.385525597643891
 31
0.0
  0
ARC
  5
12F8
  8
C4
 10
1074.3813300956831
 20
67.648955606815889
 30
0.0
 40
1.8999999999999999
 50
90.0
 51
146.96086318505871
  0
ARC
  5
12F9
  8
C4
 10
1071.8813300956831
 20
53.448955606815872
 30
0.0
 40
0.85
 50
33.039136814942502
 51
90.0
  0
LINE
  5
12FA
  8
C4
 10
1072.788563234936
 20
53.61305323337254
 30
0.0
 11
1072.593883691281
 21
53.912385615987887
 31
0.0
  0
ARC
  5
12FB
  8
C4
 10
1074.3813300956831
 20
54.648955606815889
 30
0.0
 40
1.8999999999999999
 50
213.0391368149412
 51
270.0
  0
ARC
  5
12FC
  8
C4
 10
1076.8813300956831
 20
68.848955606815906
 30
0.0
 40
0.85
 50
213.03913681494251
 51
270.0
  0
LINE
  5
12FD
  8
C4
 10
1075.97409695643
 20
68.684857980259238
 30
0.0
 11
1076.1687765000861
 21
68.385525597643891
 31
0.0
  0
ARC
  5
12FE
  8
C4
 10
1074.3813300956831
 20
67.648955606815889
 30
0.0
 40
1.8999999999999999
 50
33.039136814941259
 51
90.0
  0
ARC
  5
12FF
  8
C4
 10
1076.8813300956831
 20
53.448955606815872
 30
0.0
 40
0.85
 50
90.0
 51
146.96086318505741
  0
LINE
  5
1300
  8
C4
 10
1075.97409695643
 20
53.61305323337254
 30
0.0
 11
1076.1687765000861
 21
53.912385615987887
 31
0.0
  0
ARC
  5
1301
  8
C4
 10
1074.3813300956831
 20
54.648955606815889
 30
0.0
 40
1.8999999999999999
 50
270.0
 51
326.96086318505871
  0
LINE
  5
1302
  8
CENTER
 10
45.929409414649513
 20
71.602181399539973
 30
0.0
 11
45.929409414649513
 21
50.695729814091798
 31
0.0
  0
CIRCLE
  5
1303
  8
C4
 10
45.929409414649513
 20
61.148955606815882
 30
0.0
 40
8.4000000000000057
  0
CIRCLE
  5
1304
  8
C4
 10
45.929409414649513
 20
61.148955606815882
 30
0.0
 40
6.8500000000000218
  0
CIRCLE
  5
1305
  8
C4
 10
45.929409414649513
 20
61.148955606815882
 30
0.0
 40
6.5527778776347221
  0
LINE
  5
1306
  8
CENTER
 10
56.382635207373603
 20
61.148955606815882
 30
0.0
 11
35.476183621925429
 21
61.148955606815882
 31
0.0
  0
LINE
  5
1307
  8
CENTER
 10
1092.8342367051989
 20
61.148955606815882
 30
0.0
 11
68.230985856161169
 21
61.148955606815882
 31
0.0
  0
LINE
  5
1308
  8
C4
 10
1076.8813300956831
 20
67.998955606815912
 30
0.0
 11
1076.8813300956831
 21
54.298955606815859
 31
0.0
  0
ENDSEC
  0
EOF
