  0
SECTION
  2
HEADER
  9
$ACADVER
  1
AC1009
  9
$INSBASE
 10
0.0
 20
0.0
 30
0.0
  9
$EXTMIN
 10
47.380951180275929
 20
35.46321129581122
 30
0.0
  9
$EXTMAX
 10
1106.0544500395999
 20
59.000554433359071
 30
0.0
  9
$LIMMIN
 10
0.0
 20
0.0
  9
$LIMMAX
 10
420.0
 20
297.0
  9
$ORTHOMODE
 70
     0
  9
$REGENMODE
 70
     1
  9
$FILLMODE
 70
     1
  9
$QTEXTMODE
 70
     0
  9
$MIRRTEXT
 70
     1
  9
$DRAGMODE
 70
     2
  9
$LTSCALE
 40
1.0
  9
$OSMODE
 70
    37
  9
$ATTMODE
 70
     1
  9
$TEXTSIZE
 40
2.5
  9
$TRACEWID
 40
1.0
  9
$TEXTSTYLE
  7
STANDARD
  9
$CLAYER
  8
0
  9
$CELTYPE
  6
BYLAYER
  9
$CECOLOR
 62
   256
  9
$DIMSCALE
 40
1.0
  9
$DIMASZ
 40
2.5
  9
$DIMEXO
 40
0.625
  9
$DIMDLI
 40
3.75
  9
$DIMRND
 40
0.0
  9
$DIMDLE
 40
0.0
  9
$DIMEXE
 40
1.25
  9
$DIMTP
 40
0.0
  9
$DIMTM
 40
0.0
  9
$DIMTXT
 40
2.5
  9
$DIMCEN
 40
2.5
  9
$DIMTSZ
 40
0.0
  9
$DIMTOL
 70
     0
  9
$DIMLIM
 70
     0
  9
$DIMTIH
 70
     0
  9
$DIMTOH
 70
     0
  9
$DIMSE1
 70
     0
  9
$DIMSE2
 70
     0
  9
$DIMTAD
 70
     1
  9
$DIMZIN
 70
     8
  9
$DIMBLK
  1

  9
$DIMASO
 70
     1
  9
$DIMSHO
 70
     1
  9
$DIMPOST
  1

  9
$DIMAPOST
  1

  9
$DIMALT
 70
     0
  9
$DIMALTD
 70
     3
  9
$DIMALTF
 40
0.03937007874016
  9
$DIMLFAC
 40
1.0
  9
$DIMTOFL
 70
     1
  9
$DIMTVP
 40
0.0
  9
$DIMTIX
 70
     0
  9
$DIMSOXD
 70
     0
  9
$DIMSAH
 70
     0
  9
$DIMBLK1
  1

  9
$DIMBLK2
  1

  9
$DIMSTYLE
  2
ISO-25
  9
$DIMCLRD
 70
     0
  9
$DIMCLRE
 70
     0
  9
$DIMCLRT
 70
     0
  9
$DIMTFAC
 40
1.0
  9
$DIMGAP
 40
0.625
  9
$LUNITS
 70
     2
  9
$LUPREC
 70
     4
  9
$SKETCHINC
 40
1.0
  9
$FILLETRAD
 40
10.0
  9
$AUNITS
 70
     0
  9
$AUPREC
 70
     0
  9
$MENU
  1
.
  9
$ELEVATION
 40
0.0
  9
$PELEVATION
 40
0.0
  9
$THICKNESS
 40
0.0
  9
$LIMCHECK
 70
     0
  9
$BLIPMODE
 70
     0
  9
$CHAMFERA
 40
10.0
  9
$CHAMFERB
 40
10.0
  9
$SKPOLY
 70
     0
  9
$TDCREATE
 40
2452347.4424468512
  9
$TDUPDATE
 40
2452347.4427706939
  9
$TDINDWG
 40
0.0003246528
  9
$TDUSRTIMER
 40
0.0003246528
  9
$USRTIMER
 70
     1
  9
$ANGBASE
 50
0.0
  9
$ANGDIR
 70
     0
  9
$PDMODE
 70
     0
  9
$PDSIZE
 40
0.0
  9
$PLINEWID
 40
0.0
  9
$COORDS
 70
     1
  9
$SPLFRAME
 70
     0
  9
$SPLINETYPE
 70
     6
  9
$SPLINESEGS
 70
     8
  9
$ATTDIA
 70
     0
  9
$ATTREQ
 70
     1
  9
$HANDLING
 70
-16383
  9
$HANDSEED
  5
1160
  9
$SURFTAB1
 70
     6
  9
$SURFTAB2
 70
     6
  9
$SURFTYPE
 70
     6
  9
$SURFU
 70
     6
  9
$SURFV
 70
     6
  9
$UCSNAME
  2

  9
$UCSORG
 10
0.0
 20
0.0
 30
0.0
  9
$UCSXDIR
 10
1.0
 20
0.0
 30
0.0
  9
$UCSYDIR
 10
0.0
 20
1.0
 30
0.0
  9
$PUCSNAME
  2

  9
$PUCSORG
 10
0.0
 20
0.0
 30
0.0
  9
$PUCSXDIR
 10
1.0
 20
0.0
 30
0.0
  9
$PUCSYDIR
 10
0.0
 20
1.0
 30
0.0
  9
$USERI1
 70
     0
  9
$USERI2
 70
     0
  9
$USERI3
 70
     0
  9
$USERI4
 70
     0
  9
$USERI5
 70
     0
  9
$USERR1
 40
0.0
  9
$USERR2
 40
0.0
  9
$USERR3
 40
0.0
  9
$USERR4
 40
0.0
  9
$USERR5
 40
0.0
  9
$WORLDVIEW
 70
     1
  9
$SHADEDGE
 70
     3
  9
$SHADEDIF
 70
    70
  9
$TILEMODE
 70
     1
  9
$MAXACTVP
 70
    64
  9
$PLIMCHECK
 70
     0
  9
$PEXTMIN
 10
1.0000000000000000E+020
 20
1.0000000000000000E+020
 30
1.0000000000000000E+020
  9
$PEXTMAX
 10
-1.0000000000000000E+020
 20
-1.0000000000000000E+020
 30
-1.0000000000000000E+020
  9
$PLIMMIN
 10
0.0
 20
0.0
  9
$PLIMMAX
 10
420.0
 20
297.0
  9
$UNITMODE
 70
     0
  9
$VISRETAIN
 70
     1
  9
$PLINEGEN
 70
     0
  9
$PSLTSCALE
 70
     1
  0
ENDSEC
  0
SECTION
  2
TABLES
  0
TABLE
  2
VPORT
 70
     3
  0
VPORT
  2
*ACTIVE
 70
     0
 10
0.0
 20
0.0
 11
1.0
 21
1.0
 12
210.0
 22
158.75141884222469
 13
0.0
 23
0.0
 14
10.0
 24
10.0
 15
10.0
 25
10.0
 16
0.0
 26
0.0
 36
1.0
 17
0.0
 27
0.0
 37
0.0
 40
317.50283768444939
 41
1.322822822822822
 42
50.0
 43
0.0
 44
0.0
 50
0.0
 51
0.0
 71
     0
 72
   100
 73
     1
 74
     3
 75
     0
 76
     0
 77
     0
 78
     0
  0
ENDTAB
  0
TABLE
  2
LTYPE
 70
     2
  0
LTYPE
  2
CONTINUOUS
 70
     0
  3
Solid line
 72
    65
 73
     0
 40
0.0
  0
LTYPE
  2
CENTER
 70
     0
  3
____ _ ____ _ ____ _ ____ _ ____ _ ____ _ ____ 
 72
    65
 73
     4
 40
2.0
 49
1.25
 49
-0.25
 49
0.25
 49
-0.25
  0
ENDTAB
  0
TABLE
  2
LAYER
 70
     3
  0
LAYER
  2
0
 70
     0
 62
     7
  6
CONTINUOUS
  0
LAYER
  2
C4
 70
     0
 62
     3
  6
CONTINUOUS
  0
LAYER
  2
CENTER
 70
     0
 62
     1
  6
CENTER
  0
ENDTAB
  0
TABLE
  2
STYLE
 70
     2
  0
STYLE
  2
STANDARD
 70
     0
 40
0.0
 41
1.0
 50
0.0
 71
     0
 42
2.5
  3
txt
  4

  0
STYLE
  2
KANJI
 70
     0
 40
0.0
 41
1.0
 50
0.0
 71
     0
 42
3.5
  3
simplex
  4
bigfont
  0
ENDTAB
  0
TABLE
  2
VIEW
 70
     0
  0
ENDTAB
  0
TABLE
  2
UCS
 70
     0
  0
ENDTAB
  0
TABLE
  2
APPID
 70
     1
  0
APPID
  2
ACAD
 70
     0
  0
ENDTAB
  0
TABLE
  2
DIMSTYLE
 70
     2
  0
DIMSTYLE
  2
ISO-25
 70
     0
  3

  4

  5

  6

  7

 40
1.0
 41
2.5
 42
0.625
 43
3.75
 44
1.25
 45
0.0
 46
0.0
 47
0.0
 48
0.0
140
2.5
141
2.5
142
0.0
143
0.03937007874016
144
1.0
145
0.0
146
1.0
147
0.625
 71
     0
 72
     0
 73
     0
 74
     0
 75
     0
 76
     0
 77
     1
 78
     8
170
     0
171
     3
172
     1
173
     0
174
     0
175
     0
176
     0
177
     0
178
     0
  0
DIMSTYLE
  2
STANDARD
 70
     0
  3

  4

  5

  6
Y2
  7
Y2
 40
1.0
 41
1.0
 42
1.0
 43
6.0
 44
1.0
 45
0.0
 46
0.0
 47
0.0
 48
0.0
140
2.5
141
0.0
142
0.0
143
25.399999999999999
144
1.0
145
0.0
146
1.0
147
0.5
 71
     0
 72
     0
 73
     0
 74
     0
 75
     0
 76
     0
 77
     1
 78
     8
170
     0
171
     2
172
     1
173
     1
174
     0
175
     0
176
     0
177
     0
178
     0
  0
ENDTAB
  0
ENDSEC
  0
SECTION
  2
BLOCKS
  0
BLOCK
  8
0
  2
$MODEL_SPACE
 70
     0
 10
0.0
 20
0.0
 30
0.0
  3
$MODEL_SPACE
  1

  0
ENDBLK
  5
21
  8
0
  0
BLOCK
 67
     1
  8
0
  2
$PAPER_SPACE
 70
     0
 10
0.0
 20
0.0
 30
0.0
  3
$PAPER_SPACE
  1

  0
ENDBLK
  5
1D
 67
     1
  8
0
  0
BLOCK
  8
0
  2
Y2
 70
     0
 10
0.0
 20
0.0
 30
0.0
  3
Y2
  1

  0
SOLID
  5
2C
  8
0
  6
BYBLOCK
 62
     0
 10
-1.811110924292108
 20
0.485285709567151
 30
0.0
 11
-1.811110924292108
 21
-0.4852857095673784
 31
0.0
 12
-0.0000000000000568
 22
-0.0000000000000142
 32
0.0
 13
-0.0000000000000568
 23
-0.0000000000000142
 33
0.0
  0
ENDBLK
  5
2E
  8
0
  0
ENDSEC
  0
SECTION
  2
ENTITIES
  0
LINE
  5
8C9
  8
C4
 10
90.101543430083666
 20
55.08188286458514
 30
0.0
 11
90.101543430083666
 21
39.381882864585123
 31
0.0
  0
LINE
  5
8CA
  8
CENTER
 10
59.149622749049847
 20
59.000554433359071
 30
0.0
 11
59.149622749049847
 21
35.46321129581122
 31
0.0
  0
LINE
  5
8CB
  8
CENTER
 10
70.918294317823779
 20
47.231882864585153
 30
0.0
 11
47.380951180275929
 21
47.231882864585153
 31
0.0
  0
LINE
  5
8CC
  8
CENTER
 10
1106.0544500395999
 20
47.231882864585153
 30
0.0
 11
81.45119919056151
 21
47.231882864585153
 31
0.0
  0
ARC
  5
8CD
  8
C4
 10
95.601543430083666
 20
56.181882864585127
 30
0.0
 40
1.1000000000000001
 50
205.2925464374234
 51
270.0
  0
LINE
  5
8CE
  8
C4
 10
94.298164448734269
 20
56.365467262006739
 30
0.0
 11
94.606991479761405
 21
55.711918591357801
 31
0.0
  0
ARC
  5
8CF
  8
C4
 10
92.851543430083666
 20
55.681882864585162
 30
0.0
 40
1.6000000000000001
 50
25.292546437424171
 51
90.0
  0
ARC
  5
8D0
  8
C4
 10
90.101543430083666
 20
56.181882864585127
 30
0.0
 40
1.1000000000000001
 50
270.0
 51
334.70745356257578
  0
LINE
  5
8D1
  8
C4
 10
91.404922411433063
 20
56.365467262006739
 30
0.0
 11
91.096095380405913
 21
55.711918591357801
 31
0.0
  0
ARC
  5
8D2
  8
C4
 10
92.851543430083666
 20
55.681882864585162
 30
0.0
 40
1.6000000000000001
 50
90.0
 51
154.70745356257581
  0
ARC
  5
8D3
  8
C4
 10
95.601543430083666
 20
38.281882864585157
 30
0.0
 40
1.1000000000000001
 50
90.0
 51
154.70745356257649
  0
LINE
  5
8D4
  8
C4
 10
94.298164448734269
 20
38.098298467163538
 30
0.0
 11
94.606991479761405
 21
38.75184713781249
 31
0.0
  0
ARC
  5
8D5
  8
C4
 10
92.851543430083666
 20
38.781882864585093
 30
0.0
 40
1.6000000000000001
 50
270.0
 51
334.70745356257578
  0
ARC
  5
8D6
  8
C4
 10
90.101543430083666
 20
38.281882864585157
 30
0.0
 40
1.1000000000000001
 50
25.292546437424171
 51
90.0
  0
LINE
  5
8D7
  8
C4
 10
91.404922411433063
 20
38.098298467163538
 30
0.0
 11
91.096095380405913
 21
38.75184713781249
 31
0.0
  0
ARC
  5
8D8
  8
C4
 10
92.851543430083666
 20
38.781882864585093
 30
0.0
 40
1.6000000000000001
 50
205.29254643742411
 51
270.0
  0
CIRCLE
  5
8D9
  8
C4
 10
59.149622749049847
 20
47.231882864585153
 30
0.0
 40
10.050000000000001
  0
CIRCLE
  5
8DA
  8
C4
 10
59.149622749049847
 20
47.231882864585153
 30
0.0
 40
7.8499999999999988
  0
CIRCLE
  5
8DB
  8
C4
 10
59.149622749049847
 20
47.231882864585153
 30
0.0
 40
7.5499999999999989
  0
ARC
  5
8DC
  8
C4
 10
101.10154343008359
 20
56.181882864585127
 30
0.0
 40
1.1000000000000001
 50
205.2925464374234
 51
270.0
  0
LINE
  5
8DD
  8
C4
 10
99.798164448734283
 20
56.365467262006739
 30
0.0
 11
100.1069914797614
 21
55.711918591357801
 31
0.0
  0
ARC
  5
8DE
  8
C4
 10
98.351543430083666
 20
55.681882864585162
 30
0.0
 40
1.6000000000000001
 50
25.292546437424171
 51
90.0
  0
ARC
  5
8DF
  8
C4
 10
95.601543430083666
 20
56.181882864585127
 30
0.0
 40
1.1000000000000001
 50
270.0
 51
334.70745356257578
  0
LINE
  5
8E0
  8
C4
 10
96.904922411433063
 20
56.365467262006739
 30
0.0
 11
96.596095380405927
 21
55.711918591357801
 31
0.0
  0
ARC
  5
8E1
  8
C4
 10
98.351543430083666
 20
55.681882864585162
 30
0.0
 40
1.6000000000000001
 50
90.0
 51
154.70745356257581
  0
ARC
  5
8E2
  8
C4
 10
101.10154343008359
 20
38.281882864585157
 30
0.0
 40
1.1000000000000001
 50
90.0
 51
154.70745356257649
  0
LINE
  5
8E3
  8
C4
 10
99.798164448734283
 20
38.098298467163538
 30
0.0
 11
100.1069914797614
 21
38.75184713781249
 31
0.0
  0
ARC
  5
8E4
  8
C4
 10
98.351543430083666
 20
38.781882864585093
 30
0.0
 40
1.6000000000000001
 50
270.0
 51
334.70745356257578
  0
ARC
  5
8E5
  8
C4
 10
95.601543430083666
 20
38.281882864585157
 30
0.0
 40
1.1000000000000001
 50
25.292546437424171
 51
90.0
  0
LINE
  5
8E6
  8
C4
 10
96.904922411433063
 20
38.098298467163538
 30
0.0
 11
96.596095380405927
 21
38.75184713781249
 31
0.0
  0
ARC
  5
8E7
  8
C4
 10
98.351543430083666
 20
38.781882864585093
 30
0.0
 40
1.6000000000000001
 50
205.29254643742411
 51
270.0
  0
ARC
  5
8E8
  8
C4
 10
106.60154343008359
 20
56.181882864585127
 30
0.0
 40
1.1000000000000001
 50
205.2925464374234
 51
270.0
  0
LINE
  5
8E9
  8
C4
 10
105.2981644487342
 20
56.365467262006739
 30
0.0
 11
105.6069914797614
 21
55.711918591357801
 31
0.0
  0
ARC
  5
8EA
  8
C4
 10
103.85154343008359
 20
55.681882864585162
 30
0.0
 40
1.6000000000000001
 50
25.292546437424171
 51
90.0
  0
ARC
  5
8EB
  8
C4
 10
101.10154343008359
 20
56.181882864585127
 30
0.0
 40
1.1000000000000001
 50
270.0
 51
334.70745356257578
  0
LINE
  5
8EC
  8
C4
 10
102.40492241143301
 20
56.365467262006739
 30
0.0
 11
102.0960953804059
 21
55.711918591357801
 31
0.0
  0
ARC
  5
8ED
  8
C4
 10
103.85154343008359
 20
55.681882864585162
 30
0.0
 40
1.6000000000000001
 50
90.0
 51
154.70745356257581
  0
ARC
  5
8EE
  8
C4
 10
106.60154343008359
 20
38.281882864585157
 30
0.0
 40
1.1000000000000001
 50
90.0
 51
154.70745356257649
  0
LINE
  5
8EF
  8
C4
 10
105.2981644487342
 20
38.098298467163538
 30
0.0
 11
105.6069914797614
 21
38.75184713781249
 31
0.0
  0
ARC
  5
8F0
  8
C4
 10
103.85154343008359
 20
38.781882864585093
 30
0.0
 40
1.6000000000000001
 50
270.0
 51
334.70745356257578
  0
ARC
  5
8F1
  8
C4
 10
101.10154343008359
 20
38.281882864585157
 30
0.0
 40
1.1000000000000001
 50
25.292546437424171
 51
90.0
  0
LINE
  5
8F2
  8
C4
 10
102.40492241143301
 20
38.098298467163538
 30
0.0
 11
102.0960953804059
 21
38.75184713781249
 31
0.0
  0
ARC
  5
8F3
  8
C4
 10
103.85154343008359
 20
38.781882864585093
 30
0.0
 40
1.6000000000000001
 50
205.29254643742411
 51
270.0
  0
ARC
  5
8F4
  8
C4
 10
112.10154343008359
 20
56.181882864585127
 30
0.0
 40
1.1000000000000001
 50
205.2925464374234
 51
270.0
  0
LINE
  5
8F5
  8
C4
 10
110.7981644487342
 20
56.365467262006739
 30
0.0
 11
111.10699147976131
 21
55.711918591357801
 31
0.0
  0
ARC
  5
8F6
  8
C4
 10
109.35154343008359
 20
55.681882864585162
 30
0.0
 40
1.6000000000000001
 50
25.292546437424171
 51
90.0
  0
ARC
  5
8F7
  8
C4
 10
106.60154343008359
 20
56.181882864585127
 30
0.0
 40
1.1000000000000001
 50
270.0
 51
334.70745356257578
  0
LINE
  5
8F8
  8
C4
 10
107.90492241143301
 20
56.365467262006739
 30
0.0
 11
107.5960953804059
 21
55.711918591357801
 31
0.0
  0
ARC
  5
8F9
  8
C4
 10
109.35154343008359
 20
55.681882864585162
 30
0.0
 40
1.6000000000000001
 50
90.0
 51
154.70745356257581
  0
ARC
  5
8FA
  8
C4
 10
112.10154343008359
 20
38.281882864585157
 30
0.0
 40
1.1000000000000001
 50
90.0
 51
154.70745356257649
  0
LINE
  5
8FB
  8
C4
 10
110.7981644487342
 20
38.098298467163538
 30
0.0
 11
111.10699147976131
 21
38.75184713781249
 31
0.0
  0
ARC
  5
8FC
  8
C4
 10
109.35154343008359
 20
38.781882864585093
 30
0.0
 40
1.6000000000000001
 50
270.0
 51
334.70745356257578
  0
ARC
  5
8FD
  8
C4
 10
106.60154343008359
 20
38.281882864585157
 30
0.0
 40
1.1000000000000001
 50
25.292546437424171
 51
90.0
  0
LINE
  5
8FE
  8
C4
 10
107.90492241143301
 20
38.098298467163538
 30
0.0
 11
107.5960953804059
 21
38.75184713781249
 31
0.0
  0
ARC
  5
8FF
  8
C4
 10
109.35154343008359
 20
38.781882864585093
 30
0.0
 40
1.6000000000000001
 50
205.29254643742411
 51
270.0
  0
ARC
  5
900
  8
C4
 10
117.60154343008359
 20
56.181882864585127
 30
0.0
 40
1.1000000000000001
 50
205.2925464374234
 51
270.0
  0
LINE
  5
901
  8
C4
 10
116.2981644487342
 20
56.365467262006739
 30
0.0
 11
116.6069914797614
 21
55.711918591357801
 31
0.0
  0
ARC
  5
902
  8
C4
 10
114.85154343008359
 20
55.681882864585162
 30
0.0
 40
1.6000000000000001
 50
25.292546437424171
 51
90.0
  0
ARC
  5
903
  8
C4
 10
112.10154343008359
 20
56.181882864585127
 30
0.0
 40
1.1000000000000001
 50
270.0
 51
334.70745356257578
  0
LINE
  5
904
  8
C4
 10
113.40492241143301
 20
56.365467262006739
 30
0.0
 11
113.0960953804059
 21
55.711918591357801
 31
0.0
  0
ARC
  5
905
  8
C4
 10
114.85154343008359
 20
55.681882864585162
 30
0.0
 40
1.6000000000000001
 50
90.0
 51
154.70745356257581
  0
ARC
  5
906
  8
C4
 10
117.60154343008359
 20
38.281882864585157
 30
0.0
 40
1.1000000000000001
 50
90.0
 51
154.70745356257649
  0
LINE
  5
907
  8
C4
 10
116.2981644487342
 20
38.098298467163538
 30
0.0
 11
116.6069914797614
 21
38.75184713781249
 31
0.0
  0
ARC
  5
908
  8
C4
 10
114.85154343008359
 20
38.781882864585093
 30
0.0
 40
1.6000000000000001
 50
270.0
 51
334.70745356257578
  0
ARC
  5
909
  8
C4
 10
112.10154343008359
 20
38.281882864585157
 30
0.0
 40
1.1000000000000001
 50
25.292546437424171
 51
90.0
  0
LINE
  5
90A
  8
C4
 10
113.40492241143301
 20
38.098298467163538
 30
0.0
 11
113.0960953804059
 21
38.75184713781249
 31
0.0
  0
ARC
  5
90B
  8
C4
 10
114.85154343008359
 20
38.781882864585093
 30
0.0
 40
1.6000000000000001
 50
205.29254643742411
 51
270.0
  0
ARC
  5
90C
  8
C4
 10
123.10154343008359
 20
56.181882864585127
 30
0.0
 40
1.1000000000000001
 50
205.2925464374234
 51
270.0
  0
LINE
  5
90D
  8
C4
 10
121.7981644487342
 20
56.365467262006739
 30
0.0
 11
122.1069914797614
 21
55.711918591357801
 31
0.0
  0
ARC
  5
90E
  8
C4
 10
120.35154343008359
 20
55.681882864585162
 30
0.0
 40
1.6000000000000001
 50
25.292546437424171
 51
90.0
  0
ARC
  5
90F
  8
C4
 10
117.60154343008359
 20
56.181882864585127
 30
0.0
 40
1.1000000000000001
 50
270.0
 51
334.70745356257578
  0
LINE
  5
910
  8
C4
 10
118.90492241143301
 20
56.365467262006739
 30
0.0
 11
118.5960953804059
 21
55.711918591357801
 31
0.0
  0
ARC
  5
911
  8
C4
 10
120.35154343008359
 20
55.681882864585162
 30
0.0
 40
1.6000000000000001
 50
90.0
 51
154.70745356257581
  0
ARC
  5
912
  8
C4
 10
123.10154343008359
 20
38.281882864585157
 30
0.0
 40
1.1000000000000001
 50
90.0
 51
154.70745356257649
  0
LINE
  5
913
  8
C4
 10
121.7981644487342
 20
38.098298467163538
 30
0.0
 11
122.1069914797614
 21
38.75184713781249
 31
0.0
  0
ARC
  5
914
  8
C4
 10
120.35154343008359
 20
38.781882864585093
 30
0.0
 40
1.6000000000000001
 50
270.0
 51
334.70745356257578
  0
ARC
  5
915
  8
C4
 10
117.60154343008359
 20
38.281882864585157
 30
0.0
 40
1.1000000000000001
 50
25.292546437424171
 51
90.0
  0
LINE
  5
916
  8
C4
 10
118.90492241143301
 20
38.098298467163538
 30
0.0
 11
118.5960953804059
 21
38.75184713781249
 31
0.0
  0
ARC
  5
917
  8
C4
 10
120.35154343008359
 20
38.781882864585093
 30
0.0
 40
1.6000000000000001
 50
205.29254643742411
 51
270.0
  0
ARC
  5
918
  8
C4
 10
128.60154343008361
 20
56.181882864585127
 30
0.0
 40
1.1000000000000001
 50
205.2925464374234
 51
270.0
  0
LINE
  5
919
  8
C4
 10
127.2981644487342
 20
56.365467262006739
 30
0.0
 11
127.6069914797614
 21
55.711918591357801
 31
0.0
  0
ARC
  5
91A
  8
C4
 10
125.85154343008359
 20
55.681882864585162
 30
0.0
 40
1.6000000000000001
 50
25.292546437424171
 51
90.0
  0
ARC
  5
91B
  8
C4
 10
123.10154343008359
 20
56.181882864585127
 30
0.0
 40
1.1000000000000001
 50
270.0
 51
334.70745356257578
  0
LINE
  5
91C
  8
C4
 10
124.40492241143301
 20
56.365467262006739
 30
0.0
 11
124.0960953804059
 21
55.711918591357801
 31
0.0
  0
ARC
  5
91D
  8
C4
 10
125.85154343008359
 20
55.681882864585162
 30
0.0
 40
1.6000000000000001
 50
90.0
 51
154.70745356257581
  0
ARC
  5
91E
  8
C4
 10
128.60154343008361
 20
38.281882864585157
 30
0.0
 40
1.1000000000000001
 50
90.0
 51
154.70745356257649
  0
LINE
  5
91F
  8
C4
 10
127.2981644487342
 20
38.098298467163538
 30
0.0
 11
127.6069914797614
 21
38.75184713781249
 31
0.0
  0
ARC
  5
920
  8
C4
 10
125.85154343008359
 20
38.781882864585093
 30
0.0
 40
1.6000000000000001
 50
270.0
 51
334.70745356257578
  0
ARC
  5
921
  8
C4
 10
123.10154343008359
 20
38.281882864585157
 30
0.0
 40
1.1000000000000001
 50
25.292546437424171
 51
90.0
  0
LINE
  5
922
  8
C4
 10
124.40492241143301
 20
38.098298467163538
 30
0.0
 11
124.0960953804059
 21
38.75184713781249
 31
0.0
  0
ARC
  5
923
  8
C4
 10
125.85154343008359
 20
38.781882864585093
 30
0.0
 40
1.6000000000000001
 50
205.29254643742411
 51
270.0
  0
ARC
  5
924
  8
C4
 10
134.10154343008361
 20
56.181882864585127
 30
0.0
 40
1.1000000000000001
 50
205.2925464374234
 51
270.0
  0
LINE
  5
925
  8
C4
 10
132.79816444873421
 20
56.365467262006739
 30
0.0
 11
133.1069914797614
 21
55.711918591357801
 31
0.0
  0
ARC
  5
926
  8
C4
 10
131.35154343008361
 20
55.681882864585162
 30
0.0
 40
1.6000000000000001
 50
25.292546437424171
 51
90.0
  0
ARC
  5
927
  8
C4
 10
128.60154343008361
 20
56.181882864585127
 30
0.0
 40
1.1000000000000001
 50
270.0
 51
334.70745356257578
  0
LINE
  5
928
  8
C4
 10
129.90492241143301
 20
56.365467262006739
 30
0.0
 11
129.5960953804059
 21
55.711918591357801
 31
0.0
  0
ARC
  5
929
  8
C4
 10
131.35154343008361
 20
55.681882864585162
 30
0.0
 40
1.6000000000000001
 50
90.0
 51
154.70745356257581
  0
ARC
  5
92A
  8
C4
 10
134.10154343008361
 20
38.281882864585157
 30
0.0
 40
1.1000000000000001
 50
90.0
 51
154.70745356257649
  0
LINE
  5
92B
  8
C4
 10
132.79816444873421
 20
38.098298467163538
 30
0.0
 11
133.1069914797614
 21
38.75184713781249
 31
0.0
  0
ARC
  5
92C
  8
C4
 10
131.35154343008361
 20
38.781882864585093
 30
0.0
 40
1.6000000000000001
 50
270.0
 51
334.70745356257578
  0
ARC
  5
92D
  8
C4
 10
128.60154343008361
 20
38.281882864585157
 30
0.0
 40
1.1000000000000001
 50
25.292546437424171
 51
90.0
  0
LINE
  5
92E
  8
C4
 10
129.90492241143301
 20
38.098298467163538
 30
0.0
 11
129.5960953804059
 21
38.75184713781249
 31
0.0
  0
ARC
  5
92F
  8
C4
 10
131.35154343008361
 20
38.781882864585093
 30
0.0
 40
1.6000000000000001
 50
205.29254643742411
 51
270.0
  0
ARC
  5
930
  8
C4
 10
139.60154343008361
 20
56.181882864585127
 30
0.0
 40
1.1000000000000001
 50
205.2925464374234
 51
270.0
  0
LINE
  5
931
  8
C4
 10
138.29816444873421
 20
56.365467262006739
 30
0.0
 11
138.6069914797614
 21
55.711918591357801
 31
0.0
  0
ARC
  5
932
  8
C4
 10
136.85154343008361
 20
55.681882864585162
 30
0.0
 40
1.6000000000000001
 50
25.292546437424171
 51
90.0
  0
ARC
  5
933
  8
C4
 10
134.10154343008361
 20
56.181882864585127
 30
0.0
 40
1.1000000000000001
 50
270.0
 51
334.70745356257578
  0
LINE
  5
934
  8
C4
 10
135.40492241143301
 20
56.365467262006739
 30
0.0
 11
135.0960953804059
 21
55.711918591357801
 31
0.0
  0
ARC
  5
935
  8
C4
 10
136.85154343008361
 20
55.681882864585162
 30
0.0
 40
1.6000000000000001
 50
90.0
 51
154.70745356257581
  0
ARC
  5
936
  8
C4
 10
139.60154343008361
 20
38.281882864585157
 30
0.0
 40
1.1000000000000001
 50
90.0
 51
154.70745356257649
  0
LINE
  5
937
  8
C4
 10
138.29816444873421
 20
38.098298467163538
 30
0.0
 11
138.6069914797614
 21
38.75184713781249
 31
0.0
  0
ARC
  5
938
  8
C4
 10
136.85154343008361
 20
38.781882864585093
 30
0.0
 40
1.6000000000000001
 50
270.0
 51
334.70745356257578
  0
ARC
  5
939
  8
C4
 10
134.10154343008361
 20
38.281882864585157
 30
0.0
 40
1.1000000000000001
 50
25.292546437424171
 51
90.0
  0
LINE
  5
93A
  8
C4
 10
135.40492241143301
 20
38.098298467163538
 30
0.0
 11
135.0960953804059
 21
38.75184713781249
 31
0.0
  0
ARC
  5
93B
  8
C4
 10
136.85154343008361
 20
38.781882864585093
 30
0.0
 40
1.6000000000000001
 50
205.29254643742411
 51
270.0
  0
ARC
  5
93C
  8
C4
 10
145.10154343008361
 20
56.181882864585127
 30
0.0
 40
1.1000000000000001
 50
205.2925464374234
 51
270.0
  0
LINE
  5
93D
  8
C4
 10
143.79816444873421
 20
56.365467262006739
 30
0.0
 11
144.1069914797614
 21
55.711918591357801
 31
0.0
  0
ARC
  5
93E
  8
C4
 10
142.35154343008361
 20
55.681882864585162
 30
0.0
 40
1.6000000000000001
 50
25.292546437424171
 51
90.0
  0
ARC
  5
93F
  8
C4
 10
139.60154343008361
 20
56.181882864585127
 30
0.0
 40
1.1000000000000001
 50
270.0
 51
334.70745356257578
  0
LINE
  5
940
  8
C4
 10
140.90492241143301
 20
56.365467262006739
 30
0.0
 11
140.5960953804059
 21
55.711918591357801
 31
0.0
  0
ARC
  5
941
  8
C4
 10
142.35154343008361
 20
55.681882864585162
 30
0.0
 40
1.6000000000000001
 50
90.0
 51
154.70745356257581
  0
ARC
  5
942
  8
C4
 10
145.10154343008361
 20
38.281882864585157
 30
0.0
 40
1.1000000000000001
 50
90.0
 51
154.70745356257649
  0
LINE
  5
943
  8
C4
 10
143.79816444873421
 20
38.098298467163538
 30
0.0
 11
144.1069914797614
 21
38.75184713781249
 31
0.0
  0
ARC
  5
944
  8
C4
 10
142.35154343008361
 20
38.781882864585093
 30
0.0
 40
1.6000000000000001
 50
270.0
 51
334.70745356257578
  0
ARC
  5
945
  8
C4
 10
139.60154343008361
 20
38.281882864585157
 30
0.0
 40
1.1000000000000001
 50
25.292546437424171
 51
90.0
  0
LINE
  5
946
  8
C4
 10
140.90492241143301
 20
38.098298467163538
 30
0.0
 11
140.5960953804059
 21
38.75184713781249
 31
0.0
  0
ARC
  5
947
  8
C4
 10
142.35154343008361
 20
38.781882864585093
 30
0.0
 40
1.6000000000000001
 50
205.29254643742411
 51
270.0
  0
ARC
  5
948
  8
C4
 10
150.60154343008361
 20
56.181882864585127
 30
0.0
 40
1.1000000000000001
 50
205.2925464374234
 51
270.0
  0
LINE
  5
949
  8
C4
 10
149.29816444873421
 20
56.365467262006739
 30
0.0
 11
149.60699147976129
 21
55.711918591357801
 31
0.0
  0
ARC
  5
94A
  8
C4
 10
147.85154343008361
 20
55.681882864585162
 30
0.0
 40
1.6000000000000001
 50
25.292546437424171
 51
90.0
  0
ARC
  5
94B
  8
C4
 10
145.10154343008361
 20
56.181882864585127
 30
0.0
 40
1.1000000000000001
 50
270.0
 51
334.70745356257578
  0
LINE
  5
94C
  8
C4
 10
146.40492241143301
 20
56.365467262006739
 30
0.0
 11
146.0960953804059
 21
55.711918591357801
 31
0.0
  0
ARC
  5
94D
  8
C4
 10
147.85154343008361
 20
55.681882864585162
 30
0.0
 40
1.6000000000000001
 50
90.0
 51
154.70745356257581
  0
ARC
  5
94E
  8
C4
 10
150.60154343008361
 20
38.281882864585157
 30
0.0
 40
1.1000000000000001
 50
90.0
 51
154.70745356257649
  0
LINE
  5
94F
  8
C4
 10
149.29816444873421
 20
38.098298467163538
 30
0.0
 11
149.60699147976129
 21
38.75184713781249
 31
0.0
  0
ARC
  5
950
  8
C4
 10
147.85154343008361
 20
38.781882864585093
 30
0.0
 40
1.6000000000000001
 50
270.0
 51
334.70745356257578
  0
ARC
  5
951
  8
C4
 10
145.10154343008361
 20
38.281882864585157
 30
0.0
 40
1.1000000000000001
 50
25.292546437424171
 51
90.0
  0
LINE
  5
952
  8
C4
 10
146.40492241143301
 20
38.098298467163538
 30
0.0
 11
146.0960953804059
 21
38.75184713781249
 31
0.0
  0
ARC
  5
953
  8
C4
 10
147.85154343008361
 20
38.781882864585093
 30
0.0
 40
1.6000000000000001
 50
205.29254643742411
 51
270.0
  0
ARC
  5
954
  8
C4
 10
156.10154343008361
 20
56.181882864585127
 30
0.0
 40
1.1000000000000001
 50
205.2925464374234
 51
270.0
  0
LINE
  5
955
  8
C4
 10
154.79816444873421
 20
56.365467262006739
 30
0.0
 11
155.1069914797614
 21
55.711918591357801
 31
0.0
  0
ARC
  5
956
  8
C4
 10
153.35154343008361
 20
55.681882864585162
 30
0.0
 40
1.6000000000000001
 50
25.292546437424171
 51
90.0
  0
ARC
  5
957
  8
C4
 10
150.60154343008361
 20
56.181882864585127
 30
0.0
 40
1.1000000000000001
 50
270.0
 51
334.70745356257578
  0
LINE
  5
958
  8
C4
 10
151.90492241143301
 20
56.365467262006739
 30
0.0
 11
151.5960953804059
 21
55.711918591357801
 31
0.0
  0
ARC
  5
959
  8
C4
 10
153.35154343008361
 20
55.681882864585162
 30
0.0
 40
1.6000000000000001
 50
90.0
 51
154.70745356257581
  0
ARC
  5
95A
  8
C4
 10
156.10154343008361
 20
38.281882864585157
 30
0.0
 40
1.1000000000000001
 50
90.0
 51
154.70745356257649
  0
LINE
  5
95B
  8
C4
 10
154.79816444873421
 20
38.098298467163538
 30
0.0
 11
155.1069914797614
 21
38.75184713781249
 31
0.0
  0
ARC
  5
95C
  8
C4
 10
153.35154343008361
 20
38.781882864585093
 30
0.0
 40
1.6000000000000001
 50
270.0
 51
334.70745356257578
  0
ARC
  5
95D
  8
C4
 10
150.60154343008361
 20
38.281882864585157
 30
0.0
 40
1.1000000000000001
 50
25.292546437424171
 51
90.0
  0
LINE
  5
95E
  8
C4
 10
151.90492241143301
 20
38.098298467163538
 30
0.0
 11
151.5960953804059
 21
38.75184713781249
 31
0.0
  0
ARC
  5
95F
  8
C4
 10
153.35154343008361
 20
38.781882864585093
 30
0.0
 40
1.6000000000000001
 50
205.29254643742411
 51
270.0
  0
ARC
  5
960
  8
C4
 10
161.60154343008361
 20
56.181882864585127
 30
0.0
 40
1.1000000000000001
 50
205.2925464374234
 51
270.0
  0
LINE
  5
961
  8
C4
 10
160.29816444873421
 20
56.365467262006739
 30
0.0
 11
160.6069914797614
 21
55.711918591357801
 31
0.0
  0
ARC
  5
962
  8
C4
 10
158.85154343008361
 20
55.681882864585162
 30
0.0
 40
1.6000000000000001
 50
25.292546437424171
 51
90.0
  0
ARC
  5
963
  8
C4
 10
156.10154343008361
 20
56.181882864585127
 30
0.0
 40
1.1000000000000001
 50
270.0
 51
334.70745356257578
  0
LINE
  5
964
  8
C4
 10
157.40492241143301
 20
56.365467262006739
 30
0.0
 11
157.0960953804059
 21
55.711918591357801
 31
0.0
  0
ARC
  5
965
  8
C4
 10
158.85154343008361
 20
55.681882864585162
 30
0.0
 40
1.6000000000000001
 50
90.0
 51
154.70745356257581
  0
ARC
  5
966
  8
C4
 10
161.60154343008361
 20
38.281882864585157
 30
0.0
 40
1.1000000000000001
 50
90.0
 51
154.70745356257649
  0
LINE
  5
967
  8
C4
 10
160.29816444873421
 20
38.098298467163538
 30
0.0
 11
160.6069914797614
 21
38.75184713781249
 31
0.0
  0
ARC
  5
968
  8
C4
 10
158.85154343008361
 20
38.781882864585093
 30
0.0
 40
1.6000000000000001
 50
270.0
 51
334.70745356257578
  0
ARC
  5
969
  8
C4
 10
156.10154343008361
 20
38.281882864585157
 30
0.0
 40
1.1000000000000001
 50
25.292546437424171
 51
90.0
  0
LINE
  5
96A
  8
C4
 10
157.40492241143301
 20
38.098298467163538
 30
0.0
 11
157.0960953804059
 21
38.75184713781249
 31
0.0
  0
ARC
  5
96B
  8
C4
 10
158.85154343008361
 20
38.781882864585093
 30
0.0
 40
1.6000000000000001
 50
205.29254643742411
 51
270.0
  0
ARC
  5
96C
  8
C4
 10
167.10154343008361
 20
56.181882864585127
 30
0.0
 40
1.1000000000000001
 50
205.2925464374234
 51
270.0
  0
LINE
  5
96D
  8
C4
 10
165.79816444873421
 20
56.365467262006739
 30
0.0
 11
166.1069914797614
 21
55.711918591357801
 31
0.0
  0
ARC
  5
96E
  8
C4
 10
164.35154343008361
 20
55.681882864585162
 30
0.0
 40
1.6000000000000001
 50
25.292546437424171
 51
90.0
  0
ARC
  5
96F
  8
C4
 10
161.60154343008361
 20
56.181882864585127
 30
0.0
 40
1.1000000000000001
 50
270.0
 51
334.70745356257578
  0
LINE
  5
970
  8
C4
 10
162.90492241143301
 20
56.365467262006739
 30
0.0
 11
162.5960953804059
 21
55.711918591357801
 31
0.0
  0
ARC
  5
971
  8
C4
 10
164.35154343008361
 20
55.681882864585162
 30
0.0
 40
1.6000000000000001
 50
90.0
 51
154.70745356257581
  0
ARC
  5
972
  8
C4
 10
167.10154343008361
 20
38.281882864585157
 30
0.0
 40
1.1000000000000001
 50
90.0
 51
154.70745356257649
  0
LINE
  5
973
  8
C4
 10
165.79816444873421
 20
38.098298467163538
 30
0.0
 11
166.1069914797614
 21
38.75184713781249
 31
0.0
  0
ARC
  5
974
  8
C4
 10
164.35154343008361
 20
38.781882864585093
 30
0.0
 40
1.6000000000000001
 50
270.0
 51
334.70745356257578
  0
ARC
  5
975
  8
C4
 10
161.60154343008361
 20
38.281882864585157
 30
0.0
 40
1.1000000000000001
 50
25.292546437424171
 51
90.0
  0
LINE
  5
976
  8
C4
 10
162.90492241143301
 20
38.098298467163538
 30
0.0
 11
162.5960953804059
 21
38.75184713781249
 31
0.0
  0
ARC
  5
977
  8
C4
 10
164.35154343008361
 20
38.781882864585093
 30
0.0
 40
1.6000000000000001
 50
205.29254643742411
 51
270.0
  0
ARC
  5
978
  8
C4
 10
172.60154343008361
 20
56.181882864585127
 30
0.0
 40
1.1000000000000001
 50
205.2925464374234
 51
270.0
  0
LINE
  5
979
  8
C4
 10
171.29816444873421
 20
56.365467262006739
 30
0.0
 11
171.6069914797614
 21
55.711918591357801
 31
0.0
  0
ARC
  5
97A
  8
C4
 10
169.85154343008361
 20
55.681882864585162
 30
0.0
 40
1.6000000000000001
 50
25.292546437424171
 51
90.0
  0
ARC
  5
97B
  8
C4
 10
167.10154343008361
 20
56.181882864585127
 30
0.0
 40
1.1000000000000001
 50
270.0
 51
334.70745356257578
  0
LINE
  5
97C
  8
C4
 10
168.40492241143301
 20
56.365467262006739
 30
0.0
 11
168.0960953804059
 21
55.711918591357801
 31
0.0
  0
ARC
  5
97D
  8
C4
 10
169.85154343008361
 20
55.681882864585162
 30
0.0
 40
1.6000000000000001
 50
90.0
 51
154.70745356257581
  0
ARC
  5
97E
  8
C4
 10
172.60154343008361
 20
38.281882864585157
 30
0.0
 40
1.1000000000000001
 50
90.0
 51
154.70745356257649
  0
LINE
  5
97F
  8
C4
 10
171.29816444873421
 20
38.098298467163538
 30
0.0
 11
171.6069914797614
 21
38.75184713781249
 31
0.0
  0
ARC
  5
980
  8
C4
 10
169.85154343008361
 20
38.781882864585093
 30
0.0
 40
1.6000000000000001
 50
270.0
 51
334.70745356257578
  0
ARC
  5
981
  8
C4
 10
167.10154343008361
 20
38.281882864585157
 30
0.0
 40
1.1000000000000001
 50
25.292546437424171
 51
90.0
  0
LINE
  5
982
  8
C4
 10
168.40492241143301
 20
38.098298467163538
 30
0.0
 11
168.0960953804059
 21
38.75184713781249
 31
0.0
  0
ARC
  5
983
  8
C4
 10
169.85154343008361
 20
38.781882864585093
 30
0.0
 40
1.6000000000000001
 50
205.29254643742411
 51
270.0
  0
ARC
  5
984
  8
C4
 10
178.10154343008361
 20
56.181882864585127
 30
0.0
 40
1.1000000000000001
 50
205.2925464374234
 51
270.0
  0
LINE
  5
985
  8
C4
 10
176.79816444873421
 20
56.365467262006739
 30
0.0
 11
177.1069914797614
 21
55.711918591357801
 31
0.0
  0
ARC
  5
986
  8
C4
 10
175.35154343008361
 20
55.681882864585162
 30
0.0
 40
1.6000000000000001
 50
25.292546437424171
 51
90.0
  0
ARC
  5
987
  8
C4
 10
172.60154343008361
 20
56.181882864585127
 30
0.0
 40
1.1000000000000001
 50
270.0
 51
334.70745356257578
  0
LINE
  5
988
  8
C4
 10
173.90492241143301
 20
56.365467262006739
 30
0.0
 11
173.5960953804059
 21
55.711918591357801
 31
0.0
  0
ARC
  5
989
  8
C4
 10
175.35154343008361
 20
55.681882864585162
 30
0.0
 40
1.6000000000000001
 50
90.0
 51
154.70745356257581
  0
ARC
  5
98A
  8
C4
 10
178.10154343008361
 20
38.281882864585157
 30
0.0
 40
1.1000000000000001
 50
90.0
 51
154.70745356257649
  0
LINE
  5
98B
  8
C4
 10
176.79816444873421
 20
38.098298467163538
 30
0.0
 11
177.1069914797614
 21
38.75184713781249
 31
0.0
  0
ARC
  5
98C
  8
C4
 10
175.35154343008361
 20
38.781882864585093
 30
0.0
 40
1.6000000000000001
 50
270.0
 51
334.70745356257578
  0
ARC
  5
98D
  8
C4
 10
172.60154343008361
 20
38.281882864585157
 30
0.0
 40
1.1000000000000001
 50
25.292546437424171
 51
90.0
  0
LINE
  5
98E
  8
C4
 10
173.90492241143301
 20
38.098298467163538
 30
0.0
 11
173.5960953804059
 21
38.75184713781249
 31
0.0
  0
ARC
  5
98F
  8
C4
 10
175.35154343008361
 20
38.781882864585093
 30
0.0
 40
1.6000000000000001
 50
205.29254643742411
 51
270.0
  0
ARC
  5
990
  8
C4
 10
183.60154343008361
 20
56.181882864585127
 30
0.0
 40
1.1000000000000001
 50
205.2925464374234
 51
270.0
  0
LINE
  5
991
  8
C4
 10
182.29816444873421
 20
56.365467262006739
 30
0.0
 11
182.6069914797614
 21
55.711918591357801
 31
0.0
  0
ARC
  5
992
  8
C4
 10
180.85154343008361
 20
55.681882864585162
 30
0.0
 40
1.6000000000000001
 50
25.292546437424171
 51
90.0
  0
ARC
  5
993
  8
C4
 10
178.10154343008361
 20
56.181882864585127
 30
0.0
 40
1.1000000000000001
 50
270.0
 51
334.70745356257578
  0
LINE
  5
994
  8
C4
 10
179.40492241143301
 20
56.365467262006739
 30
0.0
 11
179.0960953804059
 21
55.711918591357801
 31
0.0
  0
ARC
  5
995
  8
C4
 10
180.85154343008361
 20
55.681882864585162
 30
0.0
 40
1.6000000000000001
 50
90.0
 51
154.70745356257581
  0
ARC
  5
996
  8
C4
 10
183.60154343008361
 20
38.281882864585157
 30
0.0
 40
1.1000000000000001
 50
90.0
 51
154.70745356257649
  0
LINE
  5
997
  8
C4
 10
182.29816444873421
 20
38.098298467163538
 30
0.0
 11
182.6069914797614
 21
38.75184713781249
 31
0.0
  0
ARC
  5
998
  8
C4
 10
180.85154343008361
 20
38.781882864585093
 30
0.0
 40
1.6000000000000001
 50
270.0
 51
334.70745356257578
  0
ARC
  5
999
  8
C4
 10
178.10154343008361
 20
38.281882864585157
 30
0.0
 40
1.1000000000000001
 50
25.292546437424171
 51
90.0
  0
LINE
  5
99A
  8
C4
 10
179.40492241143301
 20
38.098298467163538
 30
0.0
 11
179.0960953804059
 21
38.75184713781249
 31
0.0
  0
ARC
  5
99B
  8
C4
 10
180.85154343008361
 20
38.781882864585093
 30
0.0
 40
1.6000000000000001
 50
205.29254643742411
 51
270.0
  0
ARC
  5
99C
  8
C4
 10
189.10154343008361
 20
56.181882864585127
 30
0.0
 40
1.1000000000000001
 50
205.2925464374234
 51
270.0
  0
LINE
  5
99D
  8
C4
 10
187.79816444873421
 20
56.365467262006739
 30
0.0
 11
188.10699147976129
 21
55.711918591357801
 31
0.0
  0
ARC
  5
99E
  8
C4
 10
186.35154343008361
 20
55.681882864585162
 30
0.0
 40
1.6000000000000001
 50
25.292546437424171
 51
90.0
  0
ARC
  5
99F
  8
C4
 10
183.60154343008361
 20
56.181882864585127
 30
0.0
 40
1.1000000000000001
 50
270.0
 51
334.70745356257578
  0
LINE
  5
9A0
  8
C4
 10
184.90492241143301
 20
56.365467262006739
 30
0.0
 11
184.5960953804059
 21
55.711918591357801
 31
0.0
  0
ARC
  5
9A1
  8
C4
 10
186.35154343008361
 20
55.681882864585162
 30
0.0
 40
1.6000000000000001
 50
90.0
 51
154.70745356257581
  0
ARC
  5
9A2
  8
C4
 10
189.10154343008361
 20
38.281882864585157
 30
0.0
 40
1.1000000000000001
 50
90.0
 51
154.70745356257649
  0
LINE
  5
9A3
  8
C4
 10
187.79816444873421
 20
38.098298467163538
 30
0.0
 11
188.10699147976129
 21
38.75184713781249
 31
0.0
  0
ARC
  5
9A4
  8
C4
 10
186.35154343008361
 20
38.781882864585093
 30
0.0
 40
1.6000000000000001
 50
270.0
 51
334.70745356257578
  0
ARC
  5
9A5
  8
C4
 10
183.60154343008361
 20
38.281882864585157
 30
0.0
 40
1.1000000000000001
 50
25.292546437424171
 51
90.0
  0
LINE
  5
9A6
  8
C4
 10
184.90492241143301
 20
38.098298467163538
 30
0.0
 11
184.5960953804059
 21
38.75184713781249
 31
0.0
  0
ARC
  5
9A7
  8
C4
 10
186.35154343008361
 20
38.781882864585093
 30
0.0
 40
1.6000000000000001
 50
205.29254643742411
 51
270.0
  0
ARC
  5
9A8
  8
C4
 10
194.60154343008361
 20
56.181882864585127
 30
0.0
 40
1.1000000000000001
 50
205.2925464374234
 51
270.0
  0
LINE
  5
9A9
  8
C4
 10
193.29816444873421
 20
56.365467262006739
 30
0.0
 11
193.6069914797614
 21
55.711918591357801
 31
0.0
  0
ARC
  5
9AA
  8
C4
 10
191.85154343008361
 20
55.681882864585162
 30
0.0
 40
1.6000000000000001
 50
25.292546437424171
 51
90.0
  0
ARC
  5
9AB
  8
C4
 10
189.10154343008361
 20
56.181882864585127
 30
0.0
 40
1.1000000000000001
 50
270.0
 51
334.70745356257578
  0
LINE
  5
9AC
  8
C4
 10
190.40492241143301
 20
56.365467262006739
 30
0.0
 11
190.0960953804059
 21
55.711918591357801
 31
0.0
  0
ARC
  5
9AD
  8
C4
 10
191.85154343008361
 20
55.681882864585162
 30
0.0
 40
1.6000000000000001
 50
90.0
 51
154.70745356257581
  0
ARC
  5
9AE
  8
C4
 10
194.60154343008361
 20
38.281882864585157
 30
0.0
 40
1.1000000000000001
 50
90.0
 51
154.70745356257649
  0
LINE
  5
9AF
  8
C4
 10
193.29816444873421
 20
38.098298467163538
 30
0.0
 11
193.6069914797614
 21
38.75184713781249
 31
0.0
  0
ARC
  5
9B0
  8
C4
 10
191.85154343008361
 20
38.781882864585093
 30
0.0
 40
1.6000000000000001
 50
270.0
 51
334.70745356257578
  0
ARC
  5
9B1
  8
C4
 10
189.10154343008361
 20
38.281882864585157
 30
0.0
 40
1.1000000000000001
 50
25.292546437424171
 51
90.0
  0
LINE
  5
9B2
  8
C4
 10
190.40492241143301
 20
38.098298467163538
 30
0.0
 11
190.0960953804059
 21
38.75184713781249
 31
0.0
  0
ARC
  5
9B3
  8
C4
 10
191.85154343008361
 20
38.781882864585093
 30
0.0
 40
1.6000000000000001
 50
205.29254643742411
 51
270.0
  0
ARC
  5
9B4
  8
C4
 10
200.10154343008361
 20
56.181882864585127
 30
0.0
 40
1.1000000000000001
 50
205.2925464374234
 51
270.0
  0
LINE
  5
9B5
  8
C4
 10
198.79816444873421
 20
56.365467262006739
 30
0.0
 11
199.1069914797614
 21
55.711918591357801
 31
0.0
  0
ARC
  5
9B6
  8
C4
 10
197.35154343008361
 20
55.681882864585162
 30
0.0
 40
1.6000000000000001
 50
25.292546437424171
 51
90.0
  0
ARC
  5
9B7
  8
C4
 10
194.60154343008361
 20
56.181882864585127
 30
0.0
 40
1.1000000000000001
 50
270.0
 51
334.70745356257578
  0
LINE
  5
9B8
  8
C4
 10
195.90492241143301
 20
56.365467262006739
 30
0.0
 11
195.5960953804059
 21
55.711918591357801
 31
0.0
  0
ARC
  5
9B9
  8
C4
 10
197.35154343008361
 20
55.681882864585162
 30
0.0
 40
1.6000000000000001
 50
90.0
 51
154.70745356257581
  0
ARC
  5
9BA
  8
C4
 10
200.10154343008361
 20
38.281882864585157
 30
0.0
 40
1.1000000000000001
 50
90.0
 51
154.70745356257649
  0
LINE
  5
9BB
  8
C4
 10
198.79816444873421
 20
38.098298467163538
 30
0.0
 11
199.1069914797614
 21
38.75184713781249
 31
0.0
  0
ARC
  5
9BC
  8
C4
 10
197.35154343008361
 20
38.781882864585093
 30
0.0
 40
1.6000000000000001
 50
270.0
 51
334.70745356257578
  0
ARC
  5
9BD
  8
C4
 10
194.60154343008361
 20
38.281882864585157
 30
0.0
 40
1.1000000000000001
 50
25.292546437424171
 51
90.0
  0
LINE
  5
9BE
  8
C4
 10
195.90492241143301
 20
38.098298467163538
 30
0.0
 11
195.5960953804059
 21
38.75184713781249
 31
0.0
  0
ARC
  5
9BF
  8
C4
 10
197.35154343008361
 20
38.781882864585093
 30
0.0
 40
1.6000000000000001
 50
205.29254643742411
 51
270.0
  0
ARC
  5
9C0
  8
C4
 10
205.60154343008361
 20
56.181882864585127
 30
0.0
 40
1.1000000000000001
 50
205.2925464374234
 51
270.0
  0
LINE
  5
9C1
  8
C4
 10
204.29816444873421
 20
56.365467262006739
 30
0.0
 11
204.6069914797614
 21
55.711918591357801
 31
0.0
  0
ARC
  5
9C2
  8
C4
 10
202.85154343008361
 20
55.681882864585162
 30
0.0
 40
1.6000000000000001
 50
25.292546437424171
 51
90.0
  0
ARC
  5
9C3
  8
C4
 10
200.10154343008361
 20
56.181882864585127
 30
0.0
 40
1.1000000000000001
 50
270.0
 51
334.70745356257578
  0
LINE
  5
9C4
  8
C4
 10
201.40492241143301
 20
56.365467262006739
 30
0.0
 11
201.0960953804059
 21
55.711918591357801
 31
0.0
  0
ARC
  5
9C5
  8
C4
 10
202.85154343008361
 20
55.681882864585162
 30
0.0
 40
1.6000000000000001
 50
90.0
 51
154.70745356257581
  0
ARC
  5
9C6
  8
C4
 10
205.60154343008361
 20
38.281882864585157
 30
0.0
 40
1.1000000000000001
 50
90.0
 51
154.70745356257649
  0
LINE
  5
9C7
  8
C4
 10
204.29816444873421
 20
38.098298467163538
 30
0.0
 11
204.6069914797614
 21
38.75184713781249
 31
0.0
  0
ARC
  5
9C8
  8
C4
 10
202.85154343008361
 20
38.781882864585093
 30
0.0
 40
1.6000000000000001
 50
270.0
 51
334.70745356257578
  0
ARC
  5
9C9
  8
C4
 10
200.10154343008361
 20
38.281882864585157
 30
0.0
 40
1.1000000000000001
 50
25.292546437424171
 51
90.0
  0
LINE
  5
9CA
  8
C4
 10
201.40492241143301
 20
38.098298467163538
 30
0.0
 11
201.0960953804059
 21
38.75184713781249
 31
0.0
  0
ARC
  5
9CB
  8
C4
 10
202.85154343008361
 20
38.781882864585093
 30
0.0
 40
1.6000000000000001
 50
205.29254643742411
 51
270.0
  0
ARC
  5
9CC
  8
C4
 10
211.10154343008361
 20
56.181882864585127
 30
0.0
 40
1.1000000000000001
 50
205.2925464374234
 51
270.0
  0
LINE
  5
9CD
  8
C4
 10
209.79816444873421
 20
56.365467262006739
 30
0.0
 11
210.10699147976129
 21
55.711918591357801
 31
0.0
  0
ARC
  5
9CE
  8
C4
 10
208.35154343008361
 20
55.681882864585162
 30
0.0
 40
1.6000000000000001
 50
25.292546437424171
 51
90.0
  0
ARC
  5
9CF
  8
C4
 10
205.60154343008361
 20
56.181882864585127
 30
0.0
 40
1.1000000000000001
 50
270.0
 51
334.70745356257578
  0
LINE
  5
9D0
  8
C4
 10
206.90492241143301
 20
56.365467262006739
 30
0.0
 11
206.5960953804059
 21
55.711918591357801
 31
0.0
  0
ARC
  5
9D1
  8
C4
 10
208.35154343008361
 20
55.681882864585162
 30
0.0
 40
1.6000000000000001
 50
90.0
 51
154.70745356257581
  0
ARC
  5
9D2
  8
C4
 10
211.10154343008361
 20
38.281882864585157
 30
0.0
 40
1.1000000000000001
 50
90.0
 51
154.70745356257649
  0
LINE
  5
9D3
  8
C4
 10
209.79816444873421
 20
38.098298467163538
 30
0.0
 11
210.10699147976129
 21
38.75184713781249
 31
0.0
  0
ARC
  5
9D4
  8
C4
 10
208.35154343008361
 20
38.781882864585093
 30
0.0
 40
1.6000000000000001
 50
270.0
 51
334.70745356257578
  0
ARC
  5
9D5
  8
C4
 10
205.60154343008361
 20
38.281882864585157
 30
0.0
 40
1.1000000000000001
 50
25.292546437424171
 51
90.0
  0
LINE
  5
9D6
  8
C4
 10
206.90492241143301
 20
38.098298467163538
 30
0.0
 11
206.5960953804059
 21
38.75184713781249
 31
0.0
  0
ARC
  5
9D7
  8
C4
 10
208.35154343008361
 20
38.781882864585093
 30
0.0
 40
1.6000000000000001
 50
205.29254643742411
 51
270.0
  0
ARC
  5
9D8
  8
C4
 10
216.60154343008361
 20
56.181882864585127
 30
0.0
 40
1.1000000000000001
 50
205.2925464374234
 51
270.0
  0
LINE
  5
9D9
  8
C4
 10
215.29816444873421
 20
56.365467262006739
 30
0.0
 11
215.6069914797614
 21
55.711918591357801
 31
0.0
  0
ARC
  5
9DA
  8
C4
 10
213.85154343008361
 20
55.681882864585162
 30
0.0
 40
1.6000000000000001
 50
25.292546437424171
 51
90.0
  0
ARC
  5
9DB
  8
C4
 10
211.10154343008361
 20
56.181882864585127
 30
0.0
 40
1.1000000000000001
 50
270.0
 51
334.70745356257578
  0
LINE
  5
9DC
  8
C4
 10
212.40492241143301
 20
56.365467262006739
 30
0.0
 11
212.0960953804059
 21
55.711918591357801
 31
0.0
  0
ARC
  5
9DD
  8
C4
 10
213.85154343008361
 20
55.681882864585162
 30
0.0
 40
1.6000000000000001
 50
90.0
 51
154.70745356257581
  0
ARC
  5
9DE
  8
C4
 10
216.60154343008361
 20
38.281882864585157
 30
0.0
 40
1.1000000000000001
 50
90.0
 51
154.70745356257649
  0
LINE
  5
9DF
  8
C4
 10
215.29816444873421
 20
38.098298467163538
 30
0.0
 11
215.6069914797614
 21
38.75184713781249
 31
0.0
  0
ARC
  5
9E0
  8
C4
 10
213.85154343008361
 20
38.781882864585093
 30
0.0
 40
1.6000000000000001
 50
270.0
 51
334.70745356257578
  0
ARC
  5
9E1
  8
C4
 10
211.10154343008361
 20
38.281882864585157
 30
0.0
 40
1.1000000000000001
 50
25.292546437424171
 51
90.0
  0
LINE
  5
9E2
  8
C4
 10
212.40492241143301
 20
38.098298467163538
 30
0.0
 11
212.0960953804059
 21
38.75184713781249
 31
0.0
  0
ARC
  5
9E3
  8
C4
 10
213.85154343008361
 20
38.781882864585093
 30
0.0
 40
1.6000000000000001
 50
205.29254643742411
 51
270.0
  0
ARC
  5
9E4
  8
C4
 10
222.10154343008361
 20
56.181882864585127
 30
0.0
 40
1.1000000000000001
 50
205.2925464374234
 51
270.0
  0
LINE
  5
9E5
  8
C4
 10
220.79816444873421
 20
56.365467262006739
 30
0.0
 11
221.1069914797614
 21
55.711918591357801
 31
0.0
  0
ARC
  5
9E6
  8
C4
 10
219.35154343008361
 20
55.681882864585162
 30
0.0
 40
1.6000000000000001
 50
25.292546437424171
 51
90.0
  0
ARC
  5
9E7
  8
C4
 10
216.60154343008361
 20
56.181882864585127
 30
0.0
 40
1.1000000000000001
 50
270.0
 51
334.70745356257578
  0
LINE
  5
9E8
  8
C4
 10
217.90492241143301
 20
56.365467262006739
 30
0.0
 11
217.5960953804059
 21
55.711918591357801
 31
0.0
  0
ARC
  5
9E9
  8
C4
 10
219.35154343008361
 20
55.681882864585162
 30
0.0
 40
1.6000000000000001
 50
90.0
 51
154.70745356257581
  0
ARC
  5
9EA
  8
C4
 10
222.10154343008361
 20
38.281882864585157
 30
0.0
 40
1.1000000000000001
 50
90.0
 51
154.70745356257649
  0
LINE
  5
9EB
  8
C4
 10
220.79816444873421
 20
38.098298467163538
 30
0.0
 11
221.1069914797614
 21
38.75184713781249
 31
0.0
  0
ARC
  5
9EC
  8
C4
 10
219.35154343008361
 20
38.781882864585093
 30
0.0
 40
1.6000000000000001
 50
270.0
 51
334.70745356257578
  0
ARC
  5
9ED
  8
C4
 10
216.60154343008361
 20
38.281882864585157
 30
0.0
 40
1.1000000000000001
 50
25.292546437424171
 51
90.0
  0
LINE
  5
9EE
  8
C4
 10
217.90492241143301
 20
38.098298467163538
 30
0.0
 11
217.5960953804059
 21
38.75184713781249
 31
0.0
  0
ARC
  5
9EF
  8
C4
 10
219.35154343008361
 20
38.781882864585093
 30
0.0
 40
1.6000000000000001
 50
205.29254643742411
 51
270.0
  0
ARC
  5
9F0
  8
C4
 10
227.60154343008361
 20
56.181882864585127
 30
0.0
 40
1.1000000000000001
 50
205.2925464374234
 51
270.0
  0
LINE
  5
9F1
  8
C4
 10
226.29816444873421
 20
56.365467262006739
 30
0.0
 11
226.60699147976129
 21
55.711918591357801
 31
0.0
  0
ARC
  5
9F2
  8
C4
 10
224.85154343008361
 20
55.681882864585162
 30
0.0
 40
1.6000000000000001
 50
25.292546437424171
 51
90.0
  0
ARC
  5
9F3
  8
C4
 10
222.10154343008361
 20
56.181882864585127
 30
0.0
 40
1.1000000000000001
 50
270.0
 51
334.70745356257578
  0
LINE
  5
9F4
  8
C4
 10
223.40492241143301
 20
56.365467262006739
 30
0.0
 11
223.0960953804059
 21
55.711918591357801
 31
0.0
  0
ARC
  5
9F5
  8
C4
 10
224.85154343008361
 20
55.681882864585162
 30
0.0
 40
1.6000000000000001
 50
90.0
 51
154.70745356257581
  0
ARC
  5
9F6
  8
C4
 10
227.60154343008361
 20
38.281882864585157
 30
0.0
 40
1.1000000000000001
 50
90.0
 51
154.70745356257649
  0
LINE
  5
9F7
  8
C4
 10
226.29816444873421
 20
38.098298467163538
 30
0.0
 11
226.60699147976129
 21
38.75184713781249
 31
0.0
  0
ARC
  5
9F8
  8
C4
 10
224.85154343008361
 20
38.781882864585093
 30
0.0
 40
1.6000000000000001
 50
270.0
 51
334.70745356257578
  0
ARC
  5
9F9
  8
C4
 10
222.10154343008361
 20
38.281882864585157
 30
0.0
 40
1.1000000000000001
 50
25.292546437424171
 51
90.0
  0
LINE
  5
9FA
  8
C4
 10
223.40492241143301
 20
38.098298467163538
 30
0.0
 11
223.0960953804059
 21
38.75184713781249
 31
0.0
  0
ARC
  5
9FB
  8
C4
 10
224.85154343008361
 20
38.781882864585093
 30
0.0
 40
1.6000000000000001
 50
205.29254643742411
 51
270.0
  0
ARC
  5
9FC
  8
C4
 10
233.10154343008361
 20
56.181882864585127
 30
0.0
 40
1.1000000000000001
 50
205.2925464374234
 51
270.0
  0
LINE
  5
9FD
  8
C4
 10
231.79816444873421
 20
56.365467262006739
 30
0.0
 11
232.1069914797614
 21
55.711918591357801
 31
0.0
  0
ARC
  5
9FE
  8
C4
 10
230.35154343008361
 20
55.681882864585162
 30
0.0
 40
1.6000000000000001
 50
25.292546437424171
 51
90.0
  0
ARC
  5
9FF
  8
C4
 10
227.60154343008361
 20
56.181882864585127
 30
0.0
 40
1.1000000000000001
 50
270.0
 51
334.70745356257578
  0
LINE
  5
A00
  8
C4
 10
228.90492241143301
 20
56.365467262006739
 30
0.0
 11
228.5960953804059
 21
55.711918591357801
 31
0.0
  0
ARC
  5
A01
  8
C4
 10
230.35154343008361
 20
55.681882864585162
 30
0.0
 40
1.6000000000000001
 50
90.0
 51
154.70745356257581
  0
ARC
  5
A02
  8
C4
 10
233.10154343008361
 20
38.281882864585157
 30
0.0
 40
1.1000000000000001
 50
90.0
 51
154.70745356257649
  0
LINE
  5
A03
  8
C4
 10
231.79816444873421
 20
38.098298467163538
 30
0.0
 11
232.1069914797614
 21
38.75184713781249
 31
0.0
  0
ARC
  5
A04
  8
C4
 10
230.35154343008361
 20
38.781882864585093
 30
0.0
 40
1.6000000000000001
 50
270.0
 51
334.70745356257578
  0
ARC
  5
A05
  8
C4
 10
227.60154343008361
 20
38.281882864585157
 30
0.0
 40
1.1000000000000001
 50
25.292546437424171
 51
90.0
  0
LINE
  5
A06
  8
C4
 10
228.90492241143301
 20
38.098298467163538
 30
0.0
 11
228.5960953804059
 21
38.75184713781249
 31
0.0
  0
ARC
  5
A07
  8
C4
 10
230.35154343008361
 20
38.781882864585093
 30
0.0
 40
1.6000000000000001
 50
205.29254643742411
 51
270.0
  0
ARC
  5
A08
  8
C4
 10
238.60154343008361
 20
56.181882864585127
 30
0.0
 40
1.1000000000000001
 50
205.2925464374234
 51
270.0
  0
LINE
  5
A09
  8
C4
 10
237.29816444873421
 20
56.365467262006739
 30
0.0
 11
237.6069914797614
 21
55.711918591357801
 31
0.0
  0
ARC
  5
A0A
  8
C4
 10
235.85154343008361
 20
55.681882864585162
 30
0.0
 40
1.6000000000000001
 50
25.292546437424171
 51
90.0
  0
ARC
  5
A0B
  8
C4
 10
233.10154343008361
 20
56.181882864585127
 30
0.0
 40
1.1000000000000001
 50
270.0
 51
334.70745356257578
  0
LINE
  5
A0C
  8
C4
 10
234.40492241143301
 20
56.365467262006739
 30
0.0
 11
234.0960953804059
 21
55.711918591357801
 31
0.0
  0
ARC
  5
A0D
  8
C4
 10
235.85154343008361
 20
55.681882864585162
 30
0.0
 40
1.6000000000000001
 50
90.0
 51
154.70745356257581
  0
ARC
  5
A0E
  8
C4
 10
238.60154343008361
 20
38.281882864585157
 30
0.0
 40
1.1000000000000001
 50
90.0
 51
154.70745356257649
  0
LINE
  5
A0F
  8
C4
 10
237.29816444873421
 20
38.098298467163538
 30
0.0
 11
237.6069914797614
 21
38.75184713781249
 31
0.0
  0
ARC
  5
A10
  8
C4
 10
235.85154343008361
 20
38.781882864585093
 30
0.0
 40
1.6000000000000001
 50
270.0
 51
334.70745356257578
  0
ARC
  5
A11
  8
C4
 10
233.10154343008361
 20
38.281882864585157
 30
0.0
 40
1.1000000000000001
 50
25.292546437424171
 51
90.0
  0
LINE
  5
A12
  8
C4
 10
234.40492241143301
 20
38.098298467163538
 30
0.0
 11
234.0960953804059
 21
38.75184713781249
 31
0.0
  0
ARC
  5
A13
  8
C4
 10
235.85154343008361
 20
38.781882864585093
 30
0.0
 40
1.6000000000000001
 50
205.29254643742411
 51
270.0
  0
ARC
  5
A14
  8
C4
 10
244.10154343008361
 20
56.181882864585127
 30
0.0
 40
1.1000000000000001
 50
205.2925464374234
 51
270.0
  0
LINE
  5
A15
  8
C4
 10
242.79816444873421
 20
56.365467262006739
 30
0.0
 11
243.1069914797614
 21
55.711918591357801
 31
0.0
  0
ARC
  5
A16
  8
C4
 10
241.35154343008361
 20
55.681882864585162
 30
0.0
 40
1.6000000000000001
 50
25.292546437424171
 51
90.0
  0
ARC
  5
A17
  8
C4
 10
238.60154343008361
 20
56.181882864585127
 30
0.0
 40
1.1000000000000001
 50
270.0
 51
334.70745356257578
  0
LINE
  5
A18
  8
C4
 10
239.90492241143301
 20
56.365467262006739
 30
0.0
 11
239.5960953804059
 21
55.711918591357801
 31
0.0
  0
ARC
  5
A19
  8
C4
 10
241.35154343008361
 20
55.681882864585162
 30
0.0
 40
1.6000000000000001
 50
90.0
 51
154.70745356257581
  0
ARC
  5
A1A
  8
C4
 10
244.10154343008361
 20
38.281882864585157
 30
0.0
 40
1.1000000000000001
 50
90.0
 51
154.70745356257649
  0
LINE
  5
A1B
  8
C4
 10
242.79816444873421
 20
38.098298467163538
 30
0.0
 11
243.1069914797614
 21
38.75184713781249
 31
0.0
  0
ARC
  5
A1C
  8
C4
 10
241.35154343008361
 20
38.781882864585093
 30
0.0
 40
1.6000000000000001
 50
270.0
 51
334.70745356257578
  0
ARC
  5
A1D
  8
C4
 10
238.60154343008361
 20
38.281882864585157
 30
0.0
 40
1.1000000000000001
 50
25.292546437424171
 51
90.0
  0
LINE
  5
A1E
  8
C4
 10
239.90492241143301
 20
38.098298467163538
 30
0.0
 11
239.5960953804059
 21
38.75184713781249
 31
0.0
  0
ARC
  5
A1F
  8
C4
 10
241.35154343008361
 20
38.781882864585093
 30
0.0
 40
1.6000000000000001
 50
205.29254643742411
 51
270.0
  0
ARC
  5
A20
  8
C4
 10
249.60154343008361
 20
56.181882864585127
 30
0.0
 40
1.1000000000000001
 50
205.2925464374234
 51
270.0
  0
LINE
  5
A21
  8
C4
 10
248.29816444873421
 20
56.365467262006739
 30
0.0
 11
248.6069914797614
 21
55.711918591357801
 31
0.0
  0
ARC
  5
A22
  8
C4
 10
246.85154343008361
 20
55.681882864585162
 30
0.0
 40
1.6000000000000001
 50
25.292546437424171
 51
90.0
  0
ARC
  5
A23
  8
C4
 10
244.10154343008361
 20
56.181882864585127
 30
0.0
 40
1.1000000000000001
 50
270.0
 51
334.70745356257578
  0
LINE
  5
A24
  8
C4
 10
245.40492241143301
 20
56.365467262006739
 30
0.0
 11
245.0960953804059
 21
55.711918591357801
 31
0.0
  0
ARC
  5
A25
  8
C4
 10
246.85154343008361
 20
55.681882864585162
 30
0.0
 40
1.6000000000000001
 50
90.0
 51
154.70745356257581
  0
ARC
  5
A26
  8
C4
 10
249.60154343008361
 20
38.281882864585157
 30
0.0
 40
1.1000000000000001
 50
90.0
 51
154.70745356257649
  0
LINE
  5
A27
  8
C4
 10
248.29816444873421
 20
38.098298467163538
 30
0.0
 11
248.6069914797614
 21
38.75184713781249
 31
0.0
  0
ARC
  5
A28
  8
C4
 10
246.85154343008361
 20
38.781882864585093
 30
0.0
 40
1.6000000000000001
 50
270.0
 51
334.70745356257578
  0
ARC
  5
A29
  8
C4
 10
244.10154343008361
 20
38.281882864585157
 30
0.0
 40
1.1000000000000001
 50
25.292546437424171
 51
90.0
  0
LINE
  5
A2A
  8
C4
 10
245.40492241143301
 20
38.098298467163538
 30
0.0
 11
245.0960953804059
 21
38.75184713781249
 31
0.0
  0
ARC
  5
A2B
  8
C4
 10
246.85154343008361
 20
38.781882864585093
 30
0.0
 40
1.6000000000000001
 50
205.29254643742411
 51
270.0
  0
ARC
  5
A2C
  8
C4
 10
255.10154343008361
 20
56.181882864585127
 30
0.0
 40
1.1000000000000001
 50
205.2925464374234
 51
270.0
  0
LINE
  5
A2D
  8
C4
 10
253.79816444873421
 20
56.365467262006739
 30
0.0
 11
254.10699147976129
 21
55.711918591357801
 31
0.0
  0
ARC
  5
A2E
  8
C4
 10
252.35154343008361
 20
55.681882864585162
 30
0.0
 40
1.6000000000000001
 50
25.292546437424171
 51
90.0
  0
ARC
  5
A2F
  8
C4
 10
249.60154343008361
 20
56.181882864585127
 30
0.0
 40
1.1000000000000001
 50
270.0
 51
334.70745356257578
  0
LINE
  5
A30
  8
C4
 10
250.90492241143301
 20
56.365467262006739
 30
0.0
 11
250.5960953804059
 21
55.711918591357801
 31
0.0
  0
ARC
  5
A31
  8
C4
 10
252.35154343008361
 20
55.681882864585162
 30
0.0
 40
1.6000000000000001
 50
90.0
 51
154.70745356257581
  0
ARC
  5
A32
  8
C4
 10
255.10154343008361
 20
38.281882864585157
 30
0.0
 40
1.1000000000000001
 50
90.0
 51
154.70745356257649
  0
LINE
  5
A33
  8
C4
 10
253.79816444873421
 20
38.098298467163538
 30
0.0
 11
254.10699147976129
 21
38.75184713781249
 31
0.0
  0
ARC
  5
A34
  8
C4
 10
252.35154343008361
 20
38.781882864585093
 30
0.0
 40
1.6000000000000001
 50
270.0
 51
334.70745356257578
  0
ARC
  5
A35
  8
C4
 10
249.60154343008361
 20
38.281882864585157
 30
0.0
 40
1.1000000000000001
 50
25.292546437424171
 51
90.0
  0
LINE
  5
A36
  8
C4
 10
250.90492241143301
 20
38.098298467163538
 30
0.0
 11
250.5960953804059
 21
38.75184713781249
 31
0.0
  0
ARC
  5
A37
  8
C4
 10
252.35154343008361
 20
38.781882864585093
 30
0.0
 40
1.6000000000000001
 50
205.29254643742411
 51
270.0
  0
ARC
  5
A38
  8
C4
 10
260.60154343008361
 20
56.181882864585127
 30
0.0
 40
1.1000000000000001
 50
205.2925464374234
 51
270.0
  0
LINE
  5
A39
  8
C4
 10
259.29816444873421
 20
56.365467262006739
 30
0.0
 11
259.6069914797614
 21
55.711918591357801
 31
0.0
  0
ARC
  5
A3A
  8
C4
 10
257.85154343008361
 20
55.681882864585162
 30
0.0
 40
1.6000000000000001
 50
25.292546437424171
 51
90.0
  0
ARC
  5
A3B
  8
C4
 10
255.10154343008361
 20
56.181882864585127
 30
0.0
 40
1.1000000000000001
 50
270.0
 51
334.70745356257578
  0
LINE
  5
A3C
  8
C4
 10
256.40492241143301
 20
56.365467262006739
 30
0.0
 11
256.09609538040593
 21
55.711918591357801
 31
0.0
  0
ARC
  5
A3D
  8
C4
 10
257.85154343008361
 20
55.681882864585162
 30
0.0
 40
1.6000000000000001
 50
90.0
 51
154.70745356257581
  0
ARC
  5
A3E
  8
C4
 10
260.60154343008361
 20
38.281882864585157
 30
0.0
 40
1.1000000000000001
 50
90.0
 51
154.70745356257649
  0
LINE
  5
A3F
  8
C4
 10
259.29816444873421
 20
38.098298467163538
 30
0.0
 11
259.6069914797614
 21
38.75184713781249
 31
0.0
  0
ARC
  5
A40
  8
C4
 10
257.85154343008361
 20
38.781882864585093
 30
0.0
 40
1.6000000000000001
 50
270.0
 51
334.70745356257578
  0
ARC
  5
A41
  8
C4
 10
255.10154343008361
 20
38.281882864585157
 30
0.0
 40
1.1000000000000001
 50
25.292546437424171
 51
90.0
  0
LINE
  5
A42
  8
C4
 10
256.40492241143301
 20
38.098298467163538
 30
0.0
 11
256.09609538040593
 21
38.75184713781249
 31
0.0
  0
ARC
  5
A43
  8
C4
 10
257.85154343008361
 20
38.781882864585093
 30
0.0
 40
1.6000000000000001
 50
205.29254643742411
 51
270.0
  0
ARC
  5
A44
  8
C4
 10
266.10154343008361
 20
56.181882864585127
 30
0.0
 40
1.1000000000000001
 50
205.2925464374234
 51
270.0
  0
LINE
  5
A45
  8
C4
 10
264.79816444873421
 20
56.365467262006739
 30
0.0
 11
265.1069914797614
 21
55.711918591357801
 31
0.0
  0
ARC
  5
A46
  8
C4
 10
263.35154343008361
 20
55.681882864585162
 30
0.0
 40
1.6000000000000001
 50
25.292546437424171
 51
90.0
  0
ARC
  5
A47
  8
C4
 10
260.60154343008361
 20
56.181882864585127
 30
0.0
 40
1.1000000000000001
 50
270.0
 51
334.70745356257578
  0
LINE
  5
A48
  8
C4
 10
261.90492241143301
 20
56.365467262006739
 30
0.0
 11
261.59609538040593
 21
55.711918591357801
 31
0.0
  0
ARC
  5
A49
  8
C4
 10
263.35154343008361
 20
55.681882864585162
 30
0.0
 40
1.6000000000000001
 50
90.0
 51
154.70745356257581
  0
ARC
  5
A4A
  8
C4
 10
266.10154343008361
 20
38.281882864585157
 30
0.0
 40
1.1000000000000001
 50
90.0
 51
154.70745356257649
  0
LINE
  5
A4B
  8
C4
 10
264.79816444873421
 20
38.098298467163538
 30
0.0
 11
265.1069914797614
 21
38.75184713781249
 31
0.0
  0
ARC
  5
A4C
  8
C4
 10
263.35154343008361
 20
38.781882864585093
 30
0.0
 40
1.6000000000000001
 50
270.0
 51
334.70745356257578
  0
ARC
  5
A4D
  8
C4
 10
260.60154343008361
 20
38.281882864585157
 30
0.0
 40
1.1000000000000001
 50
25.292546437424171
 51
90.0
  0
LINE
  5
A4E
  8
C4
 10
261.90492241143301
 20
38.098298467163538
 30
0.0
 11
261.59609538040593
 21
38.75184713781249
 31
0.0
  0
ARC
  5
A4F
  8
C4
 10
263.35154343008361
 20
38.781882864585093
 30
0.0
 40
1.6000000000000001
 50
205.29254643742411
 51
270.0
  0
ARC
  5
A50
  8
C4
 10
271.60154343008361
 20
56.181882864585127
 30
0.0
 40
1.1000000000000001
 50
205.2925464374234
 51
270.0
  0
LINE
  5
A51
  8
C4
 10
270.29816444873421
 20
56.365467262006739
 30
0.0
 11
270.60699147976129
 21
55.711918591357801
 31
0.0
  0
ARC
  5
A52
  8
C4
 10
268.85154343008361
 20
55.681882864585162
 30
0.0
 40
1.6000000000000001
 50
25.292546437424171
 51
90.0
  0
ARC
  5
A53
  8
C4
 10
266.10154343008361
 20
56.181882864585127
 30
0.0
 40
1.1000000000000001
 50
270.0
 51
334.70745356257578
  0
LINE
  5
A54
  8
C4
 10
267.40492241143301
 20
56.365467262006739
 30
0.0
 11
267.09609538040593
 21
55.711918591357801
 31
0.0
  0
ARC
  5
A55
  8
C4
 10
268.85154343008361
 20
55.681882864585162
 30
0.0
 40
1.6000000000000001
 50
90.0
 51
154.70745356257581
  0
ARC
  5
A56
  8
C4
 10
271.60154343008361
 20
38.281882864585157
 30
0.0
 40
1.1000000000000001
 50
90.0
 51
154.70745356257649
  0
LINE
  5
A57
  8
C4
 10
270.29816444873421
 20
38.098298467163538
 30
0.0
 11
270.60699147976129
 21
38.75184713781249
 31
0.0
  0
ARC
  5
A58
  8
C4
 10
268.85154343008361
 20
38.781882864585093
 30
0.0
 40
1.6000000000000001
 50
270.0
 51
334.70745356257578
  0
ARC
  5
A59
  8
C4
 10
266.10154343008361
 20
38.281882864585157
 30
0.0
 40
1.1000000000000001
 50
25.292546437424171
 51
90.0
  0
LINE
  5
A5A
  8
C4
 10
267.40492241143301
 20
38.098298467163538
 30
0.0
 11
267.09609538040593
 21
38.75184713781249
 31
0.0
  0
ARC
  5
A5B
  8
C4
 10
268.85154343008361
 20
38.781882864585093
 30
0.0
 40
1.6000000000000001
 50
205.29254643742411
 51
270.0
  0
ARC
  5
A5C
  8
C4
 10
277.10154343008361
 20
56.181882864585127
 30
0.0
 40
1.1000000000000001
 50
205.2925464374234
 51
270.0
  0
LINE
  5
A5D
  8
C4
 10
275.79816444873421
 20
56.365467262006739
 30
0.0
 11
276.1069914797614
 21
55.711918591357801
 31
0.0
  0
ARC
  5
A5E
  8
C4
 10
274.35154343008361
 20
55.681882864585162
 30
0.0
 40
1.6000000000000001
 50
25.292546437424171
 51
90.0
  0
ARC
  5
A5F
  8
C4
 10
271.60154343008361
 20
56.181882864585127
 30
0.0
 40
1.1000000000000001
 50
270.0
 51
334.70745356257578
  0
LINE
  5
A60
  8
C4
 10
272.90492241143301
 20
56.365467262006739
 30
0.0
 11
272.59609538040593
 21
55.711918591357801
 31
0.0
  0
ARC
  5
A61
  8
C4
 10
274.35154343008361
 20
55.681882864585162
 30
0.0
 40
1.6000000000000001
 50
90.0
 51
154.70745356257581
  0
ARC
  5
A62
  8
C4
 10
277.10154343008361
 20
38.281882864585157
 30
0.0
 40
1.1000000000000001
 50
90.0
 51
154.70745356257649
  0
LINE
  5
A63
  8
C4
 10
275.79816444873421
 20
38.098298467163538
 30
0.0
 11
276.1069914797614
 21
38.75184713781249
 31
0.0
  0
ARC
  5
A64
  8
C4
 10
274.35154343008361
 20
38.781882864585093
 30
0.0
 40
1.6000000000000001
 50
270.0
 51
334.70745356257578
  0
ARC
  5
A65
  8
C4
 10
271.60154343008361
 20
38.281882864585157
 30
0.0
 40
1.1000000000000001
 50
25.292546437424171
 51
90.0
  0
LINE
  5
A66
  8
C4
 10
272.90492241143301
 20
38.098298467163538
 30
0.0
 11
272.59609538040593
 21
38.75184713781249
 31
0.0
  0
ARC
  5
A67
  8
C4
 10
274.35154343008361
 20
38.781882864585093
 30
0.0
 40
1.6000000000000001
 50
205.29254643742411
 51
270.0
  0
ARC
  5
A68
  8
C4
 10
282.60154343008361
 20
56.181882864585127
 30
0.0
 40
1.1000000000000001
 50
205.2925464374234
 51
270.0
  0
LINE
  5
A69
  8
C4
 10
281.29816444873421
 20
56.365467262006739
 30
0.0
 11
281.6069914797614
 21
55.711918591357801
 31
0.0
  0
ARC
  5
A6A
  8
C4
 10
279.85154343008361
 20
55.681882864585162
 30
0.0
 40
1.6000000000000001
 50
25.292546437424171
 51
90.0
  0
ARC
  5
A6B
  8
C4
 10
277.10154343008361
 20
56.181882864585127
 30
0.0
 40
1.1000000000000001
 50
270.0
 51
334.70745356257578
  0
LINE
  5
A6C
  8
C4
 10
278.40492241143301
 20
56.365467262006739
 30
0.0
 11
278.09609538040593
 21
55.711918591357801
 31
0.0
  0
ARC
  5
A6D
  8
C4
 10
279.85154343008361
 20
55.681882864585162
 30
0.0
 40
1.6000000000000001
 50
90.0
 51
154.70745356257581
  0
ARC
  5
A6E
  8
C4
 10
282.60154343008361
 20
38.281882864585157
 30
0.0
 40
1.1000000000000001
 50
90.0
 51
154.70745356257649
  0
LINE
  5
A6F
  8
C4
 10
281.29816444873421
 20
38.098298467163538
 30
0.0
 11
281.6069914797614
 21
38.75184713781249
 31
0.0
  0
ARC
  5
A70
  8
C4
 10
279.85154343008361
 20
38.781882864585093
 30
0.0
 40
1.6000000000000001
 50
270.0
 51
334.70745356257578
  0
ARC
  5
A71
  8
C4
 10
277.10154343008361
 20
38.281882864585157
 30
0.0
 40
1.1000000000000001
 50
25.292546437424171
 51
90.0
  0
LINE
  5
A72
  8
C4
 10
278.40492241143301
 20
38.098298467163538
 30
0.0
 11
278.09609538040593
 21
38.75184713781249
 31
0.0
  0
ARC
  5
A73
  8
C4
 10
279.85154343008361
 20
38.781882864585093
 30
0.0
 40
1.6000000000000001
 50
205.29254643742411
 51
270.0
  0
ARC
  5
A74
  8
C4
 10
288.10154343008361
 20
56.181882864585127
 30
0.0
 40
1.1000000000000001
 50
205.2925464374234
 51
270.0
  0
LINE
  5
A75
  8
C4
 10
286.79816444873421
 20
56.365467262006739
 30
0.0
 11
287.10699147976129
 21
55.711918591357801
 31
0.0
  0
ARC
  5
A76
  8
C4
 10
285.35154343008361
 20
55.681882864585162
 30
0.0
 40
1.6000000000000001
 50
25.292546437424171
 51
90.0
  0
ARC
  5
A77
  8
C4
 10
282.60154343008361
 20
56.181882864585127
 30
0.0
 40
1.1000000000000001
 50
270.0
 51
334.70745356257578
  0
LINE
  5
A78
  8
C4
 10
283.90492241143301
 20
56.365467262006739
 30
0.0
 11
283.59609538040593
 21
55.711918591357801
 31
0.0
  0
ARC
  5
A79
  8
C4
 10
285.35154343008361
 20
55.681882864585162
 30
0.0
 40
1.6000000000000001
 50
90.0
 51
154.70745356257581
  0
ARC
  5
A7A
  8
C4
 10
288.10154343008361
 20
38.281882864585157
 30
0.0
 40
1.1000000000000001
 50
90.0
 51
154.70745356257649
  0
LINE
  5
A7B
  8
C4
 10
286.79816444873421
 20
38.098298467163538
 30
0.0
 11
287.10699147976129
 21
38.75184713781249
 31
0.0
  0
ARC
  5
A7C
  8
C4
 10
285.35154343008361
 20
38.781882864585093
 30
0.0
 40
1.6000000000000001
 50
270.0
 51
334.70745356257578
  0
ARC
  5
A7D
  8
C4
 10
282.60154343008361
 20
38.281882864585157
 30
0.0
 40
1.1000000000000001
 50
25.292546437424171
 51
90.0
  0
LINE
  5
A7E
  8
C4
 10
283.90492241143301
 20
38.098298467163538
 30
0.0
 11
283.59609538040593
 21
38.75184713781249
 31
0.0
  0
ARC
  5
A7F
  8
C4
 10
285.35154343008361
 20
38.781882864585093
 30
0.0
 40
1.6000000000000001
 50
205.29254643742411
 51
270.0
  0
ARC
  5
A80
  8
C4
 10
293.60154343008361
 20
56.181882864585127
 30
0.0
 40
1.1000000000000001
 50
205.2925464374234
 51
270.0
  0
LINE
  5
A81
  8
C4
 10
292.29816444873421
 20
56.365467262006739
 30
0.0
 11
292.6069914797614
 21
55.711918591357801
 31
0.0
  0
ARC
  5
A82
  8
C4
 10
290.85154343008361
 20
55.681882864585162
 30
0.0
 40
1.6000000000000001
 50
25.292546437424171
 51
90.0
  0
ARC
  5
A83
  8
C4
 10
288.10154343008361
 20
56.181882864585127
 30
0.0
 40
1.1000000000000001
 50
270.0
 51
334.70745356257578
  0
LINE
  5
A84
  8
C4
 10
289.40492241143301
 20
56.365467262006739
 30
0.0
 11
289.09609538040593
 21
55.711918591357801
 31
0.0
  0
ARC
  5
A85
  8
C4
 10
290.85154343008361
 20
55.681882864585162
 30
0.0
 40
1.6000000000000001
 50
90.0
 51
154.70745356257581
  0
ARC
  5
A86
  8
C4
 10
293.60154343008361
 20
38.281882864585157
 30
0.0
 40
1.1000000000000001
 50
90.0
 51
154.70745356257649
  0
LINE
  5
A87
  8
C4
 10
292.29816444873421
 20
38.098298467163538
 30
0.0
 11
292.6069914797614
 21
38.75184713781249
 31
0.0
  0
ARC
  5
A88
  8
C4
 10
290.85154343008361
 20
38.781882864585093
 30
0.0
 40
1.6000000000000001
 50
270.0
 51
334.70745356257578
  0
ARC
  5
A89
  8
C4
 10
288.10154343008361
 20
38.281882864585157
 30
0.0
 40
1.1000000000000001
 50
25.292546437424171
 51
90.0
  0
LINE
  5
A8A
  8
C4
 10
289.40492241143301
 20
38.098298467163538
 30
0.0
 11
289.09609538040593
 21
38.75184713781249
 31
0.0
  0
ARC
  5
A8B
  8
C4
 10
290.85154343008361
 20
38.781882864585093
 30
0.0
 40
1.6000000000000001
 50
205.29254643742411
 51
270.0
  0
ARC
  5
A8C
  8
C4
 10
299.10154343008361
 20
56.181882864585127
 30
0.0
 40
1.1000000000000001
 50
205.2925464374234
 51
270.0
  0
LINE
  5
A8D
  8
C4
 10
297.79816444873421
 20
56.365467262006739
 30
0.0
 11
298.1069914797614
 21
55.711918591357801
 31
0.0
  0
ARC
  5
A8E
  8
C4
 10
296.35154343008361
 20
55.681882864585162
 30
0.0
 40
1.6000000000000001
 50
25.292546437424171
 51
90.0
  0
ARC
  5
A8F
  8
C4
 10
293.60154343008361
 20
56.181882864585127
 30
0.0
 40
1.1000000000000001
 50
270.0
 51
334.70745356257578
  0
LINE
  5
A90
  8
C4
 10
294.90492241143301
 20
56.365467262006739
 30
0.0
 11
294.59609538040593
 21
55.711918591357801
 31
0.0
  0
ARC
  5
A91
  8
C4
 10
296.35154343008361
 20
55.681882864585162
 30
0.0
 40
1.6000000000000001
 50
90.0
 51
154.70745356257581
  0
ARC
  5
A92
  8
C4
 10
299.10154343008361
 20
38.281882864585157
 30
0.0
 40
1.1000000000000001
 50
90.0
 51
154.70745356257649
  0
LINE
  5
A93
  8
C4
 10
297.79816444873421
 20
38.098298467163538
 30
0.0
 11
298.1069914797614
 21
38.75184713781249
 31
0.0
  0
ARC
  5
A94
  8
C4
 10
296.35154343008361
 20
38.781882864585093
 30
0.0
 40
1.6000000000000001
 50
270.0
 51
334.70745356257578
  0
ARC
  5
A95
  8
C4
 10
293.60154343008361
 20
38.281882864585157
 30
0.0
 40
1.1000000000000001
 50
25.292546437424171
 51
90.0
  0
LINE
  5
A96
  8
C4
 10
294.90492241143301
 20
38.098298467163538
 30
0.0
 11
294.59609538040593
 21
38.75184713781249
 31
0.0
  0
ARC
  5
A97
  8
C4
 10
296.35154343008361
 20
38.781882864585093
 30
0.0
 40
1.6000000000000001
 50
205.29254643742411
 51
270.0
  0
ARC
  5
A98
  8
C4
 10
304.60154343008361
 20
56.181882864585127
 30
0.0
 40
1.1000000000000001
 50
205.2925464374234
 51
270.0
  0
LINE
  5
A99
  8
C4
 10
303.29816444873421
 20
56.365467262006739
 30
0.0
 11
303.6069914797614
 21
55.711918591357801
 31
0.0
  0
ARC
  5
A9A
  8
C4
 10
301.85154343008361
 20
55.681882864585162
 30
0.0
 40
1.6000000000000001
 50
25.292546437424171
 51
90.0
  0
ARC
  5
A9B
  8
C4
 10
299.10154343008361
 20
56.181882864585127
 30
0.0
 40
1.1000000000000001
 50
270.0
 51
334.70745356257578
  0
LINE
  5
A9C
  8
C4
 10
300.40492241143301
 20
56.365467262006739
 30
0.0
 11
300.09609538040593
 21
55.711918591357801
 31
0.0
  0
ARC
  5
A9D
  8
C4
 10
301.85154343008361
 20
55.681882864585162
 30
0.0
 40
1.6000000000000001
 50
90.0
 51
154.70745356257581
  0
ARC
  5
A9E
  8
C4
 10
304.60154343008361
 20
38.281882864585157
 30
0.0
 40
1.1000000000000001
 50
90.0
 51
154.70745356257649
  0
LINE
  5
A9F
  8
C4
 10
303.29816444873421
 20
38.098298467163538
 30
0.0
 11
303.6069914797614
 21
38.75184713781249
 31
0.0
  0
ARC
  5
AA0
  8
C4
 10
301.85154343008361
 20
38.781882864585093
 30
0.0
 40
1.6000000000000001
 50
270.0
 51
334.70745356257578
  0
ARC
  5
AA1
  8
C4
 10
299.10154343008361
 20
38.281882864585157
 30
0.0
 40
1.1000000000000001
 50
25.292546437424171
 51
90.0
  0
LINE
  5
AA2
  8
C4
 10
300.40492241143301
 20
38.098298467163538
 30
0.0
 11
300.09609538040593
 21
38.75184713781249
 31
0.0
  0
ARC
  5
AA3
  8
C4
 10
301.85154343008361
 20
38.781882864585093
 30
0.0
 40
1.6000000000000001
 50
205.29254643742411
 51
270.0
  0
ARC
  5
AA4
  8
C4
 10
310.10154343008361
 20
56.181882864585127
 30
0.0
 40
1.1000000000000001
 50
205.2925464374234
 51
270.0
  0
LINE
  5
AA5
  8
C4
 10
308.79816444873421
 20
56.365467262006739
 30
0.0
 11
309.1069914797614
 21
55.711918591357801
 31
0.0
  0
ARC
  5
AA6
  8
C4
 10
307.35154343008361
 20
55.681882864585162
 30
0.0
 40
1.6000000000000001
 50
25.292546437424171
 51
90.0
  0
ARC
  5
AA7
  8
C4
 10
304.60154343008361
 20
56.181882864585127
 30
0.0
 40
1.1000000000000001
 50
270.0
 51
334.70745356257578
  0
LINE
  5
AA8
  8
C4
 10
305.90492241143301
 20
56.365467262006739
 30
0.0
 11
305.59609538040593
 21
55.711918591357801
 31
0.0
  0
ARC
  5
AA9
  8
C4
 10
307.35154343008361
 20
55.681882864585162
 30
0.0
 40
1.6000000000000001
 50
90.0
 51
154.70745356257581
  0
ARC
  5
AAA
  8
C4
 10
310.10154343008361
 20
38.281882864585157
 30
0.0
 40
1.1000000000000001
 50
90.0
 51
154.70745356257649
  0
LINE
  5
AAB
  8
C4
 10
308.79816444873421
 20
38.098298467163538
 30
0.0
 11
309.1069914797614
 21
38.75184713781249
 31
0.0
  0
ARC
  5
AAC
  8
C4
 10
307.35154343008361
 20
38.781882864585093
 30
0.0
 40
1.6000000000000001
 50
270.0
 51
334.70745356257578
  0
ARC
  5
AAD
  8
C4
 10
304.60154343008361
 20
38.281882864585157
 30
0.0
 40
1.1000000000000001
 50
25.292546437424171
 51
90.0
  0
LINE
  5
AAE
  8
C4
 10
305.90492241143301
 20
38.098298467163538
 30
0.0
 11
305.59609538040593
 21
38.75184713781249
 31
0.0
  0
ARC
  5
AAF
  8
C4
 10
307.35154343008361
 20
38.781882864585093
 30
0.0
 40
1.6000000000000001
 50
205.29254643742411
 51
270.0
  0
ARC
  5
AB0
  8
C4
 10
315.60154343008361
 20
56.181882864585127
 30
0.0
 40
1.1000000000000001
 50
205.2925464374234
 51
270.0
  0
LINE
  5
AB1
  8
C4
 10
314.29816444873421
 20
56.365467262006739
 30
0.0
 11
314.6069914797614
 21
55.711918591357801
 31
0.0
  0
ARC
  5
AB2
  8
C4
 10
312.85154343008361
 20
55.681882864585162
 30
0.0
 40
1.6000000000000001
 50
25.292546437424171
 51
90.0
  0
ARC
  5
AB3
  8
C4
 10
310.10154343008361
 20
56.181882864585127
 30
0.0
 40
1.1000000000000001
 50
270.0
 51
334.70745356257578
  0
LINE
  5
AB4
  8
C4
 10
311.40492241143301
 20
56.365467262006739
 30
0.0
 11
311.09609538040593
 21
55.711918591357801
 31
0.0
  0
ARC
  5
AB5
  8
C4
 10
312.85154343008361
 20
55.681882864585162
 30
0.0
 40
1.6000000000000001
 50
90.0
 51
154.70745356257581
  0
ARC
  5
AB6
  8
C4
 10
315.60154343008361
 20
38.281882864585157
 30
0.0
 40
1.1000000000000001
 50
90.0
 51
154.70745356257649
  0
LINE
  5
AB7
  8
C4
 10
314.29816444873421
 20
38.098298467163538
 30
0.0
 11
314.6069914797614
 21
38.75184713781249
 31
0.0
  0
ARC
  5
AB8
  8
C4
 10
312.85154343008361
 20
38.781882864585093
 30
0.0
 40
1.6000000000000001
 50
270.0
 51
334.70745356257578
  0
ARC
  5
AB9
  8
C4
 10
310.10154343008361
 20
38.281882864585157
 30
0.0
 40
1.1000000000000001
 50
25.292546437424171
 51
90.0
  0
LINE
  5
ABA
  8
C4
 10
311.40492241143301
 20
38.098298467163538
 30
0.0
 11
311.09609538040593
 21
38.75184713781249
 31
0.0
  0
ARC
  5
ABB
  8
C4
 10
312.85154343008361
 20
38.781882864585093
 30
0.0
 40
1.6000000000000001
 50
205.29254643742411
 51
270.0
  0
ARC
  5
ABC
  8
C4
 10
321.10154343008361
 20
56.181882864585127
 30
0.0
 40
1.1000000000000001
 50
205.2925464374234
 51
270.0
  0
LINE
  5
ABD
  8
C4
 10
319.79816444873421
 20
56.365467262006739
 30
0.0
 11
320.1069914797614
 21
55.711918591357801
 31
0.0
  0
ARC
  5
ABE
  8
C4
 10
318.35154343008361
 20
55.681882864585162
 30
0.0
 40
1.6000000000000001
 50
25.292546437424171
 51
90.0
  0
ARC
  5
ABF
  8
C4
 10
315.60154343008361
 20
56.181882864585127
 30
0.0
 40
1.1000000000000001
 50
270.0
 51
334.70745356257578
  0
LINE
  5
AC0
  8
C4
 10
316.90492241143301
 20
56.365467262006739
 30
0.0
 11
316.59609538040593
 21
55.711918591357801
 31
0.0
  0
ARC
  5
AC1
  8
C4
 10
318.35154343008361
 20
55.681882864585162
 30
0.0
 40
1.6000000000000001
 50
90.0
 51
154.70745356257581
  0
ARC
  5
AC2
  8
C4
 10
321.10154343008361
 20
38.281882864585157
 30
0.0
 40
1.1000000000000001
 50
90.0
 51
154.70745356257649
  0
LINE
  5
AC3
  8
C4
 10
319.79816444873421
 20
38.098298467163538
 30
0.0
 11
320.1069914797614
 21
38.75184713781249
 31
0.0
  0
ARC
  5
AC4
  8
C4
 10
318.35154343008361
 20
38.781882864585093
 30
0.0
 40
1.6000000000000001
 50
270.0
 51
334.70745356257578
  0
ARC
  5
AC5
  8
C4
 10
315.60154343008361
 20
38.281882864585157
 30
0.0
 40
1.1000000000000001
 50
25.292546437424171
 51
90.0
  0
LINE
  5
AC6
  8
C4
 10
316.90492241143301
 20
38.098298467163538
 30
0.0
 11
316.59609538040593
 21
38.75184713781249
 31
0.0
  0
ARC
  5
AC7
  8
C4
 10
318.35154343008361
 20
38.781882864585093
 30
0.0
 40
1.6000000000000001
 50
205.29254643742411
 51
270.0
  0
ARC
  5
AC8
  8
C4
 10
326.60154343008361
 20
56.181882864585127
 30
0.0
 40
1.1000000000000001
 50
205.2925464374234
 51
270.0
  0
LINE
  5
AC9
  8
C4
 10
325.29816444873421
 20
56.365467262006739
 30
0.0
 11
325.6069914797614
 21
55.711918591357801
 31
0.0
  0
ARC
  5
ACA
  8
C4
 10
323.85154343008361
 20
55.681882864585162
 30
0.0
 40
1.6000000000000001
 50
25.292546437424171
 51
90.0
  0
ARC
  5
ACB
  8
C4
 10
321.10154343008361
 20
56.181882864585127
 30
0.0
 40
1.1000000000000001
 50
270.0
 51
334.70745356257578
  0
LINE
  5
ACC
  8
C4
 10
322.40492241143301
 20
56.365467262006739
 30
0.0
 11
322.09609538040593
 21
55.711918591357801
 31
0.0
  0
ARC
  5
ACD
  8
C4
 10
323.85154343008361
 20
55.681882864585162
 30
0.0
 40
1.6000000000000001
 50
90.0
 51
154.70745356257581
  0
ARC
  5
ACE
  8
C4
 10
326.60154343008361
 20
38.281882864585157
 30
0.0
 40
1.1000000000000001
 50
90.0
 51
154.70745356257649
  0
LINE
  5
ACF
  8
C4
 10
325.29816444873421
 20
38.098298467163538
 30
0.0
 11
325.6069914797614
 21
38.75184713781249
 31
0.0
  0
ARC
  5
AD0
  8
C4
 10
323.85154343008361
 20
38.781882864585093
 30
0.0
 40
1.6000000000000001
 50
270.0
 51
334.70745356257578
  0
ARC
  5
AD1
  8
C4
 10
321.10154343008361
 20
38.281882864585157
 30
0.0
 40
1.1000000000000001
 50
25.292546437424171
 51
90.0
  0
LINE
  5
AD2
  8
C4
 10
322.40492241143301
 20
38.098298467163538
 30
0.0
 11
322.09609538040593
 21
38.75184713781249
 31
0.0
  0
ARC
  5
AD3
  8
C4
 10
323.85154343008361
 20
38.781882864585093
 30
0.0
 40
1.6000000000000001
 50
205.29254643742411
 51
270.0
  0
ARC
  5
AD4
  8
C4
 10
332.10154343008361
 20
56.181882864585127
 30
0.0
 40
1.1000000000000001
 50
205.2925464374234
 51
270.0
  0
LINE
  5
AD5
  8
C4
 10
330.79816444873421
 20
56.365467262006739
 30
0.0
 11
331.10699147976129
 21
55.711918591357801
 31
0.0
  0
ARC
  5
AD6
  8
C4
 10
329.35154343008361
 20
55.681882864585162
 30
0.0
 40
1.6000000000000001
 50
25.292546437424171
 51
90.0
  0
ARC
  5
AD7
  8
C4
 10
326.60154343008361
 20
56.181882864585127
 30
0.0
 40
1.1000000000000001
 50
270.0
 51
334.70745356257578
  0
LINE
  5
AD8
  8
C4
 10
327.90492241143301
 20
56.365467262006739
 30
0.0
 11
327.59609538040593
 21
55.711918591357801
 31
0.0
  0
ARC
  5
AD9
  8
C4
 10
329.35154343008361
 20
55.681882864585162
 30
0.0
 40
1.6000000000000001
 50
90.0
 51
154.70745356257581
  0
ARC
  5
ADA
  8
C4
 10
332.10154343008361
 20
38.281882864585157
 30
0.0
 40
1.1000000000000001
 50
90.0
 51
154.70745356257649
  0
LINE
  5
ADB
  8
C4
 10
330.79816444873421
 20
38.098298467163538
 30
0.0
 11
331.10699147976129
 21
38.75184713781249
 31
0.0
  0
ARC
  5
ADC
  8
C4
 10
329.35154343008361
 20
38.781882864585093
 30
0.0
 40
1.6000000000000001
 50
270.0
 51
334.70745356257578
  0
ARC
  5
ADD
  8
C4
 10
326.60154343008361
 20
38.281882864585157
 30
0.0
 40
1.1000000000000001
 50
25.292546437424171
 51
90.0
  0
LINE
  5
ADE
  8
C4
 10
327.90492241143301
 20
38.098298467163538
 30
0.0
 11
327.59609538040593
 21
38.75184713781249
 31
0.0
  0
ARC
  5
ADF
  8
C4
 10
329.35154343008361
 20
38.781882864585093
 30
0.0
 40
1.6000000000000001
 50
205.29254643742411
 51
270.0
  0
ARC
  5
AE0
  8
C4
 10
337.60154343008361
 20
56.181882864585127
 30
0.0
 40
1.1000000000000001
 50
205.2925464374234
 51
270.0
  0
LINE
  5
AE1
  8
C4
 10
336.29816444873421
 20
56.365467262006739
 30
0.0
 11
336.6069914797614
 21
55.711918591357801
 31
0.0
  0
ARC
  5
AE2
  8
C4
 10
334.85154343008361
 20
55.681882864585162
 30
0.0
 40
1.6000000000000001
 50
25.292546437424171
 51
90.0
  0
ARC
  5
AE3
  8
C4
 10
332.10154343008361
 20
56.181882864585127
 30
0.0
 40
1.1000000000000001
 50
270.0
 51
334.70745356257578
  0
LINE
  5
AE4
  8
C4
 10
333.40492241143301
 20
56.365467262006739
 30
0.0
 11
333.09609538040593
 21
55.711918591357801
 31
0.0
  0
ARC
  5
AE5
  8
C4
 10
334.85154343008361
 20
55.681882864585162
 30
0.0
 40
1.6000000000000001
 50
90.0
 51
154.70745356257581
  0
ARC
  5
AE6
  8
C4
 10
337.60154343008361
 20
38.281882864585157
 30
0.0
 40
1.1000000000000001
 50
90.0
 51
154.70745356257649
  0
LINE
  5
AE7
  8
C4
 10
336.29816444873421
 20
38.098298467163538
 30
0.0
 11
336.6069914797614
 21
38.75184713781249
 31
0.0
  0
ARC
  5
AE8
  8
C4
 10
334.85154343008361
 20
38.781882864585093
 30
0.0
 40
1.6000000000000001
 50
270.0
 51
334.70745356257578
  0
ARC
  5
AE9
  8
C4
 10
332.10154343008361
 20
38.281882864585157
 30
0.0
 40
1.1000000000000001
 50
25.292546437424171
 51
90.0
  0
LINE
  5
AEA
  8
C4
 10
333.40492241143301
 20
38.098298467163538
 30
0.0
 11
333.09609538040593
 21
38.75184713781249
 31
0.0
  0
ARC
  5
AEB
  8
C4
 10
334.85154343008361
 20
38.781882864585093
 30
0.0
 40
1.6000000000000001
 50
205.29254643742411
 51
270.0
  0
ARC
  5
AEC
  8
C4
 10
343.10154343008361
 20
56.181882864585127
 30
0.0
 40
1.1000000000000001
 50
205.2925464374234
 51
270.0
  0
LINE
  5
AED
  8
C4
 10
341.79816444873421
 20
56.365467262006739
 30
0.0
 11
342.1069914797614
 21
55.711918591357801
 31
0.0
  0
ARC
  5
AEE
  8
C4
 10
340.35154343008361
 20
55.681882864585162
 30
0.0
 40
1.6000000000000001
 50
25.292546437424171
 51
90.0
  0
ARC
  5
AEF
  8
C4
 10
337.60154343008361
 20
56.181882864585127
 30
0.0
 40
1.1000000000000001
 50
270.0
 51
334.70745356257578
  0
LINE
  5
AF0
  8
C4
 10
338.90492241143301
 20
56.365467262006739
 30
0.0
 11
338.59609538040593
 21
55.711918591357801
 31
0.0
  0
ARC
  5
AF1
  8
C4
 10
340.35154343008361
 20
55.681882864585162
 30
0.0
 40
1.6000000000000001
 50
90.0
 51
154.70745356257581
  0
ARC
  5
AF2
  8
C4
 10
343.10154343008361
 20
38.281882864585157
 30
0.0
 40
1.1000000000000001
 50
90.0
 51
154.70745356257649
  0
LINE
  5
AF3
  8
C4
 10
341.79816444873421
 20
38.098298467163538
 30
0.0
 11
342.1069914797614
 21
38.75184713781249
 31
0.0
  0
ARC
  5
AF4
  8
C4
 10
340.35154343008361
 20
38.781882864585093
 30
0.0
 40
1.6000000000000001
 50
270.0
 51
334.70745356257578
  0
ARC
  5
AF5
  8
C4
 10
337.60154343008361
 20
38.281882864585157
 30
0.0
 40
1.1000000000000001
 50
25.292546437424171
 51
90.0
  0
LINE
  5
AF6
  8
C4
 10
338.90492241143301
 20
38.098298467163538
 30
0.0
 11
338.59609538040593
 21
38.75184713781249
 31
0.0
  0
ARC
  5
AF7
  8
C4
 10
340.35154343008361
 20
38.781882864585093
 30
0.0
 40
1.6000000000000001
 50
205.29254643742411
 51
270.0
  0
ARC
  5
AF8
  8
C4
 10
348.60154343008361
 20
56.181882864585127
 30
0.0
 40
1.1000000000000001
 50
205.2925464374234
 51
270.0
  0
LINE
  5
AF9
  8
C4
 10
347.29816444873421
 20
56.365467262006739
 30
0.0
 11
347.60699147976129
 21
55.711918591357801
 31
0.0
  0
ARC
  5
AFA
  8
C4
 10
345.85154343008361
 20
55.681882864585162
 30
0.0
 40
1.6000000000000001
 50
25.292546437424171
 51
90.0
  0
ARC
  5
AFB
  8
C4
 10
343.10154343008361
 20
56.181882864585127
 30
0.0
 40
1.1000000000000001
 50
270.0
 51
334.70745356257578
  0
LINE
  5
AFC
  8
C4
 10
344.40492241143301
 20
56.365467262006739
 30
0.0
 11
344.09609538040593
 21
55.711918591357801
 31
0.0
  0
ARC
  5
AFD
  8
C4
 10
345.85154343008361
 20
55.681882864585162
 30
0.0
 40
1.6000000000000001
 50
90.0
 51
154.70745356257581
  0
ARC
  5
AFE
  8
C4
 10
348.60154343008361
 20
38.281882864585157
 30
0.0
 40
1.1000000000000001
 50
90.0
 51
154.70745356257649
  0
LINE
  5
AFF
  8
C4
 10
347.29816444873421
 20
38.098298467163538
 30
0.0
 11
347.60699147976129
 21
38.75184713781249
 31
0.0
  0
ARC
  5
B00
  8
C4
 10
345.85154343008361
 20
38.781882864585093
 30
0.0
 40
1.6000000000000001
 50
270.0
 51
334.70745356257578
  0
ARC
  5
B01
  8
C4
 10
343.10154343008361
 20
38.281882864585157
 30
0.0
 40
1.1000000000000001
 50
25.292546437424171
 51
90.0
  0
LINE
  5
B02
  8
C4
 10
344.40492241143301
 20
38.098298467163538
 30
0.0
 11
344.09609538040593
 21
38.75184713781249
 31
0.0
  0
ARC
  5
B03
  8
C4
 10
345.85154343008361
 20
38.781882864585093
 30
0.0
 40
1.6000000000000001
 50
205.29254643742411
 51
270.0
  0
ARC
  5
B04
  8
C4
 10
354.10154343008361
 20
56.181882864585127
 30
0.0
 40
1.1000000000000001
 50
205.2925464374234
 51
270.0
  0
LINE
  5
B05
  8
C4
 10
352.79816444873421
 20
56.365467262006739
 30
0.0
 11
353.1069914797614
 21
55.711918591357801
 31
0.0
  0
ARC
  5
B06
  8
C4
 10
351.35154343008361
 20
55.681882864585162
 30
0.0
 40
1.6000000000000001
 50
25.292546437424171
 51
90.0
  0
ARC
  5
B07
  8
C4
 10
348.60154343008361
 20
56.181882864585127
 30
0.0
 40
1.1000000000000001
 50
270.0
 51
334.70745356257578
  0
LINE
  5
B08
  8
C4
 10
349.90492241143301
 20
56.365467262006739
 30
0.0
 11
349.59609538040593
 21
55.711918591357801
 31
0.0
  0
ARC
  5
B09
  8
C4
 10
351.35154343008361
 20
55.681882864585162
 30
0.0
 40
1.6000000000000001
 50
90.0
 51
154.70745356257581
  0
ARC
  5
B0A
  8
C4
 10
354.10154343008361
 20
38.281882864585157
 30
0.0
 40
1.1000000000000001
 50
90.0
 51
154.70745356257649
  0
LINE
  5
B0B
  8
C4
 10
352.79816444873421
 20
38.098298467163538
 30
0.0
 11
353.1069914797614
 21
38.75184713781249
 31
0.0
  0
ARC
  5
B0C
  8
C4
 10
351.35154343008361
 20
38.781882864585093
 30
0.0
 40
1.6000000000000001
 50
270.0
 51
334.70745356257578
  0
ARC
  5
B0D
  8
C4
 10
348.60154343008361
 20
38.281882864585157
 30
0.0
 40
1.1000000000000001
 50
25.292546437424171
 51
90.0
  0
LINE
  5
B0E
  8
C4
 10
349.90492241143301
 20
38.098298467163538
 30
0.0
 11
349.59609538040593
 21
38.75184713781249
 31
0.0
  0
ARC
  5
B0F
  8
C4
 10
351.35154343008361
 20
38.781882864585093
 30
0.0
 40
1.6000000000000001
 50
205.29254643742411
 51
270.0
  0
ARC
  5
B10
  8
C4
 10
359.60154343008361
 20
56.181882864585127
 30
0.0
 40
1.1000000000000001
 50
205.2925464374234
 51
270.0
  0
LINE
  5
B11
  8
C4
 10
358.29816444873421
 20
56.365467262006739
 30
0.0
 11
358.6069914797614
 21
55.711918591357801
 31
0.0
  0
ARC
  5
B12
  8
C4
 10
356.85154343008361
 20
55.681882864585162
 30
0.0
 40
1.6000000000000001
 50
25.292546437424171
 51
90.0
  0
ARC
  5
B13
  8
C4
 10
354.10154343008361
 20
56.181882864585127
 30
0.0
 40
1.1000000000000001
 50
270.0
 51
334.70745356257578
  0
LINE
  5
B14
  8
C4
 10
355.40492241143301
 20
56.365467262006739
 30
0.0
 11
355.09609538040593
 21
55.711918591357801
 31
0.0
  0
ARC
  5
B15
  8
C4
 10
356.85154343008361
 20
55.681882864585162
 30
0.0
 40
1.6000000000000001
 50
90.0
 51
154.70745356257581
  0
ARC
  5
B16
  8
C4
 10
359.60154343008361
 20
38.281882864585157
 30
0.0
 40
1.1000000000000001
 50
90.0
 51
154.70745356257649
  0
LINE
  5
B17
  8
C4
 10
358.29816444873421
 20
38.098298467163538
 30
0.0
 11
358.6069914797614
 21
38.75184713781249
 31
0.0
  0
ARC
  5
B18
  8
C4
 10
356.85154343008361
 20
38.781882864585093
 30
0.0
 40
1.6000000000000001
 50
270.0
 51
334.70745356257578
  0
ARC
  5
B19
  8
C4
 10
354.10154343008361
 20
38.281882864585157
 30
0.0
 40
1.1000000000000001
 50
25.292546437424171
 51
90.0
  0
LINE
  5
B1A
  8
C4
 10
355.40492241143301
 20
38.098298467163538
 30
0.0
 11
355.09609538040593
 21
38.75184713781249
 31
0.0
  0
ARC
  5
B1B
  8
C4
 10
356.85154343008361
 20
38.781882864585093
 30
0.0
 40
1.6000000000000001
 50
205.29254643742411
 51
270.0
  0
ARC
  5
B1C
  8
C4
 10
365.10154343008361
 20
56.181882864585127
 30
0.0
 40
1.1000000000000001
 50
205.2925464374234
 51
270.0
  0
LINE
  5
B1D
  8
C4
 10
363.79816444873421
 20
56.365467262006739
 30
0.0
 11
364.10699147976129
 21
55.711918591357801
 31
0.0
  0
ARC
  5
B1E
  8
C4
 10
362.35154343008361
 20
55.681882864585162
 30
0.0
 40
1.6000000000000001
 50
25.292546437424171
 51
90.0
  0
ARC
  5
B1F
  8
C4
 10
359.60154343008361
 20
56.181882864585127
 30
0.0
 40
1.1000000000000001
 50
270.0
 51
334.70745356257578
  0
LINE
  5
B20
  8
C4
 10
360.90492241143301
 20
56.365467262006739
 30
0.0
 11
360.59609538040593
 21
55.711918591357801
 31
0.0
  0
ARC
  5
B21
  8
C4
 10
362.35154343008361
 20
55.681882864585162
 30
0.0
 40
1.6000000000000001
 50
90.0
 51
154.70745356257581
  0
ARC
  5
B22
  8
C4
 10
365.10154343008361
 20
38.281882864585157
 30
0.0
 40
1.1000000000000001
 50
90.0
 51
154.70745356257649
  0
LINE
  5
B23
  8
C4
 10
363.79816444873421
 20
38.098298467163538
 30
0.0
 11
364.10699147976129
 21
38.75184713781249
 31
0.0
  0
ARC
  5
B24
  8
C4
 10
362.35154343008361
 20
38.781882864585093
 30
0.0
 40
1.6000000000000001
 50
270.0
 51
334.70745356257578
  0
ARC
  5
B25
  8
C4
 10
359.60154343008361
 20
38.281882864585157
 30
0.0
 40
1.1000000000000001
 50
25.292546437424171
 51
90.0
  0
LINE
  5
B26
  8
C4
 10
360.90492241143301
 20
38.098298467163538
 30
0.0
 11
360.59609538040593
 21
38.75184713781249
 31
0.0
  0
ARC
  5
B27
  8
C4
 10
362.35154343008361
 20
38.781882864585093
 30
0.0
 40
1.6000000000000001
 50
205.29254643742411
 51
270.0
  0
ARC
  5
B28
  8
C4
 10
370.60154343008361
 20
56.181882864585127
 30
0.0
 40
1.1000000000000001
 50
205.2925464374234
 51
270.0
  0
LINE
  5
B29
  8
C4
 10
369.29816444873421
 20
56.365467262006739
 30
0.0
 11
369.6069914797614
 21
55.711918591357801
 31
0.0
  0
ARC
  5
B2A
  8
C4
 10
367.85154343008361
 20
55.681882864585162
 30
0.0
 40
1.6000000000000001
 50
25.292546437424171
 51
90.0
  0
ARC
  5
B2B
  8
C4
 10
365.10154343008361
 20
56.181882864585127
 30
0.0
 40
1.1000000000000001
 50
270.0
 51
334.70745356257578
  0
LINE
  5
B2C
  8
C4
 10
366.40492241143301
 20
56.365467262006739
 30
0.0
 11
366.09609538040593
 21
55.711918591357801
 31
0.0
  0
ARC
  5
B2D
  8
C4
 10
367.85154343008361
 20
55.681882864585162
 30
0.0
 40
1.6000000000000001
 50
90.0
 51
154.70745356257581
  0
ARC
  5
B2E
  8
C4
 10
370.60154343008361
 20
38.281882864585157
 30
0.0
 40
1.1000000000000001
 50
90.0
 51
154.70745356257649
  0
LINE
  5
B2F
  8
C4
 10
369.29816444873421
 20
38.098298467163538
 30
0.0
 11
369.6069914797614
 21
38.75184713781249
 31
0.0
  0
ARC
  5
B30
  8
C4
 10
367.85154343008361
 20
38.781882864585093
 30
0.0
 40
1.6000000000000001
 50
270.0
 51
334.70745356257578
  0
ARC
  5
B31
  8
C4
 10
365.10154343008361
 20
38.281882864585157
 30
0.0
 40
1.1000000000000001
 50
25.292546437424171
 51
90.0
  0
LINE
  5
B32
  8
C4
 10
366.40492241143301
 20
38.098298467163538
 30
0.0
 11
366.09609538040593
 21
38.75184713781249
 31
0.0
  0
ARC
  5
B33
  8
C4
 10
367.85154343008361
 20
38.781882864585093
 30
0.0
 40
1.6000000000000001
 50
205.29254643742411
 51
270.0
  0
ARC
  5
B34
  8
C4
 10
376.10154343008361
 20
56.181882864585127
 30
0.0
 40
1.1000000000000001
 50
205.2925464374234
 51
270.0
  0
LINE
  5
B35
  8
C4
 10
374.79816444873421
 20
56.365467262006739
 30
0.0
 11
375.1069914797614
 21
55.711918591357801
 31
0.0
  0
ARC
  5
B36
  8
C4
 10
373.35154343008361
 20
55.681882864585162
 30
0.0
 40
1.6000000000000001
 50
25.292546437424171
 51
90.0
  0
ARC
  5
B37
  8
C4
 10
370.60154343008361
 20
56.181882864585127
 30
0.0
 40
1.1000000000000001
 50
270.0
 51
334.70745356257578
  0
LINE
  5
B38
  8
C4
 10
371.90492241143301
 20
56.365467262006739
 30
0.0
 11
371.59609538040593
 21
55.711918591357801
 31
0.0
  0
ARC
  5
B39
  8
C4
 10
373.35154343008361
 20
55.681882864585162
 30
0.0
 40
1.6000000000000001
 50
90.0
 51
154.70745356257581
  0
ARC
  5
B3A
  8
C4
 10
376.10154343008361
 20
38.281882864585157
 30
0.0
 40
1.1000000000000001
 50
90.0
 51
154.70745356257649
  0
LINE
  5
B3B
  8
C4
 10
374.79816444873421
 20
38.098298467163538
 30
0.0
 11
375.1069914797614
 21
38.75184713781249
 31
0.0
  0
ARC
  5
B3C
  8
C4
 10
373.35154343008361
 20
38.781882864585093
 30
0.0
 40
1.6000000000000001
 50
270.0
 51
334.70745356257578
  0
ARC
  5
B3D
  8
C4
 10
370.60154343008361
 20
38.281882864585157
 30
0.0
 40
1.1000000000000001
 50
25.292546437424171
 51
90.0
  0
LINE
  5
B3E
  8
C4
 10
371.90492241143301
 20
38.098298467163538
 30
0.0
 11
371.59609538040593
 21
38.75184713781249
 31
0.0
  0
ARC
  5
B3F
  8
C4
 10
373.35154343008361
 20
38.781882864585093
 30
0.0
 40
1.6000000000000001
 50
205.29254643742411
 51
270.0
  0
ARC
  5
B40
  8
C4
 10
381.60154343008361
 20
56.181882864585127
 30
0.0
 40
1.1000000000000001
 50
205.2925464374234
 51
270.0
  0
LINE
  5
B41
  8
C4
 10
380.29816444873421
 20
56.365467262006739
 30
0.0
 11
380.6069914797614
 21
55.711918591357801
 31
0.0
  0
ARC
  5
B42
  8
C4
 10
378.85154343008361
 20
55.681882864585162
 30
0.0
 40
1.6000000000000001
 50
25.292546437424171
 51
90.0
  0
ARC
  5
B43
  8
C4
 10
376.10154343008361
 20
56.181882864585127
 30
0.0
 40
1.1000000000000001
 50
270.0
 51
334.70745356257578
  0
LINE
  5
B44
  8
C4
 10
377.40492241143301
 20
56.365467262006739
 30
0.0
 11
377.09609538040593
 21
55.711918591357801
 31
0.0
  0
ARC
  5
B45
  8
C4
 10
378.85154343008361
 20
55.681882864585162
 30
0.0
 40
1.6000000000000001
 50
90.0
 51
154.70745356257581
  0
ARC
  5
B46
  8
C4
 10
381.60154343008361
 20
38.281882864585157
 30
0.0
 40
1.1000000000000001
 50
90.0
 51
154.70745356257649
  0
LINE
  5
B47
  8
C4
 10
380.29816444873421
 20
38.098298467163538
 30
0.0
 11
380.6069914797614
 21
38.75184713781249
 31
0.0
  0
ARC
  5
B48
  8
C4
 10
378.85154343008361
 20
38.781882864585093
 30
0.0
 40
1.6000000000000001
 50
270.0
 51
334.70745356257578
  0
ARC
  5
B49
  8
C4
 10
376.10154343008361
 20
38.281882864585157
 30
0.0
 40
1.1000000000000001
 50
25.292546437424171
 51
90.0
  0
LINE
  5
B4A
  8
C4
 10
377.40492241143301
 20
38.098298467163538
 30
0.0
 11
377.09609538040593
 21
38.75184713781249
 31
0.0
  0
ARC
  5
B4B
  8
C4
 10
378.85154343008361
 20
38.781882864585093
 30
0.0
 40
1.6000000000000001
 50
205.29254643742411
 51
270.0
  0
ARC
  5
B4C
  8
C4
 10
387.10154343008361
 20
56.181882864585127
 30
0.0
 40
1.1000000000000001
 50
205.2925464374234
 51
270.0
  0
LINE
  5
B4D
  8
C4
 10
385.79816444873421
 20
56.365467262006739
 30
0.0
 11
386.1069914797614
 21
55.711918591357801
 31
0.0
  0
ARC
  5
B4E
  8
C4
 10
384.35154343008361
 20
55.681882864585162
 30
0.0
 40
1.6000000000000001
 50
25.292546437424171
 51
90.0
  0
ARC
  5
B4F
  8
C4
 10
381.60154343008361
 20
56.181882864585127
 30
0.0
 40
1.1000000000000001
 50
270.0
 51
334.70745356257578
  0
LINE
  5
B50
  8
C4
 10
382.90492241143301
 20
56.365467262006739
 30
0.0
 11
382.59609538040593
 21
55.711918591357801
 31
0.0
  0
ARC
  5
B51
  8
C4
 10
384.35154343008361
 20
55.681882864585162
 30
0.0
 40
1.6000000000000001
 50
90.0
 51
154.70745356257581
  0
ARC
  5
B52
  8
C4
 10
387.10154343008361
 20
38.281882864585157
 30
0.0
 40
1.1000000000000001
 50
90.0
 51
154.70745356257649
  0
LINE
  5
B53
  8
C4
 10
385.79816444873421
 20
38.098298467163538
 30
0.0
 11
386.1069914797614
 21
38.75184713781249
 31
0.0
  0
ARC
  5
B54
  8
C4
 10
384.35154343008361
 20
38.781882864585093
 30
0.0
 40
1.6000000000000001
 50
270.0
 51
334.70745356257578
  0
ARC
  5
B55
  8
C4
 10
381.60154343008361
 20
38.281882864585157
 30
0.0
 40
1.1000000000000001
 50
25.292546437424171
 51
90.0
  0
LINE
  5
B56
  8
C4
 10
382.90492241143301
 20
38.098298467163538
 30
0.0
 11
382.59609538040593
 21
38.75184713781249
 31
0.0
  0
ARC
  5
B57
  8
C4
 10
384.35154343008361
 20
38.781882864585093
 30
0.0
 40
1.6000000000000001
 50
205.29254643742411
 51
270.0
  0
ARC
  5
B58
  8
C4
 10
392.60154343008361
 20
56.181882864585127
 30
0.0
 40
1.1000000000000001
 50
205.2925464374234
 51
270.0
  0
LINE
  5
B59
  8
C4
 10
391.29816444873421
 20
56.365467262006739
 30
0.0
 11
391.6069914797614
 21
55.711918591357801
 31
0.0
  0
ARC
  5
B5A
  8
C4
 10
389.85154343008361
 20
55.681882864585162
 30
0.0
 40
1.6000000000000001
 50
25.292546437424171
 51
90.0
  0
ARC
  5
B5B
  8
C4
 10
387.10154343008361
 20
56.181882864585127
 30
0.0
 40
1.1000000000000001
 50
270.0
 51
334.70745356257578
  0
LINE
  5
B5C
  8
C4
 10
388.40492241143301
 20
56.365467262006739
 30
0.0
 11
388.09609538040593
 21
55.711918591357801
 31
0.0
  0
ARC
  5
B5D
  8
C4
 10
389.85154343008361
 20
55.681882864585162
 30
0.0
 40
1.6000000000000001
 50
90.0
 51
154.70745356257581
  0
ARC
  5
B5E
  8
C4
 10
392.60154343008361
 20
38.281882864585157
 30
0.0
 40
1.1000000000000001
 50
90.0
 51
154.70745356257649
  0
LINE
  5
B5F
  8
C4
 10
391.29816444873421
 20
38.098298467163538
 30
0.0
 11
391.6069914797614
 21
38.75184713781249
 31
0.0
  0
ARC
  5
B60
  8
C4
 10
389.85154343008361
 20
38.781882864585093
 30
0.0
 40
1.6000000000000001
 50
270.0
 51
334.70745356257578
  0
ARC
  5
B61
  8
C4
 10
387.10154343008361
 20
38.281882864585157
 30
0.0
 40
1.1000000000000001
 50
25.292546437424171
 51
90.0
  0
LINE
  5
B62
  8
C4
 10
388.40492241143301
 20
38.098298467163538
 30
0.0
 11
388.09609538040593
 21
38.75184713781249
 31
0.0
  0
ARC
  5
B63
  8
C4
 10
389.85154343008361
 20
38.781882864585093
 30
0.0
 40
1.6000000000000001
 50
205.29254643742411
 51
270.0
  0
ARC
  5
B64
  8
C4
 10
398.10154343008361
 20
56.181882864585127
 30
0.0
 40
1.1000000000000001
 50
205.2925464374234
 51
270.0
  0
LINE
  5
B65
  8
C4
 10
396.79816444873421
 20
56.365467262006739
 30
0.0
 11
397.10699147976129
 21
55.711918591357801
 31
0.0
  0
ARC
  5
B66
  8
C4
 10
395.35154343008361
 20
55.681882864585162
 30
0.0
 40
1.6000000000000001
 50
25.292546437424171
 51
90.0
  0
ARC
  5
B67
  8
C4
 10
392.60154343008361
 20
56.181882864585127
 30
0.0
 40
1.1000000000000001
 50
270.0
 51
334.70745356257578
  0
LINE
  5
B68
  8
C4
 10
393.90492241143301
 20
56.365467262006739
 30
0.0
 11
393.59609538040593
 21
55.711918591357801
 31
0.0
  0
ARC
  5
B69
  8
C4
 10
395.35154343008361
 20
55.681882864585162
 30
0.0
 40
1.6000000000000001
 50
90.0
 51
154.70745356257581
  0
ARC
  5
B6A
  8
C4
 10
398.10154343008361
 20
38.281882864585157
 30
0.0
 40
1.1000000000000001
 50
90.0
 51
154.70745356257649
  0
LINE
  5
B6B
  8
C4
 10
396.79816444873421
 20
38.098298467163538
 30
0.0
 11
397.10699147976129
 21
38.75184713781249
 31
0.0
  0
ARC
  5
B6C
  8
C4
 10
395.35154343008361
 20
38.781882864585093
 30
0.0
 40
1.6000000000000001
 50
270.0
 51
334.70745356257578
  0
ARC
  5
B6D
  8
C4
 10
392.60154343008361
 20
38.281882864585157
 30
0.0
 40
1.1000000000000001
 50
25.292546437424171
 51
90.0
  0
LINE
  5
B6E
  8
C4
 10
393.90492241143301
 20
38.098298467163538
 30
0.0
 11
393.59609538040593
 21
38.75184713781249
 31
0.0
  0
ARC
  5
B6F
  8
C4
 10
395.35154343008361
 20
38.781882864585093
 30
0.0
 40
1.6000000000000001
 50
205.29254643742411
 51
270.0
  0
ARC
  5
B70
  8
C4
 10
403.60154343008361
 20
56.181882864585127
 30
0.0
 40
1.1000000000000001
 50
205.2925464374234
 51
270.0
  0
LINE
  5
B71
  8
C4
 10
402.29816444873433
 20
56.365467262006739
 30
0.0
 11
402.6069914797614
 21
55.711918591357801
 31
0.0
  0
ARC
  5
B72
  8
C4
 10
400.85154343008372
 20
55.681882864585162
 30
0.0
 40
1.6000000000000001
 50
25.292546437424171
 51
90.0
  0
ARC
  5
B73
  8
C4
 10
398.10154343008361
 20
56.181882864585127
 30
0.0
 40
1.1000000000000001
 50
270.0
 51
334.70745356257578
  0
LINE
  5
B74
  8
C4
 10
399.40492241143301
 20
56.365467262006739
 30
0.0
 11
399.09609538040593
 21
55.711918591357801
 31
0.0
  0
ARC
  5
B75
  8
C4
 10
400.85154343008372
 20
55.681882864585162
 30
0.0
 40
1.6000000000000001
 50
90.0
 51
154.70745356257581
  0
ARC
  5
B76
  8
C4
 10
403.60154343008361
 20
38.281882864585157
 30
0.0
 40
1.1000000000000001
 50
90.0
 51
154.70745356257649
  0
LINE
  5
B77
  8
C4
 10
402.29816444873433
 20
38.098298467163538
 30
0.0
 11
402.6069914797614
 21
38.75184713781249
 31
0.0
  0
ARC
  5
B78
  8
C4
 10
400.85154343008372
 20
38.781882864585093
 30
0.0
 40
1.6000000000000001
 50
270.0
 51
334.70745356257578
  0
ARC
  5
B79
  8
C4
 10
398.10154343008361
 20
38.281882864585157
 30
0.0
 40
1.1000000000000001
 50
25.292546437424171
 51
90.0
  0
LINE
  5
B7A
  8
C4
 10
399.40492241143301
 20
38.098298467163538
 30
0.0
 11
399.09609538040593
 21
38.75184713781249
 31
0.0
  0
ARC
  5
B7B
  8
C4
 10
400.85154343008372
 20
38.781882864585093
 30
0.0
 40
1.6000000000000001
 50
205.29254643742411
 51
270.0
  0
ARC
  5
B7C
  8
C4
 10
409.10154343008361
 20
56.181882864585127
 30
0.0
 40
1.1000000000000001
 50
205.2925464374234
 51
270.0
  0
LINE
  5
B7D
  8
C4
 10
407.79816444873421
 20
56.365467262006739
 30
0.0
 11
408.10699147976129
 21
55.711918591357801
 31
0.0
  0
ARC
  5
B7E
  8
C4
 10
406.35154343008361
 20
55.681882864585162
 30
0.0
 40
1.6000000000000001
 50
25.292546437424171
 51
90.0
  0
ARC
  5
B7F
  8
C4
 10
403.60154343008361
 20
56.181882864585127
 30
0.0
 40
1.1000000000000001
 50
270.0
 51
334.70745356257578
  0
LINE
  5
B80
  8
C4
 10
404.90492241143301
 20
56.365467262006739
 30
0.0
 11
404.59609538040593
 21
55.711918591357801
 31
0.0
  0
ARC
  5
B81
  8
C4
 10
406.35154343008361
 20
55.681882864585162
 30
0.0
 40
1.6000000000000001
 50
90.0
 51
154.70745356257581
  0
ARC
  5
B82
  8
C4
 10
409.10154343008361
 20
38.281882864585157
 30
0.0
 40
1.1000000000000001
 50
90.0
 51
154.70745356257649
  0
LINE
  5
B83
  8
C4
 10
407.79816444873421
 20
38.098298467163538
 30
0.0
 11
408.10699147976129
 21
38.75184713781249
 31
0.0
  0
ARC
  5
B84
  8
C4
 10
406.35154343008361
 20
38.781882864585093
 30
0.0
 40
1.6000000000000001
 50
270.0
 51
334.70745356257578
  0
ARC
  5
B85
  8
C4
 10
403.60154343008361
 20
38.281882864585157
 30
0.0
 40
1.1000000000000001
 50
25.292546437424171
 51
90.0
  0
LINE
  5
B86
  8
C4
 10
404.90492241143301
 20
38.098298467163538
 30
0.0
 11
404.59609538040593
 21
38.75184713781249
 31
0.0
  0
ARC
  5
B87
  8
C4
 10
406.35154343008361
 20
38.781882864585093
 30
0.0
 40
1.6000000000000001
 50
205.29254643742411
 51
270.0
  0
ARC
  5
B88
  8
C4
 10
414.60154343008361
 20
56.181882864585127
 30
0.0
 40
1.1000000000000001
 50
205.2925464374234
 51
270.0
  0
LINE
  5
B89
  8
C4
 10
413.29816444873421
 20
56.365467262006739
 30
0.0
 11
413.6069914797614
 21
55.711918591357801
 31
0.0
  0
ARC
  5
B8A
  8
C4
 10
411.85154343008361
 20
55.681882864585162
 30
0.0
 40
1.6000000000000001
 50
25.292546437424171
 51
90.0
  0
ARC
  5
B8B
  8
C4
 10
409.10154343008361
 20
56.181882864585127
 30
0.0
 40
1.1000000000000001
 50
270.0
 51
334.70745356257578
  0
LINE
  5
B8C
  8
C4
 10
410.40492241143301
 20
56.365467262006739
 30
0.0
 11
410.09609538040593
 21
55.711918591357801
 31
0.0
  0
ARC
  5
B8D
  8
C4
 10
411.85154343008361
 20
55.681882864585162
 30
0.0
 40
1.6000000000000001
 50
90.0
 51
154.70745356257581
  0
ARC
  5
B8E
  8
C4
 10
414.60154343008361
 20
38.281882864585157
 30
0.0
 40
1.1000000000000001
 50
90.0
 51
154.70745356257649
  0
LINE
  5
B8F
  8
C4
 10
413.29816444873421
 20
38.098298467163538
 30
0.0
 11
413.6069914797614
 21
38.75184713781249
 31
0.0
  0
ARC
  5
B90
  8
C4
 10
411.85154343008361
 20
38.781882864585093
 30
0.0
 40
1.6000000000000001
 50
270.0
 51
334.70745356257578
  0
ARC
  5
B91
  8
C4
 10
409.10154343008361
 20
38.281882864585157
 30
0.0
 40
1.1000000000000001
 50
25.292546437424171
 51
90.0
  0
LINE
  5
B92
  8
C4
 10
410.40492241143301
 20
38.098298467163538
 30
0.0
 11
410.09609538040593
 21
38.75184713781249
 31
0.0
  0
ARC
  5
B93
  8
C4
 10
411.85154343008361
 20
38.781882864585093
 30
0.0
 40
1.6000000000000001
 50
205.29254643742411
 51
270.0
  0
ARC
  5
B94
  8
C4
 10
420.10154343008372
 20
56.181882864585127
 30
0.0
 40
1.1000000000000001
 50
205.2925464374234
 51
270.0
  0
LINE
  5
B95
  8
C4
 10
418.79816444873421
 20
56.365467262006739
 30
0.0
 11
419.1069914797614
 21
55.711918591357801
 31
0.0
  0
ARC
  5
B96
  8
C4
 10
417.35154343008372
 20
55.681882864585162
 30
0.0
 40
1.6000000000000001
 50
25.292546437424171
 51
90.0
  0
ARC
  5
B97
  8
C4
 10
414.60154343008361
 20
56.181882864585127
 30
0.0
 40
1.1000000000000001
 50
270.0
 51
334.70745356257578
  0
LINE
  5
B98
  8
C4
 10
415.90492241143312
 20
56.365467262006739
 30
0.0
 11
415.59609538040593
 21
55.711918591357801
 31
0.0
  0
ARC
  5
B99
  8
C4
 10
417.35154343008372
 20
55.681882864585162
 30
0.0
 40
1.6000000000000001
 50
90.0
 51
154.70745356257581
  0
ARC
  5
B9A
  8
C4
 10
420.10154343008372
 20
38.281882864585157
 30
0.0
 40
1.1000000000000001
 50
90.0
 51
154.70745356257649
  0
LINE
  5
B9B
  8
C4
 10
418.79816444873421
 20
38.098298467163538
 30
0.0
 11
419.1069914797614
 21
38.75184713781249
 31
0.0
  0
ARC
  5
B9C
  8
C4
 10
417.35154343008372
 20
38.781882864585093
 30
0.0
 40
1.6000000000000001
 50
270.0
 51
334.70745356257578
  0
ARC
  5
B9D
  8
C4
 10
414.60154343008361
 20
38.281882864585157
 30
0.0
 40
1.1000000000000001
 50
25.292546437424171
 51
90.0
  0
LINE
  5
B9E
  8
C4
 10
415.90492241143312
 20
38.098298467163538
 30
0.0
 11
415.59609538040593
 21
38.75184713781249
 31
0.0
  0
ARC
  5
B9F
  8
C4
 10
417.35154343008372
 20
38.781882864585093
 30
0.0
 40
1.6000000000000001
 50
205.29254643742411
 51
270.0
  0
ARC
  5
BA0
  8
C4
 10
425.60154343008361
 20
56.181882864585127
 30
0.0
 40
1.1000000000000001
 50
205.2925464374234
 51
270.0
  0
LINE
  5
BA1
  8
C4
 10
424.29816444873421
 20
56.365467262006739
 30
0.0
 11
424.60699147976129
 21
55.711918591357801
 31
0.0
  0
ARC
  5
BA2
  8
C4
 10
422.85154343008361
 20
55.681882864585162
 30
0.0
 40
1.6000000000000001
 50
25.292546437424171
 51
90.0
  0
ARC
  5
BA3
  8
C4
 10
420.10154343008372
 20
56.181882864585127
 30
0.0
 40
1.1000000000000001
 50
270.0
 51
334.70745356257578
  0
LINE
  5
BA4
  8
C4
 10
421.40492241143301
 20
56.365467262006739
 30
0.0
 11
421.09609538040593
 21
55.711918591357801
 31
0.0
  0
ARC
  5
BA5
  8
C4
 10
422.85154343008361
 20
55.681882864585162
 30
0.0
 40
1.6000000000000001
 50
90.0
 51
154.70745356257581
  0
ARC
  5
BA6
  8
C4
 10
425.60154343008361
 20
38.281882864585157
 30
0.0
 40
1.1000000000000001
 50
90.0
 51
154.70745356257649
  0
LINE
  5
BA7
  8
C4
 10
424.29816444873421
 20
38.098298467163538
 30
0.0
 11
424.60699147976129
 21
38.75184713781249
 31
0.0
  0
ARC
  5
BA8
  8
C4
 10
422.85154343008361
 20
38.781882864585093
 30
0.0
 40
1.6000000000000001
 50
270.0
 51
334.70745356257578
  0
ARC
  5
BA9
  8
C4
 10
420.10154343008372
 20
38.281882864585157
 30
0.0
 40
1.1000000000000001
 50
25.292546437424171
 51
90.0
  0
LINE
  5
BAA
  8
C4
 10
421.40492241143301
 20
38.098298467163538
 30
0.0
 11
421.09609538040593
 21
38.75184713781249
 31
0.0
  0
ARC
  5
BAB
  8
C4
 10
422.85154343008361
 20
38.781882864585093
 30
0.0
 40
1.6000000000000001
 50
205.29254643742411
 51
270.0
  0
ARC
  5
BAC
  8
C4
 10
431.10154343008361
 20
56.181882864585127
 30
0.0
 40
1.1000000000000001
 50
205.2925464374234
 51
270.0
  0
LINE
  5
BAD
  8
C4
 10
429.79816444873421
 20
56.365467262006739
 30
0.0
 11
430.1069914797614
 21
55.711918591357801
 31
0.0
  0
ARC
  5
BAE
  8
C4
 10
428.35154343008361
 20
55.681882864585162
 30
0.0
 40
1.6000000000000001
 50
25.292546437424171
 51
90.0
  0
ARC
  5
BAF
  8
C4
 10
425.60154343008361
 20
56.181882864585127
 30
0.0
 40
1.1000000000000001
 50
270.0
 51
334.70745356257578
  0
LINE
  5
BB0
  8
C4
 10
426.90492241143301
 20
56.365467262006739
 30
0.0
 11
426.59609538040593
 21
55.711918591357801
 31
0.0
  0
ARC
  5
BB1
  8
C4
 10
428.35154343008361
 20
55.681882864585162
 30
0.0
 40
1.6000000000000001
 50
90.0
 51
154.70745356257581
  0
ARC
  5
BB2
  8
C4
 10
431.10154343008361
 20
38.281882864585157
 30
0.0
 40
1.1000000000000001
 50
90.0
 51
154.70745356257649
  0
LINE
  5
BB3
  8
C4
 10
429.79816444873421
 20
38.098298467163538
 30
0.0
 11
430.1069914797614
 21
38.75184713781249
 31
0.0
  0
ARC
  5
BB4
  8
C4
 10
428.35154343008361
 20
38.781882864585093
 30
0.0
 40
1.6000000000000001
 50
270.0
 51
334.70745356257578
  0
ARC
  5
BB5
  8
C4
 10
425.60154343008361
 20
38.281882864585157
 30
0.0
 40
1.1000000000000001
 50
25.292546437424171
 51
90.0
  0
LINE
  5
BB6
  8
C4
 10
426.90492241143301
 20
38.098298467163538
 30
0.0
 11
426.59609538040593
 21
38.75184713781249
 31
0.0
  0
ARC
  5
BB7
  8
C4
 10
428.35154343008361
 20
38.781882864585093
 30
0.0
 40
1.6000000000000001
 50
205.29254643742411
 51
270.0
  0
ARC
  5
BB8
  8
C4
 10
436.60154343008372
 20
56.181882864585127
 30
0.0
 40
1.1000000000000001
 50
205.2925464374234
 51
270.0
  0
LINE
  5
BB9
  8
C4
 10
435.29816444873421
 20
56.365467262006739
 30
0.0
 11
435.6069914797614
 21
55.711918591357801
 31
0.0
  0
ARC
  5
BBA
  8
C4
 10
433.85154343008372
 20
55.681882864585162
 30
0.0
 40
1.6000000000000001
 50
25.292546437424171
 51
90.0
  0
ARC
  5
BBB
  8
C4
 10
431.10154343008361
 20
56.181882864585127
 30
0.0
 40
1.1000000000000001
 50
270.0
 51
334.70745356257578
  0
LINE
  5
BBC
  8
C4
 10
432.40492241143312
 20
56.365467262006739
 30
0.0
 11
432.09609538040593
 21
55.711918591357801
 31
0.0
  0
ARC
  5
BBD
  8
C4
 10
433.85154343008372
 20
55.681882864585162
 30
0.0
 40
1.6000000000000001
 50
90.0
 51
154.70745356257581
  0
ARC
  5
BBE
  8
C4
 10
436.60154343008372
 20
38.281882864585157
 30
0.0
 40
1.1000000000000001
 50
90.0
 51
154.70745356257649
  0
LINE
  5
BBF
  8
C4
 10
435.29816444873421
 20
38.098298467163538
 30
0.0
 11
435.6069914797614
 21
38.75184713781249
 31
0.0
  0
ARC
  5
BC0
  8
C4
 10
433.85154343008372
 20
38.781882864585093
 30
0.0
 40
1.6000000000000001
 50
270.0
 51
334.70745356257578
  0
ARC
  5
BC1
  8
C4
 10
431.10154343008361
 20
38.281882864585157
 30
0.0
 40
1.1000000000000001
 50
25.292546437424171
 51
90.0
  0
LINE
  5
BC2
  8
C4
 10
432.40492241143312
 20
38.098298467163538
 30
0.0
 11
432.09609538040593
 21
38.75184713781249
 31
0.0
  0
ARC
  5
BC3
  8
C4
 10
433.85154343008372
 20
38.781882864585093
 30
0.0
 40
1.6000000000000001
 50
205.29254643742411
 51
270.0
  0
ARC
  5
BC4
  8
C4
 10
442.10154343008361
 20
56.181882864585127
 30
0.0
 40
1.1000000000000001
 50
205.2925464374234
 51
270.0
  0
LINE
  5
BC5
  8
C4
 10
440.79816444873421
 20
56.365467262006739
 30
0.0
 11
441.1069914797614
 21
55.711918591357801
 31
0.0
  0
ARC
  5
BC6
  8
C4
 10
439.35154343008361
 20
55.681882864585162
 30
0.0
 40
1.6000000000000001
 50
25.292546437424171
 51
90.0
  0
ARC
  5
BC7
  8
C4
 10
436.60154343008372
 20
56.181882864585127
 30
0.0
 40
1.1000000000000001
 50
270.0
 51
334.70745356257578
  0
LINE
  5
BC8
  8
C4
 10
437.90492241143301
 20
56.365467262006739
 30
0.0
 11
437.59609538040593
 21
55.711918591357801
 31
0.0
  0
ARC
  5
BC9
  8
C4
 10
439.35154343008361
 20
55.681882864585162
 30
0.0
 40
1.6000000000000001
 50
90.0
 51
154.70745356257581
  0
ARC
  5
BCA
  8
C4
 10
442.10154343008361
 20
38.281882864585157
 30
0.0
 40
1.1000000000000001
 50
90.0
 51
154.70745356257649
  0
LINE
  5
BCB
  8
C4
 10
440.79816444873421
 20
38.098298467163538
 30
0.0
 11
441.1069914797614
 21
38.75184713781249
 31
0.0
  0
ARC
  5
BCC
  8
C4
 10
439.35154343008361
 20
38.781882864585093
 30
0.0
 40
1.6000000000000001
 50
270.0
 51
334.70745356257578
  0
ARC
  5
BCD
  8
C4
 10
436.60154343008372
 20
38.281882864585157
 30
0.0
 40
1.1000000000000001
 50
25.292546437424171
 51
90.0
  0
LINE
  5
BCE
  8
C4
 10
437.90492241143301
 20
38.098298467163538
 30
0.0
 11
437.59609538040593
 21
38.75184713781249
 31
0.0
  0
ARC
  5
BCF
  8
C4
 10
439.35154343008361
 20
38.781882864585093
 30
0.0
 40
1.6000000000000001
 50
205.29254643742411
 51
270.0
  0
ARC
  5
BD0
  8
C4
 10
447.60154343008361
 20
56.181882864585127
 30
0.0
 40
1.1000000000000001
 50
205.2925464374234
 51
270.0
  0
LINE
  5
BD1
  8
C4
 10
446.29816444873421
 20
56.365467262006739
 30
0.0
 11
446.60699147976129
 21
55.711918591357801
 31
0.0
  0
ARC
  5
BD2
  8
C4
 10
444.85154343008361
 20
55.681882864585162
 30
0.0
 40
1.6000000000000001
 50
25.292546437424171
 51
90.0
  0
ARC
  5
BD3
  8
C4
 10
442.10154343008361
 20
56.181882864585127
 30
0.0
 40
1.1000000000000001
 50
270.0
 51
334.70745356257578
  0
LINE
  5
BD4
  8
C4
 10
443.40492241143301
 20
56.365467262006739
 30
0.0
 11
443.09609538040593
 21
55.711918591357801
 31
0.0
  0
ARC
  5
BD5
  8
C4
 10
444.85154343008361
 20
55.681882864585162
 30
0.0
 40
1.6000000000000001
 50
90.0
 51
154.70745356257581
  0
ARC
  5
BD6
  8
C4
 10
447.60154343008361
 20
38.281882864585157
 30
0.0
 40
1.1000000000000001
 50
90.0
 51
154.70745356257649
  0
LINE
  5
BD7
  8
C4
 10
446.29816444873421
 20
38.098298467163538
 30
0.0
 11
446.60699147976129
 21
38.75184713781249
 31
0.0
  0
ARC
  5
BD8
  8
C4
 10
444.85154343008361
 20
38.781882864585093
 30
0.0
 40
1.6000000000000001
 50
270.0
 51
334.70745356257578
  0
ARC
  5
BD9
  8
C4
 10
442.10154343008361
 20
38.281882864585157
 30
0.0
 40
1.1000000000000001
 50
25.292546437424171
 51
90.0
  0
LINE
  5
BDA
  8
C4
 10
443.40492241143301
 20
38.098298467163538
 30
0.0
 11
443.09609538040593
 21
38.75184713781249
 31
0.0
  0
ARC
  5
BDB
  8
C4
 10
444.85154343008361
 20
38.781882864585093
 30
0.0
 40
1.6000000000000001
 50
205.29254643742411
 51
270.0
  0
ARC
  5
BDC
  8
C4
 10
453.10154343008372
 20
56.181882864585127
 30
0.0
 40
1.1000000000000001
 50
205.2925464374234
 51
270.0
  0
LINE
  5
BDD
  8
C4
 10
451.79816444873421
 20
56.365467262006739
 30
0.0
 11
452.1069914797614
 21
55.711918591357801
 31
0.0
  0
ARC
  5
BDE
  8
C4
 10
450.35154343008361
 20
55.681882864585162
 30
0.0
 40
1.6000000000000001
 50
25.292546437424171
 51
90.0
  0
ARC
  5
BDF
  8
C4
 10
447.60154343008361
 20
56.181882864585127
 30
0.0
 40
1.1000000000000001
 50
270.0
 51
334.70745356257578
  0
LINE
  5
BE0
  8
C4
 10
448.90492241143312
 20
56.365467262006739
 30
0.0
 11
448.59609538040593
 21
55.711918591357801
 31
0.0
  0
ARC
  5
BE1
  8
C4
 10
450.35154343008361
 20
55.681882864585162
 30
0.0
 40
1.6000000000000001
 50
90.0
 51
154.70745356257581
  0
ARC
  5
BE2
  8
C4
 10
453.10154343008372
 20
38.281882864585157
 30
0.0
 40
1.1000000000000001
 50
90.0
 51
154.70745356257649
  0
LINE
  5
BE3
  8
C4
 10
451.79816444873421
 20
38.098298467163538
 30
0.0
 11
452.1069914797614
 21
38.75184713781249
 31
0.0
  0
ARC
  5
BE4
  8
C4
 10
450.35154343008361
 20
38.781882864585093
 30
0.0
 40
1.6000000000000001
 50
270.0
 51
334.70745356257578
  0
ARC
  5
BE5
  8
C4
 10
447.60154343008361
 20
38.281882864585157
 30
0.0
 40
1.1000000000000001
 50
25.292546437424171
 51
90.0
  0
LINE
  5
BE6
  8
C4
 10
448.90492241143312
 20
38.098298467163538
 30
0.0
 11
448.59609538040593
 21
38.75184713781249
 31
0.0
  0
ARC
  5
BE7
  8
C4
 10
450.35154343008361
 20
38.781882864585093
 30
0.0
 40
1.6000000000000001
 50
205.29254643742411
 51
270.0
  0
ARC
  5
BE8
  8
C4
 10
458.60154343008361
 20
56.181882864585127
 30
0.0
 40
1.1000000000000001
 50
205.2925464374234
 51
270.0
  0
LINE
  5
BE9
  8
C4
 10
457.29816444873433
 20
56.365467262006739
 30
0.0
 11
457.6069914797614
 21
55.711918591357801
 31
0.0
  0
ARC
  5
BEA
  8
C4
 10
455.85154343008361
 20
55.681882864585162
 30
0.0
 40
1.6000000000000001
 50
25.292546437424171
 51
90.0
  0
ARC
  5
BEB
  8
C4
 10
453.10154343008372
 20
56.181882864585127
 30
0.0
 40
1.1000000000000001
 50
270.0
 51
334.70745356257578
  0
LINE
  5
BEC
  8
C4
 10
454.40492241143301
 20
56.365467262006739
 30
0.0
 11
454.09609538040581
 21
55.711918591357801
 31
0.0
  0
ARC
  5
BED
  8
C4
 10
455.85154343008361
 20
55.681882864585162
 30
0.0
 40
1.6000000000000001
 50
90.0
 51
154.70745356257581
  0
ARC
  5
BEE
  8
C4
 10
458.60154343008361
 20
38.281882864585157
 30
0.0
 40
1.1000000000000001
 50
90.0
 51
154.70745356257649
  0
LINE
  5
BEF
  8
C4
 10
457.29816444873433
 20
38.098298467163538
 30
0.0
 11
457.6069914797614
 21
38.75184713781249
 31
0.0
  0
ARC
  5
BF0
  8
C4
 10
455.85154343008361
 20
38.781882864585093
 30
0.0
 40
1.6000000000000001
 50
270.0
 51
334.70745356257578
  0
ARC
  5
BF1
  8
C4
 10
453.10154343008372
 20
38.281882864585157
 30
0.0
 40
1.1000000000000001
 50
25.292546437424171
 51
90.0
  0
LINE
  5
BF2
  8
C4
 10
454.40492241143301
 20
38.098298467163538
 30
0.0
 11
454.09609538040581
 21
38.75184713781249
 31
0.0
  0
ARC
  5
BF3
  8
C4
 10
455.85154343008361
 20
38.781882864585093
 30
0.0
 40
1.6000000000000001
 50
205.29254643742411
 51
270.0
  0
ARC
  5
BF4
  8
C4
 10
464.10154343008361
 20
56.181882864585127
 30
0.0
 40
1.1000000000000001
 50
205.2925464374234
 51
270.0
  0
LINE
  5
BF5
  8
C4
 10
462.79816444873421
 20
56.365467262006739
 30
0.0
 11
463.10699147976129
 21
55.711918591357801
 31
0.0
  0
ARC
  5
BF6
  8
C4
 10
461.35154343008361
 20
55.681882864585162
 30
0.0
 40
1.6000000000000001
 50
25.292546437424171
 51
90.0
  0
ARC
  5
BF7
  8
C4
 10
458.60154343008361
 20
56.181882864585127
 30
0.0
 40
1.1000000000000001
 50
270.0
 51
334.70745356257578
  0
LINE
  5
BF8
  8
C4
 10
459.90492241143301
 20
56.365467262006739
 30
0.0
 11
459.59609538040593
 21
55.711918591357801
 31
0.0
  0
ARC
  5
BF9
  8
C4
 10
461.35154343008361
 20
55.681882864585162
 30
0.0
 40
1.6000000000000001
 50
90.0
 51
154.70745356257581
  0
ARC
  5
BFA
  8
C4
 10
464.10154343008361
 20
38.281882864585157
 30
0.0
 40
1.1000000000000001
 50
90.0
 51
154.70745356257649
  0
LINE
  5
BFB
  8
C4
 10
462.79816444873421
 20
38.098298467163538
 30
0.0
 11
463.10699147976129
 21
38.75184713781249
 31
0.0
  0
ARC
  5
BFC
  8
C4
 10
461.35154343008361
 20
38.781882864585093
 30
0.0
 40
1.6000000000000001
 50
270.0
 51
334.70745356257578
  0
ARC
  5
BFD
  8
C4
 10
458.60154343008361
 20
38.281882864585157
 30
0.0
 40
1.1000000000000001
 50
25.292546437424171
 51
90.0
  0
LINE
  5
BFE
  8
C4
 10
459.90492241143301
 20
38.098298467163538
 30
0.0
 11
459.59609538040593
 21
38.75184713781249
 31
0.0
  0
ARC
  5
BFF
  8
C4
 10
461.35154343008361
 20
38.781882864585093
 30
0.0
 40
1.6000000000000001
 50
205.29254643742411
 51
270.0
  0
ARC
  5
C00
  8
C4
 10
469.60154343008372
 20
56.181882864585127
 30
0.0
 40
1.1000000000000001
 50
205.2925464374234
 51
270.0
  0
LINE
  5
C01
  8
C4
 10
468.29816444873421
 20
56.365467262006739
 30
0.0
 11
468.6069914797614
 21
55.711918591357801
 31
0.0
  0
ARC
  5
C02
  8
C4
 10
466.85154343008361
 20
55.681882864585162
 30
0.0
 40
1.6000000000000001
 50
25.292546437424171
 51
90.0
  0
ARC
  5
C03
  8
C4
 10
464.10154343008361
 20
56.181882864585127
 30
0.0
 40
1.1000000000000001
 50
270.0
 51
334.70745356257578
  0
LINE
  5
C04
  8
C4
 10
465.40492241143301
 20
56.365467262006739
 30
0.0
 11
465.09609538040593
 21
55.711918591357801
 31
0.0
  0
ARC
  5
C05
  8
C4
 10
466.85154343008361
 20
55.681882864585162
 30
0.0
 40
1.6000000000000001
 50
90.0
 51
154.70745356257581
  0
ARC
  5
C06
  8
C4
 10
469.60154343008372
 20
38.281882864585157
 30
0.0
 40
1.1000000000000001
 50
90.0
 51
154.70745356257649
  0
LINE
  5
C07
  8
C4
 10
468.29816444873421
 20
38.098298467163538
 30
0.0
 11
468.6069914797614
 21
38.75184713781249
 31
0.0
  0
ARC
  5
C08
  8
C4
 10
466.85154343008361
 20
38.781882864585093
 30
0.0
 40
1.6000000000000001
 50
270.0
 51
334.70745356257578
  0
ARC
  5
C09
  8
C4
 10
464.10154343008361
 20
38.281882864585157
 30
0.0
 40
1.1000000000000001
 50
25.292546437424171
 51
90.0
  0
LINE
  5
C0A
  8
C4
 10
465.40492241143301
 20
38.098298467163538
 30
0.0
 11
465.09609538040593
 21
38.75184713781249
 31
0.0
  0
ARC
  5
C0B
  8
C4
 10
466.85154343008361
 20
38.781882864585093
 30
0.0
 40
1.6000000000000001
 50
205.29254643742411
 51
270.0
  0
ARC
  5
C0C
  8
C4
 10
475.10154343008361
 20
56.181882864585127
 30
0.0
 40
1.1000000000000001
 50
205.2925464374234
 51
270.0
  0
LINE
  5
C0D
  8
C4
 10
473.79816444873433
 20
56.365467262006739
 30
0.0
 11
474.1069914797614
 21
55.711918591357801
 31
0.0
  0
ARC
  5
C0E
  8
C4
 10
472.35154343008361
 20
55.681882864585162
 30
0.0
 40
1.6000000000000001
 50
25.292546437424171
 51
90.0
  0
ARC
  5
C0F
  8
C4
 10
469.60154343008372
 20
56.181882864585127
 30
0.0
 40
1.1000000000000001
 50
270.0
 51
334.70745356257578
  0
LINE
  5
C10
  8
C4
 10
470.90492241143301
 20
56.365467262006739
 30
0.0
 11
470.59609538040581
 21
55.711918591357801
 31
0.0
  0
ARC
  5
C11
  8
C4
 10
472.35154343008361
 20
55.681882864585162
 30
0.0
 40
1.6000000000000001
 50
90.0
 51
154.70745356257581
  0
ARC
  5
C12
  8
C4
 10
475.10154343008361
 20
38.281882864585157
 30
0.0
 40
1.1000000000000001
 50
90.0
 51
154.70745356257649
  0
LINE
  5
C13
  8
C4
 10
473.79816444873433
 20
38.098298467163538
 30
0.0
 11
474.1069914797614
 21
38.75184713781249
 31
0.0
  0
ARC
  5
C14
  8
C4
 10
472.35154343008361
 20
38.781882864585093
 30
0.0
 40
1.6000000000000001
 50
270.0
 51
334.70745356257578
  0
ARC
  5
C15
  8
C4
 10
469.60154343008372
 20
38.281882864585157
 30
0.0
 40
1.1000000000000001
 50
25.292546437424171
 51
90.0
  0
LINE
  5
C16
  8
C4
 10
470.90492241143301
 20
38.098298467163538
 30
0.0
 11
470.59609538040581
 21
38.75184713781249
 31
0.0
  0
ARC
  5
C17
  8
C4
 10
472.35154343008361
 20
38.781882864585093
 30
0.0
 40
1.6000000000000001
 50
205.29254643742411
 51
270.0
  0
ARC
  5
C18
  8
C4
 10
480.60154343008361
 20
56.181882864585127
 30
0.0
 40
1.1000000000000001
 50
205.2925464374234
 51
270.0
  0
LINE
  5
C19
  8
C4
 10
479.29816444873421
 20
56.365467262006739
 30
0.0
 11
479.60699147976129
 21
55.711918591357801
 31
0.0
  0
ARC
  5
C1A
  8
C4
 10
477.85154343008361
 20
55.681882864585162
 30
0.0
 40
1.6000000000000001
 50
25.292546437424171
 51
90.0
  0
ARC
  5
C1B
  8
C4
 10
475.10154343008361
 20
56.181882864585127
 30
0.0
 40
1.1000000000000001
 50
270.0
 51
334.70745356257578
  0
LINE
  5
C1C
  8
C4
 10
476.40492241143301
 20
56.365467262006739
 30
0.0
 11
476.09609538040593
 21
55.711918591357801
 31
0.0
  0
ARC
  5
C1D
  8
C4
 10
477.85154343008361
 20
55.681882864585162
 30
0.0
 40
1.6000000000000001
 50
90.0
 51
154.70745356257581
  0
ARC
  5
C1E
  8
C4
 10
480.60154343008361
 20
38.281882864585157
 30
0.0
 40
1.1000000000000001
 50
90.0
 51
154.70745356257649
  0
LINE
  5
C1F
  8
C4
 10
479.29816444873421
 20
38.098298467163538
 30
0.0
 11
479.60699147976129
 21
38.75184713781249
 31
0.0
  0
ARC
  5
C20
  8
C4
 10
477.85154343008361
 20
38.781882864585093
 30
0.0
 40
1.6000000000000001
 50
270.0
 51
334.70745356257578
  0
ARC
  5
C21
  8
C4
 10
475.10154343008361
 20
38.281882864585157
 30
0.0
 40
1.1000000000000001
 50
25.292546437424171
 51
90.0
  0
LINE
  5
C22
  8
C4
 10
476.40492241143301
 20
38.098298467163538
 30
0.0
 11
476.09609538040593
 21
38.75184713781249
 31
0.0
  0
ARC
  5
C23
  8
C4
 10
477.85154343008361
 20
38.781882864585093
 30
0.0
 40
1.6000000000000001
 50
205.29254643742411
 51
270.0
  0
ARC
  5
C24
  8
C4
 10
486.10154343008372
 20
56.181882864585127
 30
0.0
 40
1.1000000000000001
 50
205.2925464374234
 51
270.0
  0
LINE
  5
C25
  8
C4
 10
484.79816444873421
 20
56.365467262006739
 30
0.0
 11
485.1069914797614
 21
55.711918591357801
 31
0.0
  0
ARC
  5
C26
  8
C4
 10
483.35154343008361
 20
55.681882864585162
 30
0.0
 40
1.6000000000000001
 50
25.292546437424171
 51
90.0
  0
ARC
  5
C27
  8
C4
 10
480.60154343008361
 20
56.181882864585127
 30
0.0
 40
1.1000000000000001
 50
270.0
 51
334.70745356257578
  0
LINE
  5
C28
  8
C4
 10
481.90492241143301
 20
56.365467262006739
 30
0.0
 11
481.59609538040593
 21
55.711918591357801
 31
0.0
  0
ARC
  5
C29
  8
C4
 10
483.35154343008361
 20
55.681882864585162
 30
0.0
 40
1.6000000000000001
 50
90.0
 51
154.70745356257581
  0
ARC
  5
C2A
  8
C4
 10
486.10154343008372
 20
38.281882864585157
 30
0.0
 40
1.1000000000000001
 50
90.0
 51
154.70745356257649
  0
LINE
  5
C2B
  8
C4
 10
484.79816444873421
 20
38.098298467163538
 30
0.0
 11
485.1069914797614
 21
38.75184713781249
 31
0.0
  0
ARC
  5
C2C
  8
C4
 10
483.35154343008361
 20
38.781882864585093
 30
0.0
 40
1.6000000000000001
 50
270.0
 51
334.70745356257578
  0
ARC
  5
C2D
  8
C4
 10
480.60154343008361
 20
38.281882864585157
 30
0.0
 40
1.1000000000000001
 50
25.292546437424171
 51
90.0
  0
LINE
  5
C2E
  8
C4
 10
481.90492241143301
 20
38.098298467163538
 30
0.0
 11
481.59609538040593
 21
38.75184713781249
 31
0.0
  0
ARC
  5
C2F
  8
C4
 10
483.35154343008361
 20
38.781882864585093
 30
0.0
 40
1.6000000000000001
 50
205.29254643742411
 51
270.0
  0
ARC
  5
C30
  8
C4
 10
491.60154343008361
 20
56.181882864585127
 30
0.0
 40
1.1000000000000001
 50
205.2925464374234
 51
270.0
  0
LINE
  5
C31
  8
C4
 10
490.29816444873433
 20
56.365467262006739
 30
0.0
 11
490.6069914797614
 21
55.711918591357801
 31
0.0
  0
ARC
  5
C32
  8
C4
 10
488.85154343008372
 20
55.681882864585162
 30
0.0
 40
1.6000000000000001
 50
25.292546437424171
 51
90.0
  0
ARC
  5
C33
  8
C4
 10
486.10154343008372
 20
56.181882864585127
 30
0.0
 40
1.1000000000000001
 50
270.0
 51
334.70745356257578
  0
LINE
  5
C34
  8
C4
 10
487.40492241143301
 20
56.365467262006739
 30
0.0
 11
487.09609538040593
 21
55.711918591357801
 31
0.0
  0
ARC
  5
C35
  8
C4
 10
488.85154343008372
 20
55.681882864585162
 30
0.0
 40
1.6000000000000001
 50
90.0
 51
154.70745356257581
  0
ARC
  5
C36
  8
C4
 10
491.60154343008361
 20
38.281882864585157
 30
0.0
 40
1.1000000000000001
 50
90.0
 51
154.70745356257649
  0
LINE
  5
C37
  8
C4
 10
490.29816444873433
 20
38.098298467163538
 30
0.0
 11
490.6069914797614
 21
38.75184713781249
 31
0.0
  0
ARC
  5
C38
  8
C4
 10
488.85154343008372
 20
38.781882864585093
 30
0.0
 40
1.6000000000000001
 50
270.0
 51
334.70745356257578
  0
ARC
  5
C39
  8
C4
 10
486.10154343008372
 20
38.281882864585157
 30
0.0
 40
1.1000000000000001
 50
25.292546437424171
 51
90.0
  0
LINE
  5
C3A
  8
C4
 10
487.40492241143301
 20
38.098298467163538
 30
0.0
 11
487.09609538040593
 21
38.75184713781249
 31
0.0
  0
ARC
  5
C3B
  8
C4
 10
488.85154343008372
 20
38.781882864585093
 30
0.0
 40
1.6000000000000001
 50
205.29254643742411
 51
270.0
  0
ARC
  5
C3C
  8
C4
 10
497.10154343008361
 20
56.181882864585127
 30
0.0
 40
1.1000000000000001
 50
205.2925464374234
 51
270.0
  0
LINE
  5
C3D
  8
C4
 10
495.79816444873421
 20
56.365467262006739
 30
0.0
 11
496.10699147976129
 21
55.711918591357801
 31
0.0
  0
ARC
  5
C3E
  8
C4
 10
494.35154343008361
 20
55.681882864585162
 30
0.0
 40
1.6000000000000001
 50
25.292546437424171
 51
90.0
  0
ARC
  5
C3F
  8
C4
 10
491.60154343008361
 20
56.181882864585127
 30
0.0
 40
1.1000000000000001
 50
270.0
 51
334.70745356257578
  0
LINE
  5
C40
  8
C4
 10
492.90492241143301
 20
56.365467262006739
 30
0.0
 11
492.59609538040593
 21
55.711918591357801
 31
0.0
  0
ARC
  5
C41
  8
C4
 10
494.35154343008361
 20
55.681882864585162
 30
0.0
 40
1.6000000000000001
 50
90.0
 51
154.70745356257581
  0
ARC
  5
C42
  8
C4
 10
497.10154343008361
 20
38.281882864585157
 30
0.0
 40
1.1000000000000001
 50
90.0
 51
154.70745356257649
  0
LINE
  5
C43
  8
C4
 10
495.79816444873421
 20
38.098298467163538
 30
0.0
 11
496.10699147976129
 21
38.75184713781249
 31
0.0
  0
ARC
  5
C44
  8
C4
 10
494.35154343008361
 20
38.781882864585093
 30
0.0
 40
1.6000000000000001
 50
270.0
 51
334.70745356257578
  0
ARC
  5
C45
  8
C4
 10
491.60154343008361
 20
38.281882864585157
 30
0.0
 40
1.1000000000000001
 50
25.292546437424171
 51
90.0
  0
LINE
  5
C46
  8
C4
 10
492.90492241143301
 20
38.098298467163538
 30
0.0
 11
492.59609538040593
 21
38.75184713781249
 31
0.0
  0
ARC
  5
C47
  8
C4
 10
494.35154343008361
 20
38.781882864585093
 30
0.0
 40
1.6000000000000001
 50
205.29254643742411
 51
270.0
  0
ARC
  5
C48
  8
C4
 10
502.60154343008372
 20
56.181882864585127
 30
0.0
 40
1.1000000000000001
 50
205.2925464374234
 51
270.0
  0
LINE
  5
C49
  8
C4
 10
501.29816444873421
 20
56.365467262006739
 30
0.0
 11
501.6069914797614
 21
55.711918591357801
 31
0.0
  0
ARC
  5
C4A
  8
C4
 10
499.85154343008361
 20
55.681882864585162
 30
0.0
 40
1.6000000000000001
 50
25.292546437424171
 51
90.0
  0
ARC
  5
C4B
  8
C4
 10
497.10154343008361
 20
56.181882864585127
 30
0.0
 40
1.1000000000000001
 50
270.0
 51
334.70745356257578
  0
LINE
  5
C4C
  8
C4
 10
498.40492241143301
 20
56.365467262006739
 30
0.0
 11
498.09609538040593
 21
55.711918591357801
 31
0.0
  0
ARC
  5
C4D
  8
C4
 10
499.85154343008361
 20
55.681882864585162
 30
0.0
 40
1.6000000000000001
 50
90.0
 51
154.70745356257581
  0
ARC
  5
C4E
  8
C4
 10
502.60154343008372
 20
38.281882864585157
 30
0.0
 40
1.1000000000000001
 50
90.0
 51
154.70745356257649
  0
LINE
  5
C4F
  8
C4
 10
501.29816444873421
 20
38.098298467163538
 30
0.0
 11
501.6069914797614
 21
38.75184713781249
 31
0.0
  0
ARC
  5
C50
  8
C4
 10
499.85154343008361
 20
38.781882864585093
 30
0.0
 40
1.6000000000000001
 50
270.0
 51
334.70745356257578
  0
ARC
  5
C51
  8
C4
 10
497.10154343008361
 20
38.281882864585157
 30
0.0
 40
1.1000000000000001
 50
25.292546437424171
 51
90.0
  0
LINE
  5
C52
  8
C4
 10
498.40492241143301
 20
38.098298467163538
 30
0.0
 11
498.09609538040593
 21
38.75184713781249
 31
0.0
  0
ARC
  5
C53
  8
C4
 10
499.85154343008361
 20
38.781882864585093
 30
0.0
 40
1.6000000000000001
 50
205.29254643742411
 51
270.0
  0
ARC
  5
C54
  8
C4
 10
508.10154343008361
 20
56.181882864585127
 30
0.0
 40
1.1000000000000001
 50
205.2925464374234
 51
270.0
  0
LINE
  5
C55
  8
C4
 10
506.79816444873433
 20
56.365467262006739
 30
0.0
 11
507.1069914797614
 21
55.711918591357801
 31
0.0
  0
ARC
  5
C56
  8
C4
 10
505.35154343008372
 20
55.681882864585162
 30
0.0
 40
1.6000000000000001
 50
25.292546437424171
 51
90.0
  0
ARC
  5
C57
  8
C4
 10
502.60154343008372
 20
56.181882864585127
 30
0.0
 40
1.1000000000000001
 50
270.0
 51
334.70745356257578
  0
LINE
  5
C58
  8
C4
 10
503.90492241143301
 20
56.365467262006739
 30
0.0
 11
503.59609538040593
 21
55.711918591357801
 31
0.0
  0
ARC
  5
C59
  8
C4
 10
505.35154343008372
 20
55.681882864585162
 30
0.0
 40
1.6000000000000001
 50
90.0
 51
154.70745356257581
  0
ARC
  5
C5A
  8
C4
 10
508.10154343008361
 20
38.281882864585157
 30
0.0
 40
1.1000000000000001
 50
90.0
 51
154.70745356257649
  0
LINE
  5
C5B
  8
C4
 10
506.79816444873433
 20
38.098298467163538
 30
0.0
 11
507.1069914797614
 21
38.75184713781249
 31
0.0
  0
ARC
  5
C5C
  8
C4
 10
505.35154343008372
 20
38.781882864585093
 30
0.0
 40
1.6000000000000001
 50
270.0
 51
334.70745356257578
  0
ARC
  5
C5D
  8
C4
 10
502.60154343008372
 20
38.281882864585157
 30
0.0
 40
1.1000000000000001
 50
25.292546437424171
 51
90.0
  0
LINE
  5
C5E
  8
C4
 10
503.90492241143301
 20
38.098298467163538
 30
0.0
 11
503.59609538040593
 21
38.75184713781249
 31
0.0
  0
ARC
  5
C5F
  8
C4
 10
505.35154343008372
 20
38.781882864585093
 30
0.0
 40
1.6000000000000001
 50
205.29254643742411
 51
270.0
  0
ARC
  5
C60
  8
C4
 10
513.60154343008355
 20
56.181882864585127
 30
0.0
 40
1.1000000000000001
 50
205.2925464374234
 51
270.0
  0
LINE
  5
C61
  8
C4
 10
512.29816444873416
 20
56.365467262006739
 30
0.0
 11
512.60699147976129
 21
55.711918591357801
 31
0.0
  0
ARC
  5
C62
  8
C4
 10
510.85154343008361
 20
55.681882864585162
 30
0.0
 40
1.6000000000000001
 50
25.292546437424171
 51
90.0
  0
ARC
  5
C63
  8
C4
 10
508.10154343008361
 20
56.181882864585127
 30
0.0
 40
1.1000000000000001
 50
270.0
 51
334.70745356257578
  0
LINE
  5
C64
  8
C4
 10
509.40492241143301
 20
56.365467262006739
 30
0.0
 11
509.09609538040593
 21
55.711918591357801
 31
0.0
  0
ARC
  5
C65
  8
C4
 10
510.85154343008361
 20
55.681882864585162
 30
0.0
 40
1.6000000000000001
 50
90.0
 51
154.70745356257581
  0
ARC
  5
C66
  8
C4
 10
513.60154343008355
 20
38.281882864585157
 30
0.0
 40
1.1000000000000001
 50
90.0
 51
154.70745356257649
  0
LINE
  5
C67
  8
C4
 10
512.29816444873416
 20
38.098298467163538
 30
0.0
 11
512.60699147976129
 21
38.75184713781249
 31
0.0
  0
ARC
  5
C68
  8
C4
 10
510.85154343008361
 20
38.781882864585093
 30
0.0
 40
1.6000000000000001
 50
270.0
 51
334.70745356257578
  0
ARC
  5
C69
  8
C4
 10
508.10154343008361
 20
38.281882864585157
 30
0.0
 40
1.1000000000000001
 50
25.292546437424171
 51
90.0
  0
LINE
  5
C6A
  8
C4
 10
509.40492241143301
 20
38.098298467163538
 30
0.0
 11
509.09609538040593
 21
38.75184713781249
 31
0.0
  0
ARC
  5
C6B
  8
C4
 10
510.85154343008361
 20
38.781882864585093
 30
0.0
 40
1.6000000000000001
 50
205.29254643742411
 51
270.0
  0
ARC
  5
C6C
  8
C4
 10
519.10154343008355
 20
56.181882864585127
 30
0.0
 40
1.1000000000000001
 50
205.2925464374234
 51
270.0
  0
LINE
  5
C6D
  8
C4
 10
517.79816444873416
 20
56.365467262006739
 30
0.0
 11
518.1069914797614
 21
55.711918591357801
 31
0.0
  0
ARC
  5
C6E
  8
C4
 10
516.35154343008355
 20
55.681882864585162
 30
0.0
 40
1.6000000000000001
 50
25.292546437424171
 51
90.0
  0
ARC
  5
C6F
  8
C4
 10
513.60154343008355
 20
56.181882864585127
 30
0.0
 40
1.1000000000000001
 50
270.0
 51
334.70745356257578
  0
LINE
  5
C70
  8
C4
 10
514.90492241143295
 20
56.365467262006739
 30
0.0
 11
514.59609538040593
 21
55.711918591357801
 31
0.0
  0
ARC
  5
C71
  8
C4
 10
516.35154343008355
 20
55.681882864585162
 30
0.0
 40
1.6000000000000001
 50
90.0
 51
154.70745356257581
  0
ARC
  5
C72
  8
C4
 10
519.10154343008355
 20
38.281882864585157
 30
0.0
 40
1.1000000000000001
 50
90.0
 51
154.70745356257649
  0
LINE
  5
C73
  8
C4
 10
517.79816444873416
 20
38.098298467163538
 30
0.0
 11
518.1069914797614
 21
38.75184713781249
 31
0.0
  0
ARC
  5
C74
  8
C4
 10
516.35154343008355
 20
38.781882864585093
 30
0.0
 40
1.6000000000000001
 50
270.0
 51
334.70745356257578
  0
ARC
  5
C75
  8
C4
 10
513.60154343008355
 20
38.281882864585157
 30
0.0
 40
1.1000000000000001
 50
25.292546437424171
 51
90.0
  0
LINE
  5
C76
  8
C4
 10
514.90492241143295
 20
38.098298467163538
 30
0.0
 11
514.59609538040593
 21
38.75184713781249
 31
0.0
  0
ARC
  5
C77
  8
C4
 10
516.35154343008355
 20
38.781882864585093
 30
0.0
 40
1.6000000000000001
 50
205.29254643742411
 51
270.0
  0
ARC
  5
C78
  8
C4
 10
524.60154343008355
 20
56.181882864585127
 30
0.0
 40
1.1000000000000001
 50
205.2925464374234
 51
270.0
  0
LINE
  5
C79
  8
C4
 10
523.29816444873427
 20
56.365467262006739
 30
0.0
 11
523.6069914797614
 21
55.711918591357801
 31
0.0
  0
ARC
  5
C7A
  8
C4
 10
521.85154343008367
 20
55.681882864585162
 30
0.0
 40
1.6000000000000001
 50
25.292546437424171
 51
90.0
  0
ARC
  5
C7B
  8
C4
 10
519.10154343008355
 20
56.181882864585127
 30
0.0
 40
1.1000000000000001
 50
270.0
 51
334.70745356257578
  0
LINE
  5
C7C
  8
C4
 10
520.40492241143306
 20
56.365467262006739
 30
0.0
 11
520.09609538040593
 21
55.711918591357801
 31
0.0
  0
ARC
  5
C7D
  8
C4
 10
521.85154343008367
 20
55.681882864585162
 30
0.0
 40
1.6000000000000001
 50
90.0
 51
154.70745356257581
  0
ARC
  5
C7E
  8
C4
 10
524.60154343008355
 20
38.281882864585157
 30
0.0
 40
1.1000000000000001
 50
90.0
 51
154.70745356257649
  0
LINE
  5
C7F
  8
C4
 10
523.29816444873427
 20
38.098298467163538
 30
0.0
 11
523.6069914797614
 21
38.75184713781249
 31
0.0
  0
ARC
  5
C80
  8
C4
 10
521.85154343008367
 20
38.781882864585093
 30
0.0
 40
1.6000000000000001
 50
270.0
 51
334.70745356257578
  0
ARC
  5
C81
  8
C4
 10
519.10154343008355
 20
38.281882864585157
 30
0.0
 40
1.1000000000000001
 50
25.292546437424171
 51
90.0
  0
LINE
  5
C82
  8
C4
 10
520.40492241143306
 20
38.098298467163538
 30
0.0
 11
520.09609538040593
 21
38.75184713781249
 31
0.0
  0
ARC
  5
C83
  8
C4
 10
521.85154343008367
 20
38.781882864585093
 30
0.0
 40
1.6000000000000001
 50
205.29254643742411
 51
270.0
  0
ARC
  5
C84
  8
C4
 10
530.10154343008355
 20
56.181882864585127
 30
0.0
 40
1.1000000000000001
 50
205.2925464374234
 51
270.0
  0
LINE
  5
C85
  8
C4
 10
528.79816444873416
 20
56.365467262006739
 30
0.0
 11
529.10699147976129
 21
55.711918591357801
 31
0.0
  0
ARC
  5
C86
  8
C4
 10
527.35154343008355
 20
55.681882864585162
 30
0.0
 40
1.6000000000000001
 50
25.292546437424171
 51
90.0
  0
ARC
  5
C87
  8
C4
 10
524.60154343008355
 20
56.181882864585127
 30
0.0
 40
1.1000000000000001
 50
270.0
 51
334.70745356257578
  0
LINE
  5
C88
  8
C4
 10
525.90492241143295
 20
56.365467262006739
 30
0.0
 11
525.59609538040593
 21
55.711918591357801
 31
0.0
  0
ARC
  5
C89
  8
C4
 10
527.35154343008355
 20
55.681882864585162
 30
0.0
 40
1.6000000000000001
 50
90.0
 51
154.70745356257581
  0
ARC
  5
C8A
  8
C4
 10
530.10154343008355
 20
38.281882864585157
 30
0.0
 40
1.1000000000000001
 50
90.0
 51
154.70745356257649
  0
LINE
  5
C8B
  8
C4
 10
528.79816444873416
 20
38.098298467163538
 30
0.0
 11
529.10699147976129
 21
38.75184713781249
 31
0.0
  0
ARC
  5
C8C
  8
C4
 10
527.35154343008355
 20
38.781882864585093
 30
0.0
 40
1.6000000000000001
 50
270.0
 51
334.70745356257578
  0
ARC
  5
C8D
  8
C4
 10
524.60154343008355
 20
38.281882864585157
 30
0.0
 40
1.1000000000000001
 50
25.292546437424171
 51
90.0
  0
LINE
  5
C8E
  8
C4
 10
525.90492241143295
 20
38.098298467163538
 30
0.0
 11
525.59609538040593
 21
38.75184713781249
 31
0.0
  0
ARC
  5
C8F
  8
C4
 10
527.35154343008355
 20
38.781882864585093
 30
0.0
 40
1.6000000000000001
 50
205.29254643742411
 51
270.0
  0
ARC
  5
C90
  8
C4
 10
535.60154343008355
 20
56.181882864585127
 30
0.0
 40
1.1000000000000001
 50
205.2925464374234
 51
270.0
  0
LINE
  5
C91
  8
C4
 10
534.29816444873416
 20
56.365467262006739
 30
0.0
 11
534.6069914797614
 21
55.711918591357801
 31
0.0
  0
ARC
  5
C92
  8
C4
 10
532.85154343008355
 20
55.681882864585162
 30
0.0
 40
1.6000000000000001
 50
25.292546437424171
 51
90.0
  0
ARC
  5
C93
  8
C4
 10
530.10154343008355
 20
56.181882864585127
 30
0.0
 40
1.1000000000000001
 50
270.0
 51
334.70745356257578
  0
LINE
  5
C94
  8
C4
 10
531.40492241143295
 20
56.365467262006739
 30
0.0
 11
531.09609538040593
 21
55.711918591357801
 31
0.0
  0
ARC
  5
C95
  8
C4
 10
532.85154343008355
 20
55.681882864585162
 30
0.0
 40
1.6000000000000001
 50
90.0
 51
154.70745356257581
  0
ARC
  5
C96
  8
C4
 10
535.60154343008355
 20
38.281882864585157
 30
0.0
 40
1.1000000000000001
 50
90.0
 51
154.70745356257649
  0
LINE
  5
C97
  8
C4
 10
534.29816444873416
 20
38.098298467163538
 30
0.0
 11
534.6069914797614
 21
38.75184713781249
 31
0.0
  0
ARC
  5
C98
  8
C4
 10
532.85154343008355
 20
38.781882864585093
 30
0.0
 40
1.6000000000000001
 50
270.0
 51
334.70745356257578
  0
ARC
  5
C99
  8
C4
 10
530.10154343008355
 20
38.281882864585157
 30
0.0
 40
1.1000000000000001
 50
25.292546437424171
 51
90.0
  0
LINE
  5
C9A
  8
C4
 10
531.40492241143295
 20
38.098298467163538
 30
0.0
 11
531.09609538040593
 21
38.75184713781249
 31
0.0
  0
ARC
  5
C9B
  8
C4
 10
532.85154343008355
 20
38.781882864585093
 30
0.0
 40
1.6000000000000001
 50
205.29254643742411
 51
270.0
  0
ARC
  5
C9C
  8
C4
 10
541.10154343008355
 20
56.181882864585127
 30
0.0
 40
1.1000000000000001
 50
205.2925464374234
 51
270.0
  0
LINE
  5
C9D
  8
C4
 10
539.79816444873427
 20
56.365467262006739
 30
0.0
 11
540.1069914797614
 21
55.711918591357801
 31
0.0
  0
ARC
  5
C9E
  8
C4
 10
538.35154343008367
 20
55.681882864585162
 30
0.0
 40
1.6000000000000001
 50
25.292546437424171
 51
90.0
  0
ARC
  5
C9F
  8
C4
 10
535.60154343008355
 20
56.181882864585127
 30
0.0
 40
1.1000000000000001
 50
270.0
 51
334.70745356257578
  0
LINE
  5
CA0
  8
C4
 10
536.90492241143306
 20
56.365467262006739
 30
0.0
 11
536.59609538040593
 21
55.711918591357801
 31
0.0
  0
ARC
  5
CA1
  8
C4
 10
538.35154343008367
 20
55.681882864585162
 30
0.0
 40
1.6000000000000001
 50
90.0
 51
154.70745356257581
  0
ARC
  5
CA2
  8
C4
 10
541.10154343008355
 20
38.281882864585157
 30
0.0
 40
1.1000000000000001
 50
90.0
 51
154.70745356257649
  0
LINE
  5
CA3
  8
C4
 10
539.79816444873427
 20
38.098298467163538
 30
0.0
 11
540.1069914797614
 21
38.75184713781249
 31
0.0
  0
ARC
  5
CA4
  8
C4
 10
538.35154343008367
 20
38.781882864585093
 30
0.0
 40
1.6000000000000001
 50
270.0
 51
334.70745356257578
  0
ARC
  5
CA5
  8
C4
 10
535.60154343008355
 20
38.281882864585157
 30
0.0
 40
1.1000000000000001
 50
25.292546437424171
 51
90.0
  0
LINE
  5
CA6
  8
C4
 10
536.90492241143306
 20
38.098298467163538
 30
0.0
 11
536.59609538040593
 21
38.75184713781249
 31
0.0
  0
ARC
  5
CA7
  8
C4
 10
538.35154343008367
 20
38.781882864585093
 30
0.0
 40
1.6000000000000001
 50
205.29254643742411
 51
270.0
  0
ARC
  5
CA8
  8
C4
 10
546.60154343008355
 20
56.181882864585127
 30
0.0
 40
1.1000000000000001
 50
205.2925464374234
 51
270.0
  0
LINE
  5
CA9
  8
C4
 10
545.29816444873416
 20
56.365467262006739
 30
0.0
 11
545.60699147976129
 21
55.711918591357801
 31
0.0
  0
ARC
  5
CAA
  8
C4
 10
543.85154343008355
 20
55.681882864585162
 30
0.0
 40
1.6000000000000001
 50
25.292546437424171
 51
90.0
  0
ARC
  5
CAB
  8
C4
 10
541.10154343008355
 20
56.181882864585127
 30
0.0
 40
1.1000000000000001
 50
270.0
 51
334.70745356257578
  0
LINE
  5
CAC
  8
C4
 10
542.40492241143295
 20
56.365467262006739
 30
0.0
 11
542.09609538040593
 21
55.711918591357801
 31
0.0
  0
ARC
  5
CAD
  8
C4
 10
543.85154343008355
 20
55.681882864585162
 30
0.0
 40
1.6000000000000001
 50
90.0
 51
154.70745356257581
  0
ARC
  5
CAE
  8
C4
 10
546.60154343008355
 20
38.281882864585157
 30
0.0
 40
1.1000000000000001
 50
90.0
 51
154.70745356257649
  0
LINE
  5
CAF
  8
C4
 10
545.29816444873416
 20
38.098298467163538
 30
0.0
 11
545.60699147976129
 21
38.75184713781249
 31
0.0
  0
ARC
  5
CB0
  8
C4
 10
543.85154343008355
 20
38.781882864585093
 30
0.0
 40
1.6000000000000001
 50
270.0
 51
334.70745356257578
  0
ARC
  5
CB1
  8
C4
 10
541.10154343008355
 20
38.281882864585157
 30
0.0
 40
1.1000000000000001
 50
25.292546437424171
 51
90.0
  0
LINE
  5
CB2
  8
C4
 10
542.40492241143295
 20
38.098298467163538
 30
0.0
 11
542.09609538040593
 21
38.75184713781249
 31
0.0
  0
ARC
  5
CB3
  8
C4
 10
543.85154343008355
 20
38.781882864585093
 30
0.0
 40
1.6000000000000001
 50
205.29254643742411
 51
270.0
  0
ARC
  5
CB4
  8
C4
 10
552.10154343008355
 20
56.181882864585127
 30
0.0
 40
1.1000000000000001
 50
205.2925464374234
 51
270.0
  0
LINE
  5
CB5
  8
C4
 10
550.79816444873416
 20
56.365467262006739
 30
0.0
 11
551.1069914797614
 21
55.711918591357801
 31
0.0
  0
ARC
  5
CB6
  8
C4
 10
549.35154343008355
 20
55.681882864585162
 30
0.0
 40
1.6000000000000001
 50
25.292546437424171
 51
90.0
  0
ARC
  5
CB7
  8
C4
 10
546.60154343008355
 20
56.181882864585127
 30
0.0
 40
1.1000000000000001
 50
270.0
 51
334.70745356257578
  0
LINE
  5
CB8
  8
C4
 10
547.90492241143295
 20
56.365467262006739
 30
0.0
 11
547.59609538040593
 21
55.711918591357801
 31
0.0
  0
ARC
  5
CB9
  8
C4
 10
549.35154343008355
 20
55.681882864585162
 30
0.0
 40
1.6000000000000001
 50
90.0
 51
154.70745356257581
  0
ARC
  5
CBA
  8
C4
 10
552.10154343008355
 20
38.281882864585157
 30
0.0
 40
1.1000000000000001
 50
90.0
 51
154.70745356257649
  0
LINE
  5
CBB
  8
C4
 10
550.79816444873416
 20
38.098298467163538
 30
0.0
 11
551.1069914797614
 21
38.75184713781249
 31
0.0
  0
ARC
  5
CBC
  8
C4
 10
549.35154343008355
 20
38.781882864585093
 30
0.0
 40
1.6000000000000001
 50
270.0
 51
334.70745356257578
  0
ARC
  5
CBD
  8
C4
 10
546.60154343008355
 20
38.281882864585157
 30
0.0
 40
1.1000000000000001
 50
25.292546437424171
 51
90.0
  0
LINE
  5
CBE
  8
C4
 10
547.90492241143295
 20
38.098298467163538
 30
0.0
 11
547.59609538040593
 21
38.75184713781249
 31
0.0
  0
ARC
  5
CBF
  8
C4
 10
549.35154343008355
 20
38.781882864585093
 30
0.0
 40
1.6000000000000001
 50
205.29254643742411
 51
270.0
  0
ARC
  5
CC0
  8
C4
 10
557.60154343008367
 20
56.181882864585127
 30
0.0
 40
1.1000000000000001
 50
205.2925464374234
 51
270.0
  0
LINE
  5
CC1
  8
C4
 10
556.29816444873427
 20
56.365467262006739
 30
0.0
 11
556.6069914797614
 21
55.711918591357801
 31
0.0
  0
ARC
  5
CC2
  8
C4
 10
554.85154343008367
 20
55.681882864585162
 30
0.0
 40
1.6000000000000001
 50
25.292546437424171
 51
90.0
  0
ARC
  5
CC3
  8
C4
 10
552.10154343008355
 20
56.181882864585127
 30
0.0
 40
1.1000000000000001
 50
270.0
 51
334.70745356257578
  0
LINE
  5
CC4
  8
C4
 10
553.40492241143306
 20
56.365467262006739
 30
0.0
 11
553.09609538040593
 21
55.711918591357801
 31
0.0
  0
ARC
  5
CC5
  8
C4
 10
554.85154343008367
 20
55.681882864585162
 30
0.0
 40
1.6000000000000001
 50
90.0
 51
154.70745356257581
  0
ARC
  5
CC6
  8
C4
 10
557.60154343008367
 20
38.281882864585157
 30
0.0
 40
1.1000000000000001
 50
90.0
 51
154.70745356257649
  0
LINE
  5
CC7
  8
C4
 10
556.29816444873427
 20
38.098298467163538
 30
0.0
 11
556.6069914797614
 21
38.75184713781249
 31
0.0
  0
ARC
  5
CC8
  8
C4
 10
554.85154343008367
 20
38.781882864585093
 30
0.0
 40
1.6000000000000001
 50
270.0
 51
334.70745356257578
  0
ARC
  5
CC9
  8
C4
 10
552.10154343008355
 20
38.281882864585157
 30
0.0
 40
1.1000000000000001
 50
25.292546437424171
 51
90.0
  0
LINE
  5
CCA
  8
C4
 10
553.40492241143306
 20
38.098298467163538
 30
0.0
 11
553.09609538040593
 21
38.75184713781249
 31
0.0
  0
ARC
  5
CCB
  8
C4
 10
554.85154343008367
 20
38.781882864585093
 30
0.0
 40
1.6000000000000001
 50
205.29254643742411
 51
270.0
  0
ARC
  5
CCC
  8
C4
 10
563.10154343008355
 20
56.181882864585127
 30
0.0
 40
1.1000000000000001
 50
205.2925464374234
 51
270.0
  0
LINE
  5
CCD
  8
C4
 10
561.79816444873416
 20
56.365467262006739
 30
0.0
 11
562.10699147976129
 21
55.711918591357801
 31
0.0
  0
ARC
  5
CCE
  8
C4
 10
560.35154343008355
 20
55.681882864585162
 30
0.0
 40
1.6000000000000001
 50
25.292546437424171
 51
90.0
  0
ARC
  5
CCF
  8
C4
 10
557.60154343008367
 20
56.181882864585127
 30
0.0
 40
1.1000000000000001
 50
270.0
 51
334.70745356257578
  0
LINE
  5
CD0
  8
C4
 10
558.90492241143295
 20
56.365467262006739
 30
0.0
 11
558.59609538040593
 21
55.711918591357801
 31
0.0
  0
ARC
  5
CD1
  8
C4
 10
560.35154343008355
 20
55.681882864585162
 30
0.0
 40
1.6000000000000001
 50
90.0
 51
154.70745356257581
  0
ARC
  5
CD2
  8
C4
 10
563.10154343008355
 20
38.281882864585157
 30
0.0
 40
1.1000000000000001
 50
90.0
 51
154.70745356257649
  0
LINE
  5
CD3
  8
C4
 10
561.79816444873416
 20
38.098298467163538
 30
0.0
 11
562.10699147976129
 21
38.75184713781249
 31
0.0
  0
ARC
  5
CD4
  8
C4
 10
560.35154343008355
 20
38.781882864585093
 30
0.0
 40
1.6000000000000001
 50
270.0
 51
334.70745356257578
  0
ARC
  5
CD5
  8
C4
 10
557.60154343008367
 20
38.281882864585157
 30
0.0
 40
1.1000000000000001
 50
25.292546437424171
 51
90.0
  0
LINE
  5
CD6
  8
C4
 10
558.90492241143295
 20
38.098298467163538
 30
0.0
 11
558.59609538040593
 21
38.75184713781249
 31
0.0
  0
ARC
  5
CD7
  8
C4
 10
560.35154343008355
 20
38.781882864585093
 30
0.0
 40
1.6000000000000001
 50
205.29254643742411
 51
270.0
  0
ARC
  5
CD8
  8
C4
 10
568.60154343008355
 20
56.181882864585127
 30
0.0
 40
1.1000000000000001
 50
205.2925464374234
 51
270.0
  0
LINE
  5
CD9
  8
C4
 10
567.29816444873416
 20
56.365467262006739
 30
0.0
 11
567.6069914797614
 21
55.711918591357801
 31
0.0
  0
ARC
  5
CDA
  8
C4
 10
565.85154343008355
 20
55.681882864585162
 30
0.0
 40
1.6000000000000001
 50
25.292546437424171
 51
90.0
  0
ARC
  5
CDB
  8
C4
 10
563.10154343008355
 20
56.181882864585127
 30
0.0
 40
1.1000000000000001
 50
270.0
 51
334.70745356257578
  0
LINE
  5
CDC
  8
C4
 10
564.40492241143295
 20
56.365467262006739
 30
0.0
 11
564.09609538040593
 21
55.711918591357801
 31
0.0
  0
ARC
  5
CDD
  8
C4
 10
565.85154343008355
 20
55.681882864585162
 30
0.0
 40
1.6000000000000001
 50
90.0
 51
154.70745356257581
  0
ARC
  5
CDE
  8
C4
 10
568.60154343008355
 20
38.281882864585157
 30
0.0
 40
1.1000000000000001
 50
90.0
 51
154.70745356257649
  0
LINE
  5
CDF
  8
C4
 10
567.29816444873416
 20
38.098298467163538
 30
0.0
 11
567.6069914797614
 21
38.75184713781249
 31
0.0
  0
ARC
  5
CE0
  8
C4
 10
565.85154343008355
 20
38.781882864585093
 30
0.0
 40
1.6000000000000001
 50
270.0
 51
334.70745356257578
  0
ARC
  5
CE1
  8
C4
 10
563.10154343008355
 20
38.281882864585157
 30
0.0
 40
1.1000000000000001
 50
25.292546437424171
 51
90.0
  0
LINE
  5
CE2
  8
C4
 10
564.40492241143295
 20
38.098298467163538
 30
0.0
 11
564.09609538040593
 21
38.75184713781249
 31
0.0
  0
ARC
  5
CE3
  8
C4
 10
565.85154343008355
 20
38.781882864585093
 30
0.0
 40
1.6000000000000001
 50
205.29254643742411
 51
270.0
  0
ARC
  5
CE4
  8
C4
 10
574.10154343008367
 20
56.181882864585127
 30
0.0
 40
1.1000000000000001
 50
205.2925464374234
 51
270.0
  0
LINE
  5
CE5
  8
C4
 10
572.79816444873416
 20
56.365467262006739
 30
0.0
 11
573.1069914797614
 21
55.711918591357801
 31
0.0
  0
ARC
  5
CE6
  8
C4
 10
571.35154343008367
 20
55.681882864585162
 30
0.0
 40
1.6000000000000001
 50
25.292546437424171
 51
90.0
  0
ARC
  5
CE7
  8
C4
 10
568.60154343008355
 20
56.181882864585127
 30
0.0
 40
1.1000000000000001
 50
270.0
 51
334.70745356257578
  0
LINE
  5
CE8
  8
C4
 10
569.90492241143306
 20
56.365467262006739
 30
0.0
 11
569.59609538040593
 21
55.711918591357801
 31
0.0
  0
ARC
  5
CE9
  8
C4
 10
571.35154343008367
 20
55.681882864585162
 30
0.0
 40
1.6000000000000001
 50
90.0
 51
154.70745356257581
  0
ARC
  5
CEA
  8
C4
 10
574.10154343008367
 20
38.281882864585157
 30
0.0
 40
1.1000000000000001
 50
90.0
 51
154.70745356257649
  0
LINE
  5
CEB
  8
C4
 10
572.79816444873416
 20
38.098298467163538
 30
0.0
 11
573.1069914797614
 21
38.75184713781249
 31
0.0
  0
ARC
  5
CEC
  8
C4
 10
571.35154343008367
 20
38.781882864585093
 30
0.0
 40
1.6000000000000001
 50
270.0
 51
334.70745356257578
  0
ARC
  5
CED
  8
C4
 10
568.60154343008355
 20
38.281882864585157
 30
0.0
 40
1.1000000000000001
 50
25.292546437424171
 51
90.0
  0
LINE
  5
CEE
  8
C4
 10
569.90492241143306
 20
38.098298467163538
 30
0.0
 11
569.59609538040593
 21
38.75184713781249
 31
0.0
  0
ARC
  5
CEF
  8
C4
 10
571.35154343008367
 20
38.781882864585093
 30
0.0
 40
1.6000000000000001
 50
205.29254643742411
 51
270.0
  0
ARC
  5
CF0
  8
C4
 10
579.60154343008355
 20
56.181882864585127
 30
0.0
 40
1.1000000000000001
 50
205.2925464374234
 51
270.0
  0
LINE
  5
CF1
  8
C4
 10
578.29816444873416
 20
56.365467262006739
 30
0.0
 11
578.6069914797614
 21
55.711918591357801
 31
0.0
  0
ARC
  5
CF2
  8
C4
 10
576.85154343008355
 20
55.681882864585162
 30
0.0
 40
1.6000000000000001
 50
25.292546437424171
 51
90.0
  0
ARC
  5
CF3
  8
C4
 10
574.10154343008367
 20
56.181882864585127
 30
0.0
 40
1.1000000000000001
 50
270.0
 51
334.70745356257578
  0
LINE
  5
CF4
  8
C4
 10
575.40492241143295
 20
56.365467262006739
 30
0.0
 11
575.09609538040593
 21
55.711918591357801
 31
0.0
  0
ARC
  5
CF5
  8
C4
 10
576.85154343008355
 20
55.681882864585162
 30
0.0
 40
1.6000000000000001
 50
90.0
 51
154.70745356257581
  0
ARC
  5
CF6
  8
C4
 10
579.60154343008355
 20
38.281882864585157
 30
0.0
 40
1.1000000000000001
 50
90.0
 51
154.70745356257649
  0
LINE
  5
CF7
  8
C4
 10
578.29816444873416
 20
38.098298467163538
 30
0.0
 11
578.6069914797614
 21
38.75184713781249
 31
0.0
  0
ARC
  5
CF8
  8
C4
 10
576.85154343008355
 20
38.781882864585093
 30
0.0
 40
1.6000000000000001
 50
270.0
 51
334.70745356257578
  0
ARC
  5
CF9
  8
C4
 10
574.10154343008367
 20
38.281882864585157
 30
0.0
 40
1.1000000000000001
 50
25.292546437424171
 51
90.0
  0
LINE
  5
CFA
  8
C4
 10
575.40492241143295
 20
38.098298467163538
 30
0.0
 11
575.09609538040593
 21
38.75184713781249
 31
0.0
  0
ARC
  5
CFB
  8
C4
 10
576.85154343008355
 20
38.781882864585093
 30
0.0
 40
1.6000000000000001
 50
205.29254643742411
 51
270.0
  0
ARC
  5
CFC
  8
C4
 10
585.10154343008355
 20
56.181882864585127
 30
0.0
 40
1.1000000000000001
 50
205.2925464374234
 51
270.0
  0
LINE
  5
CFD
  8
C4
 10
583.79816444873416
 20
56.365467262006739
 30
0.0
 11
584.10699147976129
 21
55.711918591357801
 31
0.0
  0
ARC
  5
CFE
  8
C4
 10
582.35154343008355
 20
55.681882864585162
 30
0.0
 40
1.6000000000000001
 50
25.292546437424171
 51
90.0
  0
ARC
  5
CFF
  8
C4
 10
579.60154343008355
 20
56.181882864585127
 30
0.0
 40
1.1000000000000001
 50
270.0
 51
334.70745356257578
  0
LINE
  5
D00
  8
C4
 10
580.90492241143295
 20
56.365467262006739
 30
0.0
 11
580.59609538040593
 21
55.711918591357801
 31
0.0
  0
ARC
  5
D01
  8
C4
 10
582.35154343008355
 20
55.681882864585162
 30
0.0
 40
1.6000000000000001
 50
90.0
 51
154.70745356257581
  0
ARC
  5
D02
  8
C4
 10
585.10154343008355
 20
38.281882864585157
 30
0.0
 40
1.1000000000000001
 50
90.0
 51
154.70745356257649
  0
LINE
  5
D03
  8
C4
 10
583.79816444873416
 20
38.098298467163538
 30
0.0
 11
584.10699147976129
 21
38.75184713781249
 31
0.0
  0
ARC
  5
D04
  8
C4
 10
582.35154343008355
 20
38.781882864585093
 30
0.0
 40
1.6000000000000001
 50
270.0
 51
334.70745356257578
  0
ARC
  5
D05
  8
C4
 10
579.60154343008355
 20
38.281882864585157
 30
0.0
 40
1.1000000000000001
 50
25.292546437424171
 51
90.0
  0
LINE
  5
D06
  8
C4
 10
580.90492241143295
 20
38.098298467163538
 30
0.0
 11
580.59609538040593
 21
38.75184713781249
 31
0.0
  0
ARC
  5
D07
  8
C4
 10
582.35154343008355
 20
38.781882864585093
 30
0.0
 40
1.6000000000000001
 50
205.29254643742411
 51
270.0
  0
ARC
  5
D08
  8
C4
 10
590.60154343008367
 20
56.181882864585127
 30
0.0
 40
1.1000000000000001
 50
205.2925464374234
 51
270.0
  0
LINE
  5
D09
  8
C4
 10
589.29816444873416
 20
56.365467262006739
 30
0.0
 11
589.6069914797614
 21
55.711918591357801
 31
0.0
  0
ARC
  5
D0A
  8
C4
 10
587.85154343008355
 20
55.681882864585162
 30
0.0
 40
1.6000000000000001
 50
25.292546437424171
 51
90.0
  0
ARC
  5
D0B
  8
C4
 10
585.10154343008355
 20
56.181882864585127
 30
0.0
 40
1.1000000000000001
 50
270.0
 51
334.70745356257578
  0
LINE
  5
D0C
  8
C4
 10
586.40492241143306
 20
56.365467262006739
 30
0.0
 11
586.09609538040593
 21
55.711918591357801
 31
0.0
  0
ARC
  5
D0D
  8
C4
 10
587.85154343008355
 20
55.681882864585162
 30
0.0
 40
1.6000000000000001
 50
90.0
 51
154.70745356257581
  0
ARC
  5
D0E
  8
C4
 10
590.60154343008367
 20
38.281882864585157
 30
0.0
 40
1.1000000000000001
 50
90.0
 51
154.70745356257649
  0
LINE
  5
D0F
  8
C4
 10
589.29816444873416
 20
38.098298467163538
 30
0.0
 11
589.6069914797614
 21
38.75184713781249
 31
0.0
  0
ARC
  5
D10
  8
C4
 10
587.85154343008355
 20
38.781882864585093
 30
0.0
 40
1.6000000000000001
 50
270.0
 51
334.70745356257578
  0
ARC
  5
D11
  8
C4
 10
585.10154343008355
 20
38.281882864585157
 30
0.0
 40
1.1000000000000001
 50
25.292546437424171
 51
90.0
  0
LINE
  5
D12
  8
C4
 10
586.40492241143306
 20
38.098298467163538
 30
0.0
 11
586.09609538040593
 21
38.75184713781249
 31
0.0
  0
ARC
  5
D13
  8
C4
 10
587.85154343008355
 20
38.781882864585093
 30
0.0
 40
1.6000000000000001
 50
205.29254643742411
 51
270.0
  0
ARC
  5
D14
  8
C4
 10
596.10154343008355
 20
56.181882864585127
 30
0.0
 40
1.1000000000000001
 50
205.2925464374234
 51
270.0
  0
LINE
  5
D15
  8
C4
 10
594.79816444873427
 20
56.365467262006739
 30
0.0
 11
595.1069914797614
 21
55.711918591357801
 31
0.0
  0
ARC
  5
D16
  8
C4
 10
593.35154343008355
 20
55.681882864585162
 30
0.0
 40
1.6000000000000001
 50
25.292546437424171
 51
90.0
  0
ARC
  5
D17
  8
C4
 10
590.60154343008367
 20
56.181882864585127
 30
0.0
 40
1.1000000000000001
 50
270.0
 51
334.70745356257578
  0
LINE
  5
D18
  8
C4
 10
591.90492241143295
 20
56.365467262006739
 30
0.0
 11
591.59609538040581
 21
55.711918591357801
 31
0.0
  0
ARC
  5
D19
  8
C4
 10
593.35154343008355
 20
55.681882864585162
 30
0.0
 40
1.6000000000000001
 50
90.0
 51
154.70745356257581
  0
ARC
  5
D1A
  8
C4
 10
596.10154343008355
 20
38.281882864585157
 30
0.0
 40
1.1000000000000001
 50
90.0
 51
154.70745356257649
  0
LINE
  5
D1B
  8
C4
 10
594.79816444873427
 20
38.098298467163538
 30
0.0
 11
595.1069914797614
 21
38.75184713781249
 31
0.0
  0
ARC
  5
D1C
  8
C4
 10
593.35154343008355
 20
38.781882864585093
 30
0.0
 40
1.6000000000000001
 50
270.0
 51
334.70745356257578
  0
ARC
  5
D1D
  8
C4
 10
590.60154343008367
 20
38.281882864585157
 30
0.0
 40
1.1000000000000001
 50
25.292546437424171
 51
90.0
  0
LINE
  5
D1E
  8
C4
 10
591.90492241143295
 20
38.098298467163538
 30
0.0
 11
591.59609538040581
 21
38.75184713781249
 31
0.0
  0
ARC
  5
D1F
  8
C4
 10
593.35154343008355
 20
38.781882864585093
 30
0.0
 40
1.6000000000000001
 50
205.29254643742411
 51
270.0
  0
ARC
  5
D20
  8
C4
 10
601.60154343008355
 20
56.181882864585127
 30
0.0
 40
1.1000000000000001
 50
205.2925464374234
 51
270.0
  0
LINE
  5
D21
  8
C4
 10
600.29816444873416
 20
56.365467262006739
 30
0.0
 11
600.60699147976129
 21
55.711918591357801
 31
0.0
  0
ARC
  5
D22
  8
C4
 10
598.85154343008355
 20
55.681882864585162
 30
0.0
 40
1.6000000000000001
 50
25.292546437424171
 51
90.0
  0
ARC
  5
D23
  8
C4
 10
596.10154343008355
 20
56.181882864585127
 30
0.0
 40
1.1000000000000001
 50
270.0
 51
334.70745356257578
  0
LINE
  5
D24
  8
C4
 10
597.40492241143295
 20
56.365467262006739
 30
0.0
 11
597.09609538040593
 21
55.711918591357801
 31
0.0
  0
ARC
  5
D25
  8
C4
 10
598.85154343008355
 20
55.681882864585162
 30
0.0
 40
1.6000000000000001
 50
90.0
 51
154.70745356257581
  0
ARC
  5
D26
  8
C4
 10
601.60154343008355
 20
38.281882864585157
 30
0.0
 40
1.1000000000000001
 50
90.0
 51
154.70745356257649
  0
LINE
  5
D27
  8
C4
 10
600.29816444873416
 20
38.098298467163538
 30
0.0
 11
600.60699147976129
 21
38.75184713781249
 31
0.0
  0
ARC
  5
D28
  8
C4
 10
598.85154343008355
 20
38.781882864585093
 30
0.0
 40
1.6000000000000001
 50
270.0
 51
334.70745356257578
  0
ARC
  5
D29
  8
C4
 10
596.10154343008355
 20
38.281882864585157
 30
0.0
 40
1.1000000000000001
 50
25.292546437424171
 51
90.0
  0
LINE
  5
D2A
  8
C4
 10
597.40492241143295
 20
38.098298467163538
 30
0.0
 11
597.09609538040593
 21
38.75184713781249
 31
0.0
  0
ARC
  5
D2B
  8
C4
 10
598.85154343008355
 20
38.781882864585093
 30
0.0
 40
1.6000000000000001
 50
205.29254643742411
 51
270.0
  0
ARC
  5
D2C
  8
C4
 10
607.10154343008367
 20
56.181882864585127
 30
0.0
 40
1.1000000000000001
 50
205.2925464374234
 51
270.0
  0
LINE
  5
D2D
  8
C4
 10
605.79816444873416
 20
56.365467262006739
 30
0.0
 11
606.1069914797614
 21
55.711918591357801
 31
0.0
  0
ARC
  5
D2E
  8
C4
 10
604.35154343008355
 20
55.681882864585162
 30
0.0
 40
1.6000000000000001
 50
25.292546437424171
 51
90.0
  0
ARC
  5
D2F
  8
C4
 10
601.60154343008355
 20
56.181882864585127
 30
0.0
 40
1.1000000000000001
 50
270.0
 51
334.70745356257578
  0
LINE
  5
D30
  8
C4
 10
602.90492241143306
 20
56.365467262006739
 30
0.0
 11
602.59609538040593
 21
55.711918591357801
 31
0.0
  0
ARC
  5
D31
  8
C4
 10
604.35154343008355
 20
55.681882864585162
 30
0.0
 40
1.6000000000000001
 50
90.0
 51
154.70745356257581
  0
ARC
  5
D32
  8
C4
 10
607.10154343008367
 20
38.281882864585157
 30
0.0
 40
1.1000000000000001
 50
90.0
 51
154.70745356257649
  0
LINE
  5
D33
  8
C4
 10
605.79816444873416
 20
38.098298467163538
 30
0.0
 11
606.1069914797614
 21
38.75184713781249
 31
0.0
  0
ARC
  5
D34
  8
C4
 10
604.35154343008355
 20
38.781882864585093
 30
0.0
 40
1.6000000000000001
 50
270.0
 51
334.70745356257578
  0
ARC
  5
D35
  8
C4
 10
601.60154343008355
 20
38.281882864585157
 30
0.0
 40
1.1000000000000001
 50
25.292546437424171
 51
90.0
  0
LINE
  5
D36
  8
C4
 10
602.90492241143306
 20
38.098298467163538
 30
0.0
 11
602.59609538040593
 21
38.75184713781249
 31
0.0
  0
ARC
  5
D37
  8
C4
 10
604.35154343008355
 20
38.781882864585093
 30
0.0
 40
1.6000000000000001
 50
205.29254643742411
 51
270.0
  0
ARC
  5
D38
  8
C4
 10
612.60154343008355
 20
56.181882864585127
 30
0.0
 40
1.1000000000000001
 50
205.2925464374234
 51
270.0
  0
LINE
  5
D39
  8
C4
 10
611.29816444873427
 20
56.365467262006739
 30
0.0
 11
611.6069914797614
 21
55.711918591357801
 31
0.0
  0
ARC
  5
D3A
  8
C4
 10
609.85154343008355
 20
55.681882864585162
 30
0.0
 40
1.6000000000000001
 50
25.292546437424171
 51
90.0
  0
ARC
  5
D3B
  8
C4
 10
607.10154343008367
 20
56.181882864585127
 30
0.0
 40
1.1000000000000001
 50
270.0
 51
334.70745356257578
  0
LINE
  5
D3C
  8
C4
 10
608.40492241143295
 20
56.365467262006739
 30
0.0
 11
608.09609538040581
 21
55.711918591357801
 31
0.0
  0
ARC
  5
D3D
  8
C4
 10
609.85154343008355
 20
55.681882864585162
 30
0.0
 40
1.6000000000000001
 50
90.0
 51
154.70745356257581
  0
ARC
  5
D3E
  8
C4
 10
612.60154343008355
 20
38.281882864585157
 30
0.0
 40
1.1000000000000001
 50
90.0
 51
154.70745356257649
  0
LINE
  5
D3F
  8
C4
 10
611.29816444873427
 20
38.098298467163538
 30
0.0
 11
611.6069914797614
 21
38.75184713781249
 31
0.0
  0
ARC
  5
D40
  8
C4
 10
609.85154343008355
 20
38.781882864585093
 30
0.0
 40
1.6000000000000001
 50
270.0
 51
334.70745356257578
  0
ARC
  5
D41
  8
C4
 10
607.10154343008367
 20
38.281882864585157
 30
0.0
 40
1.1000000000000001
 50
25.292546437424171
 51
90.0
  0
LINE
  5
D42
  8
C4
 10
608.40492241143295
 20
38.098298467163538
 30
0.0
 11
608.09609538040581
 21
38.75184713781249
 31
0.0
  0
ARC
  5
D43
  8
C4
 10
609.85154343008355
 20
38.781882864585093
 30
0.0
 40
1.6000000000000001
 50
205.29254643742411
 51
270.0
  0
ARC
  5
D44
  8
C4
 10
618.10154343008355
 20
56.181882864585127
 30
0.0
 40
1.1000000000000001
 50
205.2925464374234
 51
270.0
  0
LINE
  5
D45
  8
C4
 10
616.79816444873416
 20
56.365467262006739
 30
0.0
 11
617.10699147976129
 21
55.711918591357801
 31
0.0
  0
ARC
  5
D46
  8
C4
 10
615.35154343008355
 20
55.681882864585162
 30
0.0
 40
1.6000000000000001
 50
25.292546437424171
 51
90.0
  0
ARC
  5
D47
  8
C4
 10
612.60154343008355
 20
56.181882864585127
 30
0.0
 40
1.1000000000000001
 50
270.0
 51
334.70745356257578
  0
LINE
  5
D48
  8
C4
 10
613.90492241143295
 20
56.365467262006739
 30
0.0
 11
613.59609538040593
 21
55.711918591357801
 31
0.0
  0
ARC
  5
D49
  8
C4
 10
615.35154343008355
 20
55.681882864585162
 30
0.0
 40
1.6000000000000001
 50
90.0
 51
154.70745356257581
  0
ARC
  5
D4A
  8
C4
 10
618.10154343008355
 20
38.281882864585157
 30
0.0
 40
1.1000000000000001
 50
90.0
 51
154.70745356257649
  0
LINE
  5
D4B
  8
C4
 10
616.79816444873416
 20
38.098298467163538
 30
0.0
 11
617.10699147976129
 21
38.75184713781249
 31
0.0
  0
ARC
  5
D4C
  8
C4
 10
615.35154343008355
 20
38.781882864585093
 30
0.0
 40
1.6000000000000001
 50
270.0
 51
334.70745356257578
  0
ARC
  5
D4D
  8
C4
 10
612.60154343008355
 20
38.281882864585157
 30
0.0
 40
1.1000000000000001
 50
25.292546437424171
 51
90.0
  0
LINE
  5
D4E
  8
C4
 10
613.90492241143295
 20
38.098298467163538
 30
0.0
 11
613.59609538040593
 21
38.75184713781249
 31
0.0
  0
ARC
  5
D4F
  8
C4
 10
615.35154343008355
 20
38.781882864585093
 30
0.0
 40
1.6000000000000001
 50
205.29254643742411
 51
270.0
  0
ARC
  5
D50
  8
C4
 10
623.60154343008367
 20
56.181882864585127
 30
0.0
 40
1.1000000000000001
 50
205.2925464374234
 51
270.0
  0
LINE
  5
D51
  8
C4
 10
622.29816444873416
 20
56.365467262006739
 30
0.0
 11
622.6069914797614
 21
55.711918591357801
 31
0.0
  0
ARC
  5
D52
  8
C4
 10
620.85154343008355
 20
55.681882864585162
 30
0.0
 40
1.6000000000000001
 50
25.292546437424171
 51
90.0
  0
ARC
  5
D53
  8
C4
 10
618.10154343008355
 20
56.181882864585127
 30
0.0
 40
1.1000000000000001
 50
270.0
 51
334.70745356257578
  0
LINE
  5
D54
  8
C4
 10
619.40492241143295
 20
56.365467262006739
 30
0.0
 11
619.09609538040593
 21
55.711918591357801
 31
0.0
  0
ARC
  5
D55
  8
C4
 10
620.85154343008355
 20
55.681882864585162
 30
0.0
 40
1.6000000000000001
 50
90.0
 51
154.70745356257581
  0
ARC
  5
D56
  8
C4
 10
623.60154343008367
 20
38.281882864585157
 30
0.0
 40
1.1000000000000001
 50
90.0
 51
154.70745356257649
  0
LINE
  5
D57
  8
C4
 10
622.29816444873416
 20
38.098298467163538
 30
0.0
 11
622.6069914797614
 21
38.75184713781249
 31
0.0
  0
ARC
  5
D58
  8
C4
 10
620.85154343008355
 20
38.781882864585093
 30
0.0
 40
1.6000000000000001
 50
270.0
 51
334.70745356257578
  0
ARC
  5
D59
  8
C4
 10
618.10154343008355
 20
38.281882864585157
 30
0.0
 40
1.1000000000000001
 50
25.292546437424171
 51
90.0
  0
LINE
  5
D5A
  8
C4
 10
619.40492241143295
 20
38.098298467163538
 30
0.0
 11
619.09609538040593
 21
38.75184713781249
 31
0.0
  0
ARC
  5
D5B
  8
C4
 10
620.85154343008355
 20
38.781882864585093
 30
0.0
 40
1.6000000000000001
 50
205.29254643742411
 51
270.0
  0
ARC
  5
D5C
  8
C4
 10
629.10154343008355
 20
56.181882864585127
 30
0.0
 40
1.1000000000000001
 50
205.2925464374234
 51
270.0
  0
LINE
  5
D5D
  8
C4
 10
627.79816444873427
 20
56.365467262006739
 30
0.0
 11
628.1069914797614
 21
55.711918591357801
 31
0.0
  0
ARC
  5
D5E
  8
C4
 10
626.35154343008367
 20
55.681882864585162
 30
0.0
 40
1.6000000000000001
 50
25.292546437424171
 51
90.0
  0
ARC
  5
D5F
  8
C4
 10
623.60154343008367
 20
56.181882864585127
 30
0.0
 40
1.1000000000000001
 50
270.0
 51
334.70745356257578
  0
LINE
  5
D60
  8
C4
 10
624.90492241143295
 20
56.365467262006739
 30
0.0
 11
624.59609538040593
 21
55.711918591357801
 31
0.0
  0
ARC
  5
D61
  8
C4
 10
626.35154343008367
 20
55.681882864585162
 30
0.0
 40
1.6000000000000001
 50
90.0
 51
154.70745356257581
  0
ARC
  5
D62
  8
C4
 10
629.10154343008355
 20
38.281882864585157
 30
0.0
 40
1.1000000000000001
 50
90.0
 51
154.70745356257649
  0
LINE
  5
D63
  8
C4
 10
627.79816444873427
 20
38.098298467163538
 30
0.0
 11
628.1069914797614
 21
38.75184713781249
 31
0.0
  0
ARC
  5
D64
  8
C4
 10
626.35154343008367
 20
38.781882864585093
 30
0.0
 40
1.6000000000000001
 50
270.0
 51
334.70745356257578
  0
ARC
  5
D65
  8
C4
 10
623.60154343008367
 20
38.281882864585157
 30
0.0
 40
1.1000000000000001
 50
25.292546437424171
 51
90.0
  0
LINE
  5
D66
  8
C4
 10
624.90492241143295
 20
38.098298467163538
 30
0.0
 11
624.59609538040593
 21
38.75184713781249
 31
0.0
  0
ARC
  5
D67
  8
C4
 10
626.35154343008367
 20
38.781882864585093
 30
0.0
 40
1.6000000000000001
 50
205.29254643742411
 51
270.0
  0
ARC
  5
D68
  8
C4
 10
634.60154343008355
 20
56.181882864585127
 30
0.0
 40
1.1000000000000001
 50
205.2925464374234
 51
270.0
  0
LINE
  5
D69
  8
C4
 10
633.29816444873416
 20
56.365467262006739
 30
0.0
 11
633.60699147976129
 21
55.711918591357801
 31
0.0
  0
ARC
  5
D6A
  8
C4
 10
631.85154343008355
 20
55.681882864585162
 30
0.0
 40
1.6000000000000001
 50
25.292546437424171
 51
90.0
  0
ARC
  5
D6B
  8
C4
 10
629.10154343008355
 20
56.181882864585127
 30
0.0
 40
1.1000000000000001
 50
270.0
 51
334.70745356257578
  0
LINE
  5
D6C
  8
C4
 10
630.40492241143295
 20
56.365467262006739
 30
0.0
 11
630.09609538040593
 21
55.711918591357801
 31
0.0
  0
ARC
  5
D6D
  8
C4
 10
631.85154343008355
 20
55.681882864585162
 30
0.0
 40
1.6000000000000001
 50
90.0
 51
154.70745356257581
  0
ARC
  5
D6E
  8
C4
 10
634.60154343008355
 20
38.281882864585157
 30
0.0
 40
1.1000000000000001
 50
90.0
 51
154.70745356257649
  0
LINE
  5
D6F
  8
C4
 10
633.29816444873416
 20
38.098298467163538
 30
0.0
 11
633.60699147976129
 21
38.75184713781249
 31
0.0
  0
ARC
  5
D70
  8
C4
 10
631.85154343008355
 20
38.781882864585093
 30
0.0
 40
1.6000000000000001
 50
270.0
 51
334.70745356257578
  0
ARC
  5
D71
  8
C4
 10
629.10154343008355
 20
38.281882864585157
 30
0.0
 40
1.1000000000000001
 50
25.292546437424171
 51
90.0
  0
LINE
  5
D72
  8
C4
 10
630.40492241143295
 20
38.098298467163538
 30
0.0
 11
630.09609538040593
 21
38.75184713781249
 31
0.0
  0
ARC
  5
D73
  8
C4
 10
631.85154343008355
 20
38.781882864585093
 30
0.0
 40
1.6000000000000001
 50
205.29254643742411
 51
270.0
  0
ARC
  5
D74
  8
C4
 10
640.10154343008367
 20
56.181882864585127
 30
0.0
 40
1.1000000000000001
 50
205.2925464374234
 51
270.0
  0
LINE
  5
D75
  8
C4
 10
638.79816444873416
 20
56.365467262006739
 30
0.0
 11
639.1069914797614
 21
55.711918591357801
 31
0.0
  0
ARC
  5
D76
  8
C4
 10
637.35154343008355
 20
55.681882864585162
 30
0.0
 40
1.6000000000000001
 50
25.292546437424171
 51
90.0
  0
ARC
  5
D77
  8
C4
 10
634.60154343008355
 20
56.181882864585127
 30
0.0
 40
1.1000000000000001
 50
270.0
 51
334.70745356257578
  0
LINE
  5
D78
  8
C4
 10
635.90492241143295
 20
56.365467262006739
 30
0.0
 11
635.59609538040593
 21
55.711918591357801
 31
0.0
  0
ARC
  5
D79
  8
C4
 10
637.35154343008355
 20
55.681882864585162
 30
0.0
 40
1.6000000000000001
 50
90.0
 51
154.70745356257581
  0
ARC
  5
D7A
  8
C4
 10
640.10154343008367
 20
38.281882864585157
 30
0.0
 40
1.1000000000000001
 50
90.0
 51
154.70745356257649
  0
LINE
  5
D7B
  8
C4
 10
638.79816444873416
 20
38.098298467163538
 30
0.0
 11
639.1069914797614
 21
38.75184713781249
 31
0.0
  0
ARC
  5
D7C
  8
C4
 10
637.35154343008355
 20
38.781882864585093
 30
0.0
 40
1.6000000000000001
 50
270.0
 51
334.70745356257578
  0
ARC
  5
D7D
  8
C4
 10
634.60154343008355
 20
38.281882864585157
 30
0.0
 40
1.1000000000000001
 50
25.292546437424171
 51
90.0
  0
LINE
  5
D7E
  8
C4
 10
635.90492241143295
 20
38.098298467163538
 30
0.0
 11
635.59609538040593
 21
38.75184713781249
 31
0.0
  0
ARC
  5
D7F
  8
C4
 10
637.35154343008355
 20
38.781882864585093
 30
0.0
 40
1.6000000000000001
 50
205.29254643742411
 51
270.0
  0
ARC
  5
D80
  8
C4
 10
645.60154343008355
 20
56.181882864585127
 30
0.0
 40
1.1000000000000001
 50
205.2925464374234
 51
270.0
  0
LINE
  5
D81
  8
C4
 10
644.29816444873427
 20
56.365467262006739
 30
0.0
 11
644.6069914797614
 21
55.711918591357801
 31
0.0
  0
ARC
  5
D82
  8
C4
 10
642.85154343008367
 20
55.681882864585162
 30
0.0
 40
1.6000000000000001
 50
25.292546437424171
 51
90.0
  0
ARC
  5
D83
  8
C4
 10
640.10154343008367
 20
56.181882864585127
 30
0.0
 40
1.1000000000000001
 50
270.0
 51
334.70745356257578
  0
LINE
  5
D84
  8
C4
 10
641.40492241143295
 20
56.365467262006739
 30
0.0
 11
641.09609538040593
 21
55.711918591357801
 31
0.0
  0
ARC
  5
D85
  8
C4
 10
642.85154343008367
 20
55.681882864585162
 30
0.0
 40
1.6000000000000001
 50
90.0
 51
154.70745356257581
  0
ARC
  5
D86
  8
C4
 10
645.60154343008355
 20
38.281882864585157
 30
0.0
 40
1.1000000000000001
 50
90.0
 51
154.70745356257649
  0
LINE
  5
D87
  8
C4
 10
644.29816444873427
 20
38.098298467163538
 30
0.0
 11
644.6069914797614
 21
38.75184713781249
 31
0.0
  0
ARC
  5
D88
  8
C4
 10
642.85154343008367
 20
38.781882864585093
 30
0.0
 40
1.6000000000000001
 50
270.0
 51
334.70745356257578
  0
ARC
  5
D89
  8
C4
 10
640.10154343008367
 20
38.281882864585157
 30
0.0
 40
1.1000000000000001
 50
25.292546437424171
 51
90.0
  0
LINE
  5
D8A
  8
C4
 10
641.40492241143295
 20
38.098298467163538
 30
0.0
 11
641.09609538040593
 21
38.75184713781249
 31
0.0
  0
ARC
  5
D8B
  8
C4
 10
642.85154343008367
 20
38.781882864585093
 30
0.0
 40
1.6000000000000001
 50
205.29254643742411
 51
270.0
  0
ARC
  5
D8C
  8
C4
 10
651.10154343008355
 20
56.181882864585127
 30
0.0
 40
1.1000000000000001
 50
205.2925464374234
 51
270.0
  0
LINE
  5
D8D
  8
C4
 10
649.79816444873416
 20
56.365467262006739
 30
0.0
 11
650.10699147976129
 21
55.711918591357801
 31
0.0
  0
ARC
  5
D8E
  8
C4
 10
648.35154343008355
 20
55.681882864585162
 30
0.0
 40
1.6000000000000001
 50
25.292546437424171
 51
90.0
  0
ARC
  5
D8F
  8
C4
 10
645.60154343008355
 20
56.181882864585127
 30
0.0
 40
1.1000000000000001
 50
270.0
 51
334.70745356257578
  0
LINE
  5
D90
  8
C4
 10
646.90492241143295
 20
56.365467262006739
 30
0.0
 11
646.59609538040593
 21
55.711918591357801
 31
0.0
  0
ARC
  5
D91
  8
C4
 10
648.35154343008355
 20
55.681882864585162
 30
0.0
 40
1.6000000000000001
 50
90.0
 51
154.70745356257581
  0
ARC
  5
D92
  8
C4
 10
651.10154343008355
 20
38.281882864585157
 30
0.0
 40
1.1000000000000001
 50
90.0
 51
154.70745356257649
  0
LINE
  5
D93
  8
C4
 10
649.79816444873416
 20
38.098298467163538
 30
0.0
 11
650.10699147976129
 21
38.75184713781249
 31
0.0
  0
ARC
  5
D94
  8
C4
 10
648.35154343008355
 20
38.781882864585093
 30
0.0
 40
1.6000000000000001
 50
270.0
 51
334.70745356257578
  0
ARC
  5
D95
  8
C4
 10
645.60154343008355
 20
38.281882864585157
 30
0.0
 40
1.1000000000000001
 50
25.292546437424171
 51
90.0
  0
LINE
  5
D96
  8
C4
 10
646.90492241143295
 20
38.098298467163538
 30
0.0
 11
646.59609538040593
 21
38.75184713781249
 31
0.0
  0
ARC
  5
D97
  8
C4
 10
648.35154343008355
 20
38.781882864585093
 30
0.0
 40
1.6000000000000001
 50
205.29254643742411
 51
270.0
  0
ARC
  5
D98
  8
C4
 10
656.60154343008367
 20
56.181882864585127
 30
0.0
 40
1.1000000000000001
 50
205.2925464374234
 51
270.0
  0
LINE
  5
D99
  8
C4
 10
655.29816444873416
 20
56.365467262006739
 30
0.0
 11
655.6069914797614
 21
55.711918591357801
 31
0.0
  0
ARC
  5
D9A
  8
C4
 10
653.85154343008355
 20
55.681882864585162
 30
0.0
 40
1.6000000000000001
 50
25.292546437424171
 51
90.0
  0
ARC
  5
D9B
  8
C4
 10
651.10154343008355
 20
56.181882864585127
 30
0.0
 40
1.1000000000000001
 50
270.0
 51
334.70745356257578
  0
LINE
  5
D9C
  8
C4
 10
652.40492241143295
 20
56.365467262006739
 30
0.0
 11
652.09609538040593
 21
55.711918591357801
 31
0.0
  0
ARC
  5
D9D
  8
C4
 10
653.85154343008355
 20
55.681882864585162
 30
0.0
 40
1.6000000000000001
 50
90.0
 51
154.70745356257581
  0
ARC
  5
D9E
  8
C4
 10
656.60154343008367
 20
38.281882864585157
 30
0.0
 40
1.1000000000000001
 50
90.0
 51
154.70745356257649
  0
LINE
  5
D9F
  8
C4
 10
655.29816444873416
 20
38.098298467163538
 30
0.0
 11
655.6069914797614
 21
38.75184713781249
 31
0.0
  0
ARC
  5
DA0
  8
C4
 10
653.85154343008355
 20
38.781882864585093
 30
0.0
 40
1.6000000000000001
 50
270.0
 51
334.70745356257578
  0
ARC
  5
DA1
  8
C4
 10
651.10154343008355
 20
38.281882864585157
 30
0.0
 40
1.1000000000000001
 50
25.292546437424171
 51
90.0
  0
LINE
  5
DA2
  8
C4
 10
652.40492241143295
 20
38.098298467163538
 30
0.0
 11
652.09609538040593
 21
38.75184713781249
 31
0.0
  0
ARC
  5
DA3
  8
C4
 10
653.85154343008355
 20
38.781882864585093
 30
0.0
 40
1.6000000000000001
 50
205.29254643742411
 51
270.0
  0
ARC
  5
DA4
  8
C4
 10
662.10154343008355
 20
56.181882864585127
 30
0.0
 40
1.1000000000000001
 50
205.2925464374234
 51
270.0
  0
LINE
  5
DA5
  8
C4
 10
660.79816444873427
 20
56.365467262006739
 30
0.0
 11
661.1069914797614
 21
55.711918591357801
 31
0.0
  0
ARC
  5
DA6
  8
C4
 10
659.35154343008367
 20
55.681882864585162
 30
0.0
 40
1.6000000000000001
 50
25.292546437424171
 51
90.0
  0
ARC
  5
DA7
  8
C4
 10
656.60154343008367
 20
56.181882864585127
 30
0.0
 40
1.1000000000000001
 50
270.0
 51
334.70745356257578
  0
LINE
  5
DA8
  8
C4
 10
657.90492241143306
 20
56.365467262006739
 30
0.0
 11
657.59609538040593
 21
55.711918591357801
 31
0.0
  0
ARC
  5
DA9
  8
C4
 10
659.35154343008367
 20
55.681882864585162
 30
0.0
 40
1.6000000000000001
 50
90.0
 51
154.70745356257581
  0
ARC
  5
DAA
  8
C4
 10
662.10154343008355
 20
38.281882864585157
 30
0.0
 40
1.1000000000000001
 50
90.0
 51
154.70745356257649
  0
LINE
  5
DAB
  8
C4
 10
660.79816444873427
 20
38.098298467163538
 30
0.0
 11
661.1069914797614
 21
38.75184713781249
 31
0.0
  0
ARC
  5
DAC
  8
C4
 10
659.35154343008367
 20
38.781882864585093
 30
0.0
 40
1.6000000000000001
 50
270.0
 51
334.70745356257578
  0
ARC
  5
DAD
  8
C4
 10
656.60154343008367
 20
38.281882864585157
 30
0.0
 40
1.1000000000000001
 50
25.292546437424171
 51
90.0
  0
LINE
  5
DAE
  8
C4
 10
657.90492241143306
 20
38.098298467163538
 30
0.0
 11
657.59609538040593
 21
38.75184713781249
 31
0.0
  0
ARC
  5
DAF
  8
C4
 10
659.35154343008367
 20
38.781882864585093
 30
0.0
 40
1.6000000000000001
 50
205.29254643742411
 51
270.0
  0
ARC
  5
DB0
  8
C4
 10
667.60154343008355
 20
56.181882864585127
 30
0.0
 40
1.1000000000000001
 50
205.2925464374234
 51
270.0
  0
LINE
  5
DB1
  8
C4
 10
666.29816444873416
 20
56.365467262006739
 30
0.0
 11
666.60699147976129
 21
55.711918591357801
 31
0.0
  0
ARC
  5
DB2
  8
C4
 10
664.85154343008355
 20
55.681882864585162
 30
0.0
 40
1.6000000000000001
 50
25.292546437424171
 51
90.0
  0
ARC
  5
DB3
  8
C4
 10
662.10154343008355
 20
56.181882864585127
 30
0.0
 40
1.1000000000000001
 50
270.0
 51
334.70745356257578
  0
LINE
  5
DB4
  8
C4
 10
663.40492241143295
 20
56.365467262006739
 30
0.0
 11
663.09609538040593
 21
55.711918591357801
 31
0.0
  0
ARC
  5
DB5
  8
C4
 10
664.85154343008355
 20
55.681882864585162
 30
0.0
 40
1.6000000000000001
 50
90.0
 51
154.70745356257581
  0
ARC
  5
DB6
  8
C4
 10
667.60154343008355
 20
38.281882864585157
 30
0.0
 40
1.1000000000000001
 50
90.0
 51
154.70745356257649
  0
LINE
  5
DB7
  8
C4
 10
666.29816444873416
 20
38.098298467163538
 30
0.0
 11
666.60699147976129
 21
38.75184713781249
 31
0.0
  0
ARC
  5
DB8
  8
C4
 10
664.85154343008355
 20
38.781882864585093
 30
0.0
 40
1.6000000000000001
 50
270.0
 51
334.70745356257578
  0
ARC
  5
DB9
  8
C4
 10
662.10154343008355
 20
38.281882864585157
 30
0.0
 40
1.1000000000000001
 50
25.292546437424171
 51
90.0
  0
LINE
  5
DBA
  8
C4
 10
663.40492241143295
 20
38.098298467163538
 30
0.0
 11
663.09609538040593
 21
38.75184713781249
 31
0.0
  0
ARC
  5
DBB
  8
C4
 10
664.85154343008355
 20
38.781882864585093
 30
0.0
 40
1.6000000000000001
 50
205.29254643742411
 51
270.0
  0
ARC
  5
DBC
  8
C4
 10
673.10154343008355
 20
56.181882864585127
 30
0.0
 40
1.1000000000000001
 50
205.2925464374234
 51
270.0
  0
LINE
  5
DBD
  8
C4
 10
671.79816444873416
 20
56.365467262006739
 30
0.0
 11
672.1069914797614
 21
55.711918591357801
 31
0.0
  0
ARC
  5
DBE
  8
C4
 10
670.35154343008355
 20
55.681882864585162
 30
0.0
 40
1.6000000000000001
 50
25.292546437424171
 51
90.0
  0
ARC
  5
DBF
  8
C4
 10
667.60154343008355
 20
56.181882864585127
 30
0.0
 40
1.1000000000000001
 50
270.0
 51
334.70745356257578
  0
LINE
  5
DC0
  8
C4
 10
668.90492241143295
 20
56.365467262006739
 30
0.0
 11
668.59609538040593
 21
55.711918591357801
 31
0.0
  0
ARC
  5
DC1
  8
C4
 10
670.35154343008355
 20
55.681882864585162
 30
0.0
 40
1.6000000000000001
 50
90.0
 51
154.70745356257581
  0
ARC
  5
DC2
  8
C4
 10
673.10154343008355
 20
38.281882864585157
 30
0.0
 40
1.1000000000000001
 50
90.0
 51
154.70745356257649
  0
LINE
  5
DC3
  8
C4
 10
671.79816444873416
 20
38.098298467163538
 30
0.0
 11
672.1069914797614
 21
38.75184713781249
 31
0.0
  0
ARC
  5
DC4
  8
C4
 10
670.35154343008355
 20
38.781882864585093
 30
0.0
 40
1.6000000000000001
 50
270.0
 51
334.70745356257578
  0
ARC
  5
DC5
  8
C4
 10
667.60154343008355
 20
38.281882864585157
 30
0.0
 40
1.1000000000000001
 50
25.292546437424171
 51
90.0
  0
LINE
  5
DC6
  8
C4
 10
668.90492241143295
 20
38.098298467163538
 30
0.0
 11
668.59609538040593
 21
38.75184713781249
 31
0.0
  0
ARC
  5
DC7
  8
C4
 10
670.35154343008355
 20
38.781882864585093
 30
0.0
 40
1.6000000000000001
 50
205.29254643742411
 51
270.0
  0
ARC
  5
DC8
  8
C4
 10
678.60154343008355
 20
56.181882864585127
 30
0.0
 40
1.1000000000000001
 50
205.2925464374234
 51
270.0
  0
LINE
  5
DC9
  8
C4
 10
677.29816444873427
 20
56.365467262006739
 30
0.0
 11
677.6069914797614
 21
55.711918591357801
 31
0.0
  0
ARC
  5
DCA
  8
C4
 10
675.85154343008367
 20
55.681882864585162
 30
0.0
 40
1.6000000000000001
 50
25.292546437424171
 51
90.0
  0
ARC
  5
DCB
  8
C4
 10
673.10154343008355
 20
56.181882864585127
 30
0.0
 40
1.1000000000000001
 50
270.0
 51
334.70745356257578
  0
LINE
  5
DCC
  8
C4
 10
674.40492241143306
 20
56.365467262006739
 30
0.0
 11
674.09609538040593
 21
55.711918591357801
 31
0.0
  0
ARC
  5
DCD
  8
C4
 10
675.85154343008367
 20
55.681882864585162
 30
0.0
 40
1.6000000000000001
 50
90.0
 51
154.70745356257581
  0
ARC
  5
DCE
  8
C4
 10
678.60154343008355
 20
38.281882864585157
 30
0.0
 40
1.1000000000000001
 50
90.0
 51
154.70745356257649
  0
LINE
  5
DCF
  8
C4
 10
677.29816444873427
 20
38.098298467163538
 30
0.0
 11
677.6069914797614
 21
38.75184713781249
 31
0.0
  0
ARC
  5
DD0
  8
C4
 10
675.85154343008367
 20
38.781882864585093
 30
0.0
 40
1.6000000000000001
 50
270.0
 51
334.70745356257578
  0
ARC
  5
DD1
  8
C4
 10
673.10154343008355
 20
38.281882864585157
 30
0.0
 40
1.1000000000000001
 50
25.292546437424171
 51
90.0
  0
LINE
  5
DD2
  8
C4
 10
674.40492241143306
 20
38.098298467163538
 30
0.0
 11
674.09609538040593
 21
38.75184713781249
 31
0.0
  0
ARC
  5
DD3
  8
C4
 10
675.85154343008367
 20
38.781882864585093
 30
0.0
 40
1.6000000000000001
 50
205.29254643742411
 51
270.0
  0
ARC
  5
DD4
  8
C4
 10
684.10154343008355
 20
56.181882864585127
 30
0.0
 40
1.1000000000000001
 50
205.2925464374234
 51
270.0
  0
LINE
  5
DD5
  8
C4
 10
682.79816444873416
 20
56.365467262006739
 30
0.0
 11
683.10699147976129
 21
55.711918591357801
 31
0.0
  0
ARC
  5
DD6
  8
C4
 10
681.35154343008355
 20
55.681882864585162
 30
0.0
 40
1.6000000000000001
 50
25.292546437424171
 51
90.0
  0
ARC
  5
DD7
  8
C4
 10
678.60154343008355
 20
56.181882864585127
 30
0.0
 40
1.1000000000000001
 50
270.0
 51
334.70745356257578
  0
LINE
  5
DD8
  8
C4
 10
679.90492241143295
 20
56.365467262006739
 30
0.0
 11
679.59609538040593
 21
55.711918591357801
 31
0.0
  0
ARC
  5
DD9
  8
C4
 10
681.35154343008355
 20
55.681882864585162
 30
0.0
 40
1.6000000000000001
 50
90.0
 51
154.70745356257581
  0
ARC
  5
DDA
  8
C4
 10
684.10154343008355
 20
38.281882864585157
 30
0.0
 40
1.1000000000000001
 50
90.0
 51
154.70745356257649
  0
LINE
  5
DDB
  8
C4
 10
682.79816444873416
 20
38.098298467163538
 30
0.0
 11
683.10699147976129
 21
38.75184713781249
 31
0.0
  0
ARC
  5
DDC
  8
C4
 10
681.35154343008355
 20
38.781882864585093
 30
0.0
 40
1.6000000000000001
 50
270.0
 51
334.70745356257578
  0
ARC
  5
DDD
  8
C4
 10
678.60154343008355
 20
38.281882864585157
 30
0.0
 40
1.1000000000000001
 50
25.292546437424171
 51
90.0
  0
LINE
  5
DDE
  8
C4
 10
679.90492241143295
 20
38.098298467163538
 30
0.0
 11
679.59609538040593
 21
38.75184713781249
 31
0.0
  0
ARC
  5
DDF
  8
C4
 10
681.35154343008355
 20
38.781882864585093
 30
0.0
 40
1.6000000000000001
 50
205.29254643742411
 51
270.0
  0
ARC
  5
DE0
  8
C4
 10
689.60154343008355
 20
56.181882864585127
 30
0.0
 40
1.1000000000000001
 50
205.2925464374234
 51
270.0
  0
LINE
  5
DE1
  8
C4
 10
688.29816444873416
 20
56.365467262006739
 30
0.0
 11
688.6069914797614
 21
55.711918591357801
 31
0.0
  0
ARC
  5
DE2
  8
C4
 10
686.85154343008355
 20
55.681882864585162
 30
0.0
 40
1.6000000000000001
 50
25.292546437424171
 51
90.0
  0
ARC
  5
DE3
  8
C4
 10
684.10154343008355
 20
56.181882864585127
 30
0.0
 40
1.1000000000000001
 50
270.0
 51
334.70745356257578
  0
LINE
  5
DE4
  8
C4
 10
685.40492241143295
 20
56.365467262006739
 30
0.0
 11
685.09609538040593
 21
55.711918591357801
 31
0.0
  0
ARC
  5
DE5
  8
C4
 10
686.85154343008355
 20
55.681882864585162
 30
0.0
 40
1.6000000000000001
 50
90.0
 51
154.70745356257581
  0
ARC
  5
DE6
  8
C4
 10
689.60154343008355
 20
38.281882864585157
 30
0.0
 40
1.1000000000000001
 50
90.0
 51
154.70745356257649
  0
LINE
  5
DE7
  8
C4
 10
688.29816444873416
 20
38.098298467163538
 30
0.0
 11
688.6069914797614
 21
38.75184713781249
 31
0.0
  0
ARC
  5
DE8
  8
C4
 10
686.85154343008355
 20
38.781882864585093
 30
0.0
 40
1.6000000000000001
 50
270.0
 51
334.70745356257578
  0
ARC
  5
DE9
  8
C4
 10
684.10154343008355
 20
38.281882864585157
 30
0.0
 40
1.1000000000000001
 50
25.292546437424171
 51
90.0
  0
LINE
  5
DEA
  8
C4
 10
685.40492241143295
 20
38.098298467163538
 30
0.0
 11
685.09609538040593
 21
38.75184713781249
 31
0.0
  0
ARC
  5
DEB
  8
C4
 10
686.85154343008355
 20
38.781882864585093
 30
0.0
 40
1.6000000000000001
 50
205.29254643742411
 51
270.0
  0
ARC
  5
DEC
  8
C4
 10
695.10154343008367
 20
56.181882864585127
 30
0.0
 40
1.1000000000000001
 50
205.2925464374234
 51
270.0
  0
LINE
  5
DED
  8
C4
 10
693.79816444873427
 20
56.365467262006739
 30
0.0
 11
694.1069914797614
 21
55.711918591357801
 31
0.0
  0
ARC
  5
DEE
  8
C4
 10
692.35154343008367
 20
55.681882864585162
 30
0.0
 40
1.6000000000000001
 50
25.292546437424171
 51
90.0
  0
ARC
  5
DEF
  8
C4
 10
689.60154343008355
 20
56.181882864585127
 30
0.0
 40
1.1000000000000001
 50
270.0
 51
334.70745356257578
  0
LINE
  5
DF0
  8
C4
 10
690.90492241143306
 20
56.365467262006739
 30
0.0
 11
690.59609538040593
 21
55.711918591357801
 31
0.0
  0
ARC
  5
DF1
  8
C4
 10
692.35154343008367
 20
55.681882864585162
 30
0.0
 40
1.6000000000000001
 50
90.0
 51
154.70745356257581
  0
ARC
  5
DF2
  8
C4
 10
695.10154343008367
 20
38.281882864585157
 30
0.0
 40
1.1000000000000001
 50
90.0
 51
154.70745356257649
  0
LINE
  5
DF3
  8
C4
 10
693.79816444873427
 20
38.098298467163538
 30
0.0
 11
694.1069914797614
 21
38.75184713781249
 31
0.0
  0
ARC
  5
DF4
  8
C4
 10
692.35154343008367
 20
38.781882864585093
 30
0.0
 40
1.6000000000000001
 50
270.0
 51
334.70745356257578
  0
ARC
  5
DF5
  8
C4
 10
689.60154343008355
 20
38.281882864585157
 30
0.0
 40
1.1000000000000001
 50
25.292546437424171
 51
90.0
  0
LINE
  5
DF6
  8
C4
 10
690.90492241143306
 20
38.098298467163538
 30
0.0
 11
690.59609538040593
 21
38.75184713781249
 31
0.0
  0
ARC
  5
DF7
  8
C4
 10
692.35154343008367
 20
38.781882864585093
 30
0.0
 40
1.6000000000000001
 50
205.29254643742411
 51
270.0
  0
ARC
  5
DF8
  8
C4
 10
700.60154343008355
 20
56.181882864585127
 30
0.0
 40
1.1000000000000001
 50
205.2925464374234
 51
270.0
  0
LINE
  5
DF9
  8
C4
 10
699.29816444873416
 20
56.365467262006739
 30
0.0
 11
699.60699147976129
 21
55.711918591357801
 31
0.0
  0
ARC
  5
DFA
  8
C4
 10
697.85154343008355
 20
55.681882864585162
 30
0.0
 40
1.6000000000000001
 50
25.292546437424171
 51
90.0
  0
ARC
  5
DFB
  8
C4
 10
695.10154343008367
 20
56.181882864585127
 30
0.0
 40
1.1000000000000001
 50
270.0
 51
334.70745356257578
  0
LINE
  5
DFC
  8
C4
 10
696.40492241143295
 20
56.365467262006739
 30
0.0
 11
696.09609538040593
 21
55.711918591357801
 31
0.0
  0
ARC
  5
DFD
  8
C4
 10
697.85154343008355
 20
55.681882864585162
 30
0.0
 40
1.6000000000000001
 50
90.0
 51
154.70745356257581
  0
ARC
  5
DFE
  8
C4
 10
700.60154343008355
 20
38.281882864585157
 30
0.0
 40
1.1000000000000001
 50
90.0
 51
154.70745356257649
  0
LINE
  5
DFF
  8
C4
 10
699.29816444873416
 20
38.098298467163538
 30
0.0
 11
699.60699147976129
 21
38.75184713781249
 31
0.0
  0
ARC
  5
E00
  8
C4
 10
697.85154343008355
 20
38.781882864585093
 30
0.0
 40
1.6000000000000001
 50
270.0
 51
334.70745356257578
  0
ARC
  5
E01
  8
C4
 10
695.10154343008367
 20
38.281882864585157
 30
0.0
 40
1.1000000000000001
 50
25.292546437424171
 51
90.0
  0
LINE
  5
E02
  8
C4
 10
696.40492241143295
 20
38.098298467163538
 30
0.0
 11
696.09609538040593
 21
38.75184713781249
 31
0.0
  0
ARC
  5
E03
  8
C4
 10
697.85154343008355
 20
38.781882864585093
 30
0.0
 40
1.6000000000000001
 50
205.29254643742411
 51
270.0
  0
ARC
  5
E04
  8
C4
 10
706.10154343008355
 20
56.181882864585127
 30
0.0
 40
1.1000000000000001
 50
205.2925464374234
 51
270.0
  0
LINE
  5
E05
  8
C4
 10
704.79816444873416
 20
56.365467262006739
 30
0.0
 11
705.1069914797614
 21
55.711918591357801
 31
0.0
  0
ARC
  5
E06
  8
C4
 10
703.35154343008355
 20
55.681882864585162
 30
0.0
 40
1.6000000000000001
 50
25.292546437424171
 51
90.0
  0
ARC
  5
E07
  8
C4
 10
700.60154343008355
 20
56.181882864585127
 30
0.0
 40
1.1000000000000001
 50
270.0
 51
334.70745356257578
  0
LINE
  5
E08
  8
C4
 10
701.90492241143295
 20
56.365467262006739
 30
0.0
 11
701.59609538040593
 21
55.711918591357801
 31
0.0
  0
ARC
  5
E09
  8
C4
 10
703.35154343008355
 20
55.681882864585162
 30
0.0
 40
1.6000000000000001
 50
90.0
 51
154.70745356257581
  0
ARC
  5
E0A
  8
C4
 10
706.10154343008355
 20
38.281882864585157
 30
0.0
 40
1.1000000000000001
 50
90.0
 51
154.70745356257649
  0
LINE
  5
E0B
  8
C4
 10
704.79816444873416
 20
38.098298467163538
 30
0.0
 11
705.1069914797614
 21
38.75184713781249
 31
0.0
  0
ARC
  5
E0C
  8
C4
 10
703.35154343008355
 20
38.781882864585093
 30
0.0
 40
1.6000000000000001
 50
270.0
 51
334.70745356257578
  0
ARC
  5
E0D
  8
C4
 10
700.60154343008355
 20
38.281882864585157
 30
0.0
 40
1.1000000000000001
 50
25.292546437424171
 51
90.0
  0
LINE
  5
E0E
  8
C4
 10
701.90492241143295
 20
38.098298467163538
 30
0.0
 11
701.59609538040593
 21
38.75184713781249
 31
0.0
  0
ARC
  5
E0F
  8
C4
 10
703.35154343008355
 20
38.781882864585093
 30
0.0
 40
1.6000000000000001
 50
205.29254643742411
 51
270.0
  0
ARC
  5
E10
  8
C4
 10
711.60154343008367
 20
56.181882864585127
 30
0.0
 40
1.1000000000000001
 50
205.2925464374234
 51
270.0
  0
LINE
  5
E11
  8
C4
 10
710.29816444873427
 20
56.365467262006739
 30
0.0
 11
710.6069914797614
 21
55.711918591357801
 31
0.0
  0
ARC
  5
E12
  8
C4
 10
708.85154343008367
 20
55.681882864585162
 30
0.0
 40
1.6000000000000001
 50
25.292546437424171
 51
90.0
  0
ARC
  5
E13
  8
C4
 10
706.10154343008355
 20
56.181882864585127
 30
0.0
 40
1.1000000000000001
 50
270.0
 51
334.70745356257578
  0
LINE
  5
E14
  8
C4
 10
707.40492241143306
 20
56.365467262006739
 30
0.0
 11
707.09609538040593
 21
55.711918591357801
 31
0.0
  0
ARC
  5
E15
  8
C4
 10
708.85154343008367
 20
55.681882864585162
 30
0.0
 40
1.6000000000000001
 50
90.0
 51
154.70745356257581
  0
ARC
  5
E16
  8
C4
 10
711.60154343008367
 20
38.281882864585157
 30
0.0
 40
1.1000000000000001
 50
90.0
 51
154.70745356257649
  0
LINE
  5
E17
  8
C4
 10
710.29816444873427
 20
38.098298467163538
 30
0.0
 11
710.6069914797614
 21
38.75184713781249
 31
0.0
  0
ARC
  5
E18
  8
C4
 10
708.85154343008367
 20
38.781882864585093
 30
0.0
 40
1.6000000000000001
 50
270.0
 51
334.70745356257578
  0
ARC
  5
E19
  8
C4
 10
706.10154343008355
 20
38.281882864585157
 30
0.0
 40
1.1000000000000001
 50
25.292546437424171
 51
90.0
  0
LINE
  5
E1A
  8
C4
 10
707.40492241143306
 20
38.098298467163538
 30
0.0
 11
707.09609538040593
 21
38.75184713781249
 31
0.0
  0
ARC
  5
E1B
  8
C4
 10
708.85154343008367
 20
38.781882864585093
 30
0.0
 40
1.6000000000000001
 50
205.29254643742411
 51
270.0
  0
ARC
  5
E1C
  8
C4
 10
717.10154343008355
 20
56.181882864585127
 30
0.0
 40
1.1000000000000001
 50
205.2925464374234
 51
270.0
  0
LINE
  5
E1D
  8
C4
 10
715.79816444873416
 20
56.365467262006739
 30
0.0
 11
716.1069914797614
 21
55.711918591357801
 31
0.0
  0
ARC
  5
E1E
  8
C4
 10
714.35154343008355
 20
55.681882864585162
 30
0.0
 40
1.6000000000000001
 50
25.292546437424171
 51
90.0
  0
ARC
  5
E1F
  8
C4
 10
711.60154343008367
 20
56.181882864585127
 30
0.0
 40
1.1000000000000001
 50
270.0
 51
334.70745356257578
  0
LINE
  5
E20
  8
C4
 10
712.90492241143295
 20
56.365467262006739
 30
0.0
 11
712.59609538040593
 21
55.711918591357801
 31
0.0
  0
ARC
  5
E21
  8
C4
 10
714.35154343008355
 20
55.681882864585162
 30
0.0
 40
1.6000000000000001
 50
90.0
 51
154.70745356257581
  0
ARC
  5
E22
  8
C4
 10
717.10154343008355
 20
38.281882864585157
 30
0.0
 40
1.1000000000000001
 50
90.0
 51
154.70745356257649
  0
LINE
  5
E23
  8
C4
 10
715.79816444873416
 20
38.098298467163538
 30
0.0
 11
716.1069914797614
 21
38.75184713781249
 31
0.0
  0
ARC
  5
E24
  8
C4
 10
714.35154343008355
 20
38.781882864585093
 30
0.0
 40
1.6000000000000001
 50
270.0
 51
334.70745356257578
  0
ARC
  5
E25
  8
C4
 10
711.60154343008367
 20
38.281882864585157
 30
0.0
 40
1.1000000000000001
 50
25.292546437424171
 51
90.0
  0
LINE
  5
E26
  8
C4
 10
712.90492241143295
 20
38.098298467163538
 30
0.0
 11
712.59609538040593
 21
38.75184713781249
 31
0.0
  0
ARC
  5
E27
  8
C4
 10
714.35154343008355
 20
38.781882864585093
 30
0.0
 40
1.6000000000000001
 50
205.29254643742411
 51
270.0
  0
ARC
  5
E28
  8
C4
 10
722.60154343008355
 20
56.181882864585127
 30
0.0
 40
1.1000000000000001
 50
205.2925464374234
 51
270.0
  0
LINE
  5
E29
  8
C4
 10
721.29816444873416
 20
56.365467262006739
 30
0.0
 11
721.6069914797614
 21
55.711918591357801
 31
0.0
  0
ARC
  5
E2A
  8
C4
 10
719.85154343008355
 20
55.681882864585162
 30
0.0
 40
1.6000000000000001
 50
25.292546437424171
 51
90.0
  0
ARC
  5
E2B
  8
C4
 10
717.10154343008355
 20
56.181882864585127
 30
0.0
 40
1.1000000000000001
 50
270.0
 51
334.70745356257578
  0
LINE
  5
E2C
  8
C4
 10
718.40492241143295
 20
56.365467262006739
 30
0.0
 11
718.09609538040593
 21
55.711918591357801
 31
0.0
  0
ARC
  5
E2D
  8
C4
 10
719.85154343008355
 20
55.681882864585162
 30
0.0
 40
1.6000000000000001
 50
90.0
 51
154.70745356257581
  0
ARC
  5
E2E
  8
C4
 10
722.60154343008355
 20
38.281882864585157
 30
0.0
 40
1.1000000000000001
 50
90.0
 51
154.70745356257649
  0
LINE
  5
E2F
  8
C4
 10
721.29816444873416
 20
38.098298467163538
 30
0.0
 11
721.6069914797614
 21
38.75184713781249
 31
0.0
  0
ARC
  5
E30
  8
C4
 10
719.85154343008355
 20
38.781882864585093
 30
0.0
 40
1.6000000000000001
 50
270.0
 51
334.70745356257578
  0
ARC
  5
E31
  8
C4
 10
717.10154343008355
 20
38.281882864585157
 30
0.0
 40
1.1000000000000001
 50
25.292546437424171
 51
90.0
  0
LINE
  5
E32
  8
C4
 10
718.40492241143295
 20
38.098298467163538
 30
0.0
 11
718.09609538040593
 21
38.75184713781249
 31
0.0
  0
ARC
  5
E33
  8
C4
 10
719.85154343008355
 20
38.781882864585093
 30
0.0
 40
1.6000000000000001
 50
205.29254643742411
 51
270.0
  0
ARC
  5
E34
  8
C4
 10
728.10154343008367
 20
56.181882864585127
 30
0.0
 40
1.1000000000000001
 50
205.2925464374234
 51
270.0
  0
LINE
  5
E35
  8
C4
 10
726.79816444873416
 20
56.365467262006739
 30
0.0
 11
727.1069914797614
 21
55.711918591357801
 31
0.0
  0
ARC
  5
E36
  8
C4
 10
725.35154343008367
 20
55.681882864585162
 30
0.0
 40
1.6000000000000001
 50
25.292546437424171
 51
90.0
  0
ARC
  5
E37
  8
C4
 10
722.60154343008355
 20
56.181882864585127
 30
0.0
 40
1.1000000000000001
 50
270.0
 51
334.70745356257578
  0
LINE
  5
E38
  8
C4
 10
723.90492241143306
 20
56.365467262006739
 30
0.0
 11
723.59609538040593
 21
55.711918591357801
 31
0.0
  0
ARC
  5
E39
  8
C4
 10
725.35154343008367
 20
55.681882864585162
 30
0.0
 40
1.6000000000000001
 50
90.0
 51
154.70745356257581
  0
ARC
  5
E3A
  8
C4
 10
728.10154343008367
 20
38.281882864585157
 30
0.0
 40
1.1000000000000001
 50
90.0
 51
154.70745356257649
  0
LINE
  5
E3B
  8
C4
 10
726.79816444873416
 20
38.098298467163538
 30
0.0
 11
727.1069914797614
 21
38.75184713781249
 31
0.0
  0
ARC
  5
E3C
  8
C4
 10
725.35154343008367
 20
38.781882864585093
 30
0.0
 40
1.6000000000000001
 50
270.0
 51
334.70745356257578
  0
ARC
  5
E3D
  8
C4
 10
722.60154343008355
 20
38.281882864585157
 30
0.0
 40
1.1000000000000001
 50
25.292546437424171
 51
90.0
  0
LINE
  5
E3E
  8
C4
 10
723.90492241143306
 20
38.098298467163538
 30
0.0
 11
723.59609538040593
 21
38.75184713781249
 31
0.0
  0
ARC
  5
E3F
  8
C4
 10
725.35154343008367
 20
38.781882864585093
 30
0.0
 40
1.6000000000000001
 50
205.29254643742411
 51
270.0
  0
ARC
  5
E40
  8
C4
 10
733.60154343008355
 20
56.181882864585127
 30
0.0
 40
1.1000000000000001
 50
205.2925464374234
 51
270.0
  0
LINE
  5
E41
  8
C4
 10
732.29816444873427
 20
56.365467262006739
 30
0.0
 11
732.6069914797614
 21
55.711918591357801
 31
0.0
  0
ARC
  5
E42
  8
C4
 10
730.85154343008355
 20
55.681882864585162
 30
0.0
 40
1.6000000000000001
 50
25.292546437424171
 51
90.0
  0
ARC
  5
E43
  8
C4
 10
728.10154343008367
 20
56.181882864585127
 30
0.0
 40
1.1000000000000001
 50
270.0
 51
334.70745356257578
  0
LINE
  5
E44
  8
C4
 10
729.40492241143295
 20
56.365467262006739
 30
0.0
 11
729.09609538040593
 21
55.711918591357801
 31
0.0
  0
ARC
  5
E45
  8
C4
 10
730.85154343008355
 20
55.681882864585162
 30
0.0
 40
1.6000000000000001
 50
90.0
 51
154.70745356257581
  0
ARC
  5
E46
  8
C4
 10
733.60154343008355
 20
38.281882864585157
 30
0.0
 40
1.1000000000000001
 50
90.0
 51
154.70745356257649
  0
LINE
  5
E47
  8
C4
 10
732.29816444873427
 20
38.098298467163538
 30
0.0
 11
732.6069914797614
 21
38.75184713781249
 31
0.0
  0
ARC
  5
E48
  8
C4
 10
730.85154343008355
 20
38.781882864585093
 30
0.0
 40
1.6000000000000001
 50
270.0
 51
334.70745356257578
  0
ARC
  5
E49
  8
C4
 10
728.10154343008367
 20
38.281882864585157
 30
0.0
 40
1.1000000000000001
 50
25.292546437424171
 51
90.0
  0
LINE
  5
E4A
  8
C4
 10
729.40492241143295
 20
38.098298467163538
 30
0.0
 11
729.09609538040593
 21
38.75184713781249
 31
0.0
  0
ARC
  5
E4B
  8
C4
 10
730.85154343008355
 20
38.781882864585093
 30
0.0
 40
1.6000000000000001
 50
205.29254643742411
 51
270.0
  0
ARC
  5
E4C
  8
C4
 10
739.10154343008355
 20
56.181882864585127
 30
0.0
 40
1.1000000000000001
 50
205.2925464374234
 51
270.0
  0
LINE
  5
E4D
  8
C4
 10
737.79816444873416
 20
56.365467262006739
 30
0.0
 11
738.10699147976129
 21
55.711918591357801
 31
0.0
  0
ARC
  5
E4E
  8
C4
 10
736.35154343008355
 20
55.681882864585162
 30
0.0
 40
1.6000000000000001
 50
25.292546437424171
 51
90.0
  0
ARC
  5
E4F
  8
C4
 10
733.60154343008355
 20
56.181882864585127
 30
0.0
 40
1.1000000000000001
 50
270.0
 51
334.70745356257578
  0
LINE
  5
E50
  8
C4
 10
734.90492241143295
 20
56.365467262006739
 30
0.0
 11
734.59609538040593
 21
55.711918591357801
 31
0.0
  0
ARC
  5
E51
  8
C4
 10
736.35154343008355
 20
55.681882864585162
 30
0.0
 40
1.6000000000000001
 50
90.0
 51
154.70745356257581
  0
ARC
  5
E52
  8
C4
 10
739.10154343008355
 20
38.281882864585157
 30
0.0
 40
1.1000000000000001
 50
90.0
 51
154.70745356257649
  0
LINE
  5
E53
  8
C4
 10
737.79816444873416
 20
38.098298467163538
 30
0.0
 11
738.10699147976129
 21
38.75184713781249
 31
0.0
  0
ARC
  5
E54
  8
C4
 10
736.35154343008355
 20
38.781882864585093
 30
0.0
 40
1.6000000000000001
 50
270.0
 51
334.70745356257578
  0
ARC
  5
E55
  8
C4
 10
733.60154343008355
 20
38.281882864585157
 30
0.0
 40
1.1000000000000001
 50
25.292546437424171
 51
90.0
  0
LINE
  5
E56
  8
C4
 10
734.90492241143295
 20
38.098298467163538
 30
0.0
 11
734.59609538040593
 21
38.75184713781249
 31
0.0
  0
ARC
  5
E57
  8
C4
 10
736.35154343008355
 20
38.781882864585093
 30
0.0
 40
1.6000000000000001
 50
205.29254643742411
 51
270.0
  0
ARC
  5
E58
  8
C4
 10
744.60154343008367
 20
56.181882864585127
 30
0.0
 40
1.1000000000000001
 50
205.2925464374234
 51
270.0
  0
LINE
  5
E59
  8
C4
 10
743.29816444873416
 20
56.365467262006739
 30
0.0
 11
743.6069914797614
 21
55.711918591357801
 31
0.0
  0
ARC
  5
E5A
  8
C4
 10
741.85154343008355
 20
55.681882864585162
 30
0.0
 40
1.6000000000000001
 50
25.292546437424171
 51
90.0
  0
ARC
  5
E5B
  8
C4
 10
739.10154343008355
 20
56.181882864585127
 30
0.0
 40
1.1000000000000001
 50
270.0
 51
334.70745356257578
  0
LINE
  5
E5C
  8
C4
 10
740.40492241143306
 20
56.365467262006739
 30
0.0
 11
740.09609538040593
 21
55.711918591357801
 31
0.0
  0
ARC
  5
E5D
  8
C4
 10
741.85154343008355
 20
55.681882864585162
 30
0.0
 40
1.6000000000000001
 50
90.0
 51
154.70745356257581
  0
ARC
  5
E5E
  8
C4
 10
744.60154343008367
 20
38.281882864585157
 30
0.0
 40
1.1000000000000001
 50
90.0
 51
154.70745356257649
  0
LINE
  5
E5F
  8
C4
 10
743.29816444873416
 20
38.098298467163538
 30
0.0
 11
743.6069914797614
 21
38.75184713781249
 31
0.0
  0
ARC
  5
E60
  8
C4
 10
741.85154343008355
 20
38.781882864585093
 30
0.0
 40
1.6000000000000001
 50
270.0
 51
334.70745356257578
  0
ARC
  5
E61
  8
C4
 10
739.10154343008355
 20
38.281882864585157
 30
0.0
 40
1.1000000000000001
 50
25.292546437424171
 51
90.0
  0
LINE
  5
E62
  8
C4
 10
740.40492241143306
 20
38.098298467163538
 30
0.0
 11
740.09609538040593
 21
38.75184713781249
 31
0.0
  0
ARC
  5
E63
  8
C4
 10
741.85154343008355
 20
38.781882864585093
 30
0.0
 40
1.6000000000000001
 50
205.29254643742411
 51
270.0
  0
ARC
  5
E64
  8
C4
 10
750.10154343008355
 20
56.181882864585127
 30
0.0
 40
1.1000000000000001
 50
205.2925464374234
 51
270.0
  0
LINE
  5
E65
  8
C4
 10
748.79816444873427
 20
56.365467262006739
 30
0.0
 11
749.1069914797614
 21
55.711918591357801
 31
0.0
  0
ARC
  5
E66
  8
C4
 10
747.35154343008355
 20
55.681882864585162
 30
0.0
 40
1.6000000000000001
 50
25.292546437424171
 51
90.0
  0
ARC
  5
E67
  8
C4
 10
744.60154343008367
 20
56.181882864585127
 30
0.0
 40
1.1000000000000001
 50
270.0
 51
334.70745356257578
  0
LINE
  5
E68
  8
C4
 10
745.90492241143295
 20
56.365467262006739
 30
0.0
 11
745.59609538040581
 21
55.711918591357801
 31
0.0
  0
ARC
  5
E69
  8
C4
 10
747.35154343008355
 20
55.681882864585162
 30
0.0
 40
1.6000000000000001
 50
90.0
 51
154.70745356257581
  0
ARC
  5
E6A
  8
C4
 10
750.10154343008355
 20
38.281882864585157
 30
0.0
 40
1.1000000000000001
 50
90.0
 51
154.70745356257649
  0
LINE
  5
E6B
  8
C4
 10
748.79816444873427
 20
38.098298467163538
 30
0.0
 11
749.1069914797614
 21
38.75184713781249
 31
0.0
  0
ARC
  5
E6C
  8
C4
 10
747.35154343008355
 20
38.781882864585093
 30
0.0
 40
1.6000000000000001
 50
270.0
 51
334.70745356257578
  0
ARC
  5
E6D
  8
C4
 10
744.60154343008367
 20
38.281882864585157
 30
0.0
 40
1.1000000000000001
 50
25.292546437424171
 51
90.0
  0
LINE
  5
E6E
  8
C4
 10
745.90492241143295
 20
38.098298467163538
 30
0.0
 11
745.59609538040581
 21
38.75184713781249
 31
0.0
  0
ARC
  5
E6F
  8
C4
 10
747.35154343008355
 20
38.781882864585093
 30
0.0
 40
1.6000000000000001
 50
205.29254643742411
 51
270.0
  0
ARC
  5
E70
  8
C4
 10
755.60154343008355
 20
56.181882864585127
 30
0.0
 40
1.1000000000000001
 50
205.2925464374234
 51
270.0
  0
LINE
  5
E71
  8
C4
 10
754.29816444873416
 20
56.365467262006739
 30
0.0
 11
754.60699147976129
 21
55.711918591357801
 31
0.0
  0
ARC
  5
E72
  8
C4
 10
752.85154343008355
 20
55.681882864585162
 30
0.0
 40
1.6000000000000001
 50
25.292546437424171
 51
90.0
  0
ARC
  5
E73
  8
C4
 10
750.10154343008355
 20
56.181882864585127
 30
0.0
 40
1.1000000000000001
 50
270.0
 51
334.70745356257578
  0
LINE
  5
E74
  8
C4
 10
751.40492241143295
 20
56.365467262006739
 30
0.0
 11
751.09609538040593
 21
55.711918591357801
 31
0.0
  0
ARC
  5
E75
  8
C4
 10
752.85154343008355
 20
55.681882864585162
 30
0.0
 40
1.6000000000000001
 50
90.0
 51
154.70745356257581
  0
ARC
  5
E76
  8
C4
 10
755.60154343008355
 20
38.281882864585157
 30
0.0
 40
1.1000000000000001
 50
90.0
 51
154.70745356257649
  0
LINE
  5
E77
  8
C4
 10
754.29816444873416
 20
38.098298467163538
 30
0.0
 11
754.60699147976129
 21
38.75184713781249
 31
0.0
  0
ARC
  5
E78
  8
C4
 10
752.85154343008355
 20
38.781882864585093
 30
0.0
 40
1.6000000000000001
 50
270.0
 51
334.70745356257578
  0
ARC
  5
E79
  8
C4
 10
750.10154343008355
 20
38.281882864585157
 30
0.0
 40
1.1000000000000001
 50
25.292546437424171
 51
90.0
  0
LINE
  5
E7A
  8
C4
 10
751.40492241143295
 20
38.098298467163538
 30
0.0
 11
751.09609538040593
 21
38.75184713781249
 31
0.0
  0
ARC
  5
E7B
  8
C4
 10
752.85154343008355
 20
38.781882864585093
 30
0.0
 40
1.6000000000000001
 50
205.29254643742411
 51
270.0
  0
ARC
  5
E7C
  8
C4
 10
761.10154343008367
 20
56.181882864585127
 30
0.0
 40
1.1000000000000001
 50
205.2925464374234
 51
270.0
  0
LINE
  5
E7D
  8
C4
 10
759.79816444873416
 20
56.365467262006739
 30
0.0
 11
760.1069914797614
 21
55.711918591357801
 31
0.0
  0
ARC
  5
E7E
  8
C4
 10
758.35154343008355
 20
55.681882864585162
 30
0.0
 40
1.6000000000000001
 50
25.292546437424171
 51
90.0
  0
ARC
  5
E7F
  8
C4
 10
755.60154343008355
 20
56.181882864585127
 30
0.0
 40
1.1000000000000001
 50
270.0
 51
334.70745356257578
  0
LINE
  5
E80
  8
C4
 10
756.90492241143295
 20
56.365467262006739
 30
0.0
 11
756.59609538040593
 21
55.711918591357801
 31
0.0
  0
ARC
  5
E81
  8
C4
 10
758.35154343008355
 20
55.681882864585162
 30
0.0
 40
1.6000000000000001
 50
90.0
 51
154.70745356257581
  0
ARC
  5
E82
  8
C4
 10
761.10154343008367
 20
38.281882864585157
 30
0.0
 40
1.1000000000000001
 50
90.0
 51
154.70745356257649
  0
LINE
  5
E83
  8
C4
 10
759.79816444873416
 20
38.098298467163538
 30
0.0
 11
760.1069914797614
 21
38.75184713781249
 31
0.0
  0
ARC
  5
E84
  8
C4
 10
758.35154343008355
 20
38.781882864585093
 30
0.0
 40
1.6000000000000001
 50
270.0
 51
334.70745356257578
  0
ARC
  5
E85
  8
C4
 10
755.60154343008355
 20
38.281882864585157
 30
0.0
 40
1.1000000000000001
 50
25.292546437424171
 51
90.0
  0
LINE
  5
E86
  8
C4
 10
756.90492241143295
 20
38.098298467163538
 30
0.0
 11
756.59609538040593
 21
38.75184713781249
 31
0.0
  0
ARC
  5
E87
  8
C4
 10
758.35154343008355
 20
38.781882864585093
 30
0.0
 40
1.6000000000000001
 50
205.29254643742411
 51
270.0
  0
ARC
  5
E88
  8
C4
 10
766.60154343008355
 20
56.181882864585127
 30
0.0
 40
1.1000000000000001
 50
205.2925464374234
 51
270.0
  0
LINE
  5
E89
  8
C4
 10
765.29816444873427
 20
56.365467262006739
 30
0.0
 11
765.6069914797614
 21
55.711918591357801
 31
0.0
  0
ARC
  5
E8A
  8
C4
 10
763.85154343008367
 20
55.681882864585162
 30
0.0
 40
1.6000000000000001
 50
25.292546437424171
 51
90.0
  0
ARC
  5
E8B
  8
C4
 10
761.10154343008367
 20
56.181882864585127
 30
0.0
 40
1.1000000000000001
 50
270.0
 51
334.70745356257578
  0
LINE
  5
E8C
  8
C4
 10
762.40492241143295
 20
56.365467262006739
 30
0.0
 11
762.09609538040593
 21
55.711918591357801
 31
0.0
  0
ARC
  5
E8D
  8
C4
 10
763.85154343008367
 20
55.681882864585162
 30
0.0
 40
1.6000000000000001
 50
90.0
 51
154.70745356257581
  0
ARC
  5
E8E
  8
C4
 10
766.60154343008355
 20
38.281882864585157
 30
0.0
 40
1.1000000000000001
 50
90.0
 51
154.70745356257649
  0
LINE
  5
E8F
  8
C4
 10
765.29816444873427
 20
38.098298467163538
 30
0.0
 11
765.6069914797614
 21
38.75184713781249
 31
0.0
  0
ARC
  5
E90
  8
C4
 10
763.85154343008367
 20
38.781882864585093
 30
0.0
 40
1.6000000000000001
 50
270.0
 51
334.70745356257578
  0
ARC
  5
E91
  8
C4
 10
761.10154343008367
 20
38.281882864585157
 30
0.0
 40
1.1000000000000001
 50
25.292546437424171
 51
90.0
  0
LINE
  5
E92
  8
C4
 10
762.40492241143295
 20
38.098298467163538
 30
0.0
 11
762.09609538040593
 21
38.75184713781249
 31
0.0
  0
ARC
  5
E93
  8
C4
 10
763.85154343008367
 20
38.781882864585093
 30
0.0
 40
1.6000000000000001
 50
205.29254643742411
 51
270.0
  0
ARC
  5
E94
  8
C4
 10
772.10154343008355
 20
56.181882864585127
 30
0.0
 40
1.1000000000000001
 50
205.2925464374234
 51
270.0
  0
LINE
  5
E95
  8
C4
 10
770.79816444873416
 20
56.365467262006739
 30
0.0
 11
771.10699147976129
 21
55.711918591357801
 31
0.0
  0
ARC
  5
E96
  8
C4
 10
769.35154343008355
 20
55.681882864585162
 30
0.0
 40
1.6000000000000001
 50
25.292546437424171
 51
90.0
  0
ARC
  5
E97
  8
C4
 10
766.60154343008355
 20
56.181882864585127
 30
0.0
 40
1.1000000000000001
 50
270.0
 51
334.70745356257578
  0
LINE
  5
E98
  8
C4
 10
767.90492241143295
 20
56.365467262006739
 30
0.0
 11
767.59609538040593
 21
55.711918591357801
 31
0.0
  0
ARC
  5
E99
  8
C4
 10
769.35154343008355
 20
55.681882864585162
 30
0.0
 40
1.6000000000000001
 50
90.0
 51
154.70745356257581
  0
ARC
  5
E9A
  8
C4
 10
772.10154343008355
 20
38.281882864585157
 30
0.0
 40
1.1000000000000001
 50
90.0
 51
154.70745356257649
  0
LINE
  5
E9B
  8
C4
 10
770.79816444873416
 20
38.098298467163538
 30
0.0
 11
771.10699147976129
 21
38.75184713781249
 31
0.0
  0
ARC
  5
E9C
  8
C4
 10
769.35154343008355
 20
38.781882864585093
 30
0.0
 40
1.6000000000000001
 50
270.0
 51
334.70745356257578
  0
ARC
  5
E9D
  8
C4
 10
766.60154343008355
 20
38.281882864585157
 30
0.0
 40
1.1000000000000001
 50
25.292546437424171
 51
90.0
  0
LINE
  5
E9E
  8
C4
 10
767.90492241143295
 20
38.098298467163538
 30
0.0
 11
767.59609538040593
 21
38.75184713781249
 31
0.0
  0
ARC
  5
E9F
  8
C4
 10
769.35154343008355
 20
38.781882864585093
 30
0.0
 40
1.6000000000000001
 50
205.29254643742411
 51
270.0
  0
ARC
  5
EA0
  8
C4
 10
777.60154343008367
 20
56.181882864585127
 30
0.0
 40
1.1000000000000001
 50
205.2925464374234
 51
270.0
  0
LINE
  5
EA1
  8
C4
 10
776.29816444873416
 20
56.365467262006739
 30
0.0
 11
776.6069914797614
 21
55.711918591357801
 31
0.0
  0
ARC
  5
EA2
  8
C4
 10
774.85154343008355
 20
55.681882864585162
 30
0.0
 40
1.6000000000000001
 50
25.292546437424171
 51
90.0
  0
ARC
  5
EA3
  8
C4
 10
772.10154343008355
 20
56.181882864585127
 30
0.0
 40
1.1000000000000001
 50
270.0
 51
334.70745356257578
  0
LINE
  5
EA4
  8
C4
 10
773.40492241143295
 20
56.365467262006739
 30
0.0
 11
773.09609538040593
 21
55.711918591357801
 31
0.0
  0
ARC
  5
EA5
  8
C4
 10
774.85154343008355
 20
55.681882864585162
 30
0.0
 40
1.6000000000000001
 50
90.0
 51
154.70745356257581
  0
ARC
  5
EA6
  8
C4
 10
777.60154343008367
 20
38.281882864585157
 30
0.0
 40
1.1000000000000001
 50
90.0
 51
154.70745356257649
  0
LINE
  5
EA7
  8
C4
 10
776.29816444873416
 20
38.098298467163538
 30
0.0
 11
776.6069914797614
 21
38.75184713781249
 31
0.0
  0
ARC
  5
EA8
  8
C4
 10
774.85154343008355
 20
38.781882864585093
 30
0.0
 40
1.6000000000000001
 50
270.0
 51
334.70745356257578
  0
ARC
  5
EA9
  8
C4
 10
772.10154343008355
 20
38.281882864585157
 30
0.0
 40
1.1000000000000001
 50
25.292546437424171
 51
90.0
  0
LINE
  5
EAA
  8
C4
 10
773.40492241143295
 20
38.098298467163538
 30
0.0
 11
773.09609538040593
 21
38.75184713781249
 31
0.0
  0
ARC
  5
EAB
  8
C4
 10
774.85154343008355
 20
38.781882864585093
 30
0.0
 40
1.6000000000000001
 50
205.29254643742411
 51
270.0
  0
ARC
  5
EAC
  8
C4
 10
783.10154343008355
 20
56.181882864585127
 30
0.0
 40
1.1000000000000001
 50
205.2925464374234
 51
270.0
  0
LINE
  5
EAD
  8
C4
 10
781.79816444873427
 20
56.365467262006739
 30
0.0
 11
782.1069914797614
 21
55.711918591357801
 31
0.0
  0
ARC
  5
EAE
  8
C4
 10
780.35154343008367
 20
55.681882864585162
 30
0.0
 40
1.6000000000000001
 50
25.292546437424171
 51
90.0
  0
ARC
  5
EAF
  8
C4
 10
777.60154343008367
 20
56.181882864585127
 30
0.0
 40
1.1000000000000001
 50
270.0
 51
334.70745356257578
  0
LINE
  5
EB0
  8
C4
 10
778.90492241143295
 20
56.365467262006739
 30
0.0
 11
778.59609538040593
 21
55.711918591357801
 31
0.0
  0
ARC
  5
EB1
  8
C4
 10
780.35154343008367
 20
55.681882864585162
 30
0.0
 40
1.6000000000000001
 50
90.0
 51
154.70745356257581
  0
ARC
  5
EB2
  8
C4
 10
783.10154343008355
 20
38.281882864585157
 30
0.0
 40
1.1000000000000001
 50
90.0
 51
154.70745356257649
  0
LINE
  5
EB3
  8
C4
 10
781.79816444873427
 20
38.098298467163538
 30
0.0
 11
782.1069914797614
 21
38.75184713781249
 31
0.0
  0
ARC
  5
EB4
  8
C4
 10
780.35154343008367
 20
38.781882864585093
 30
0.0
 40
1.6000000000000001
 50
270.0
 51
334.70745356257578
  0
ARC
  5
EB5
  8
C4
 10
777.60154343008367
 20
38.281882864585157
 30
0.0
 40
1.1000000000000001
 50
25.292546437424171
 51
90.0
  0
LINE
  5
EB6
  8
C4
 10
778.90492241143295
 20
38.098298467163538
 30
0.0
 11
778.59609538040593
 21
38.75184713781249
 31
0.0
  0
ARC
  5
EB7
  8
C4
 10
780.35154343008367
 20
38.781882864585093
 30
0.0
 40
1.6000000000000001
 50
205.29254643742411
 51
270.0
  0
ARC
  5
EB8
  8
C4
 10
788.60154343008355
 20
56.181882864585127
 30
0.0
 40
1.1000000000000001
 50
205.2925464374234
 51
270.0
  0
LINE
  5
EB9
  8
C4
 10
787.29816444873416
 20
56.365467262006739
 30
0.0
 11
787.60699147976129
 21
55.711918591357801
 31
0.0
  0
ARC
  5
EBA
  8
C4
 10
785.85154343008355
 20
55.681882864585162
 30
0.0
 40
1.6000000000000001
 50
25.292546437424171
 51
90.0
  0
ARC
  5
EBB
  8
C4
 10
783.10154343008355
 20
56.181882864585127
 30
0.0
 40
1.1000000000000001
 50
270.0
 51
334.70745356257578
  0
LINE
  5
EBC
  8
C4
 10
784.40492241143295
 20
56.365467262006739
 30
0.0
 11
784.09609538040593
 21
55.711918591357801
 31
0.0
  0
ARC
  5
EBD
  8
C4
 10
785.85154343008355
 20
55.681882864585162
 30
0.0
 40
1.6000000000000001
 50
90.0
 51
154.70745356257581
  0
ARC
  5
EBE
  8
C4
 10
788.60154343008355
 20
38.281882864585157
 30
0.0
 40
1.1000000000000001
 50
90.0
 51
154.70745356257649
  0
LINE
  5
EBF
  8
C4
 10
787.29816444873416
 20
38.098298467163538
 30
0.0
 11
787.60699147976129
 21
38.75184713781249
 31
0.0
  0
ARC
  5
EC0
  8
C4
 10
785.85154343008355
 20
38.781882864585093
 30
0.0
 40
1.6000000000000001
 50
270.0
 51
334.70745356257578
  0
ARC
  5
EC1
  8
C4
 10
783.10154343008355
 20
38.281882864585157
 30
0.0
 40
1.1000000000000001
 50
25.292546437424171
 51
90.0
  0
LINE
  5
EC2
  8
C4
 10
784.40492241143295
 20
38.098298467163538
 30
0.0
 11
784.09609538040593
 21
38.75184713781249
 31
0.0
  0
ARC
  5
EC3
  8
C4
 10
785.85154343008355
 20
38.781882864585093
 30
0.0
 40
1.6000000000000001
 50
205.29254643742411
 51
270.0
  0
ARC
  5
EC4
  8
C4
 10
794.10154343008367
 20
56.181882864585127
 30
0.0
 40
1.1000000000000001
 50
205.2925464374234
 51
270.0
  0
LINE
  5
EC5
  8
C4
 10
792.79816444873416
 20
56.365467262006739
 30
0.0
 11
793.1069914797614
 21
55.711918591357801
 31
0.0
  0
ARC
  5
EC6
  8
C4
 10
791.35154343008355
 20
55.681882864585162
 30
0.0
 40
1.6000000000000001
 50
25.292546437424171
 51
90.0
  0
ARC
  5
EC7
  8
C4
 10
788.60154343008355
 20
56.181882864585127
 30
0.0
 40
1.1000000000000001
 50
270.0
 51
334.70745356257578
  0
LINE
  5
EC8
  8
C4
 10
789.90492241143295
 20
56.365467262006739
 30
0.0
 11
789.59609538040593
 21
55.711918591357801
 31
0.0
  0
ARC
  5
EC9
  8
C4
 10
791.35154343008355
 20
55.681882864585162
 30
0.0
 40
1.6000000000000001
 50
90.0
 51
154.70745356257581
  0
ARC
  5
ECA
  8
C4
 10
794.10154343008367
 20
38.281882864585157
 30
0.0
 40
1.1000000000000001
 50
90.0
 51
154.70745356257649
  0
LINE
  5
ECB
  8
C4
 10
792.79816444873416
 20
38.098298467163538
 30
0.0
 11
793.1069914797614
 21
38.75184713781249
 31
0.0
  0
ARC
  5
ECC
  8
C4
 10
791.35154343008355
 20
38.781882864585093
 30
0.0
 40
1.6000000000000001
 50
270.0
 51
334.70745356257578
  0
ARC
  5
ECD
  8
C4
 10
788.60154343008355
 20
38.281882864585157
 30
0.0
 40
1.1000000000000001
 50
25.292546437424171
 51
90.0
  0
LINE
  5
ECE
  8
C4
 10
789.90492241143295
 20
38.098298467163538
 30
0.0
 11
789.59609538040593
 21
38.75184713781249
 31
0.0
  0
ARC
  5
ECF
  8
C4
 10
791.35154343008355
 20
38.781882864585093
 30
0.0
 40
1.6000000000000001
 50
205.29254643742411
 51
270.0
  0
ARC
  5
ED0
  8
C4
 10
799.60154343008355
 20
56.181882864585127
 30
0.0
 40
1.1000000000000001
 50
205.2925464374234
 51
270.0
  0
LINE
  5
ED1
  8
C4
 10
798.29816444873427
 20
56.365467262006739
 30
0.0
 11
798.6069914797614
 21
55.711918591357801
 31
0.0
  0
ARC
  5
ED2
  8
C4
 10
796.85154343008367
 20
55.681882864585162
 30
0.0
 40
1.6000000000000001
 50
25.292546437424171
 51
90.0
  0
ARC
  5
ED3
  8
C4
 10
794.10154343008367
 20
56.181882864585127
 30
0.0
 40
1.1000000000000001
 50
270.0
 51
334.70745356257578
  0
LINE
  5
ED4
  8
C4
 10
795.40492241143306
 20
56.365467262006739
 30
0.0
 11
795.09609538040593
 21
55.711918591357801
 31
0.0
  0
ARC
  5
ED5
  8
C4
 10
796.85154343008367
 20
55.681882864585162
 30
0.0
 40
1.6000000000000001
 50
90.0
 51
154.70745356257581
  0
ARC
  5
ED6
  8
C4
 10
799.60154343008355
 20
38.281882864585157
 30
0.0
 40
1.1000000000000001
 50
90.0
 51
154.70745356257649
  0
LINE
  5
ED7
  8
C4
 10
798.29816444873427
 20
38.098298467163538
 30
0.0
 11
798.6069914797614
 21
38.75184713781249
 31
0.0
  0
ARC
  5
ED8
  8
C4
 10
796.85154343008367
 20
38.781882864585093
 30
0.0
 40
1.6000000000000001
 50
270.0
 51
334.70745356257578
  0
ARC
  5
ED9
  8
C4
 10
794.10154343008367
 20
38.281882864585157
 30
0.0
 40
1.1000000000000001
 50
25.292546437424171
 51
90.0
  0
LINE
  5
EDA
  8
C4
 10
795.40492241143306
 20
38.098298467163538
 30
0.0
 11
795.09609538040593
 21
38.75184713781249
 31
0.0
  0
ARC
  5
EDB
  8
C4
 10
796.85154343008367
 20
38.781882864585093
 30
0.0
 40
1.6000000000000001
 50
205.29254643742411
 51
270.0
  0
ARC
  5
EDC
  8
C4
 10
805.10154343008355
 20
56.181882864585127
 30
0.0
 40
1.1000000000000001
 50
205.2925464374234
 51
270.0
  0
LINE
  5
EDD
  8
C4
 10
803.79816444873416
 20
56.365467262006739
 30
0.0
 11
804.10699147976129
 21
55.711918591357801
 31
0.0
  0
ARC
  5
EDE
  8
C4
 10
802.35154343008355
 20
55.681882864585162
 30
0.0
 40
1.6000000000000001
 50
25.292546437424171
 51
90.0
  0
ARC
  5
EDF
  8
C4
 10
799.60154343008355
 20
56.181882864585127
 30
0.0
 40
1.1000000000000001
 50
270.0
 51
334.70745356257578
  0
LINE
  5
EE0
  8
C4
 10
800.90492241143306
 20
56.365467262006739
 30
0.0
 11
800.59609538040593
 21
55.711918591357801
 31
0.0
  0
ARC
  5
EE1
  8
C4
 10
802.35154343008355
 20
55.681882864585162
 30
0.0
 40
1.6000000000000001
 50
90.0
 51
154.70745356257581
  0
ARC
  5
EE2
  8
C4
 10
805.10154343008355
 20
38.281882864585157
 30
0.0
 40
1.1000000000000001
 50
90.0
 51
154.70745356257649
  0
LINE
  5
EE3
  8
C4
 10
803.79816444873416
 20
38.098298467163538
 30
0.0
 11
804.10699147976129
 21
38.75184713781249
 31
0.0
  0
ARC
  5
EE4
  8
C4
 10
802.35154343008355
 20
38.781882864585093
 30
0.0
 40
1.6000000000000001
 50
270.0
 51
334.70745356257578
  0
ARC
  5
EE5
  8
C4
 10
799.60154343008355
 20
38.281882864585157
 30
0.0
 40
1.1000000000000001
 50
25.292546437424171
 51
90.0
  0
LINE
  5
EE6
  8
C4
 10
800.90492241143306
 20
38.098298467163538
 30
0.0
 11
800.59609538040593
 21
38.75184713781249
 31
0.0
  0
ARC
  5
EE7
  8
C4
 10
802.35154343008355
 20
38.781882864585093
 30
0.0
 40
1.6000000000000001
 50
205.29254643742411
 51
270.0
  0
ARC
  5
EE8
  8
C4
 10
810.60154343008355
 20
56.181882864585127
 30
0.0
 40
1.1000000000000001
 50
205.2925464374234
 51
270.0
  0
LINE
  5
EE9
  8
C4
 10
809.29816444873427
 20
56.365467262006739
 30
0.0
 11
809.60699147976129
 21
55.711918591357801
 31
0.0
  0
ARC
  5
EEA
  8
C4
 10
807.85154343008355
 20
55.681882864585162
 30
0.0
 40
1.6000000000000001
 50
25.292546437424171
 51
90.0
  0
ARC
  5
EEB
  8
C4
 10
805.10154343008355
 20
56.181882864585127
 30
0.0
 40
1.1000000000000001
 50
270.0
 51
334.70745356257578
  0
LINE
  5
EEC
  8
C4
 10
806.40492241143306
 20
56.365467262006739
 30
0.0
 11
806.09609538040593
 21
55.711918591357801
 31
0.0
  0
ARC
  5
EED
  8
C4
 10
807.85154343008355
 20
55.681882864585162
 30
0.0
 40
1.6000000000000001
 50
90.0
 51
154.70745356257581
  0
ARC
  5
EEE
  8
C4
 10
810.60154343008355
 20
38.281882864585157
 30
0.0
 40
1.1000000000000001
 50
90.0
 51
154.70745356257649
  0
LINE
  5
EEF
  8
C4
 10
809.29816444873427
 20
38.098298467163538
 30
0.0
 11
809.60699147976129
 21
38.75184713781249
 31
0.0
  0
ARC
  5
EF0
  8
C4
 10
807.85154343008355
 20
38.781882864585093
 30
0.0
 40
1.6000000000000001
 50
270.0
 51
334.70745356257578
  0
ARC
  5
EF1
  8
C4
 10
805.10154343008355
 20
38.281882864585157
 30
0.0
 40
1.1000000000000001
 50
25.292546437424171
 51
90.0
  0
LINE
  5
EF2
  8
C4
 10
806.40492241143306
 20
38.098298467163538
 30
0.0
 11
806.09609538040593
 21
38.75184713781249
 31
0.0
  0
ARC
  5
EF3
  8
C4
 10
807.85154343008355
 20
38.781882864585093
 30
0.0
 40
1.6000000000000001
 50
205.29254643742411
 51
270.0
  0
ARC
  5
EF4
  8
C4
 10
816.10154343008355
 20
56.181882864585127
 30
0.0
 40
1.1000000000000001
 50
205.2925464374234
 51
270.0
  0
LINE
  5
EF5
  8
C4
 10
814.79816444873427
 20
56.365467262006739
 30
0.0
 11
815.10699147976129
 21
55.711918591357801
 31
0.0
  0
ARC
  5
EF6
  8
C4
 10
813.35154343008355
 20
55.681882864585162
 30
0.0
 40
1.6000000000000001
 50
25.292546437424171
 51
90.0
  0
ARC
  5
EF7
  8
C4
 10
810.60154343008355
 20
56.181882864585127
 30
0.0
 40
1.1000000000000001
 50
270.0
 51
334.70745356257578
  0
LINE
  5
EF8
  8
C4
 10
811.90492241143306
 20
56.365467262006739
 30
0.0
 11
811.59609538040593
 21
55.711918591357801
 31
0.0
  0
ARC
  5
EF9
  8
C4
 10
813.35154343008355
 20
55.681882864585162
 30
0.0
 40
1.6000000000000001
 50
90.0
 51
154.70745356257581
  0
ARC
  5
EFA
  8
C4
 10
816.10154343008355
 20
38.281882864585157
 30
0.0
 40
1.1000000000000001
 50
90.0
 51
154.70745356257649
  0
LINE
  5
EFB
  8
C4
 10
814.79816444873427
 20
38.098298467163538
 30
0.0
 11
815.10699147976129
 21
38.75184713781249
 31
0.0
  0
ARC
  5
EFC
  8
C4
 10
813.35154343008355
 20
38.781882864585093
 30
0.0
 40
1.6000000000000001
 50
270.0
 51
334.70745356257578
  0
ARC
  5
EFD
  8
C4
 10
810.60154343008355
 20
38.281882864585157
 30
0.0
 40
1.1000000000000001
 50
25.292546437424171
 51
90.0
  0
LINE
  5
EFE
  8
C4
 10
811.90492241143306
 20
38.098298467163538
 30
0.0
 11
811.59609538040593
 21
38.75184713781249
 31
0.0
  0
ARC
  5
EFF
  8
C4
 10
813.35154343008355
 20
38.781882864585093
 30
0.0
 40
1.6000000000000001
 50
205.29254643742411
 51
270.0
  0
ARC
  5
F00
  8
C4
 10
821.60154343008367
 20
56.181882864585127
 30
0.0
 40
1.1000000000000001
 50
205.2925464374234
 51
270.0
  0
LINE
  5
F01
  8
C4
 10
820.29816444873416
 20
56.365467262006739
 30
0.0
 11
820.6069914797614
 21
55.711918591357801
 31
0.0
  0
ARC
  5
F02
  8
C4
 10
818.85154343008355
 20
55.681882864585162
 30
0.0
 40
1.6000000000000001
 50
25.292546437424171
 51
90.0
  0
ARC
  5
F03
  8
C4
 10
816.10154343008355
 20
56.181882864585127
 30
0.0
 40
1.1000000000000001
 50
270.0
 51
334.70745356257578
  0
LINE
  5
F04
  8
C4
 10
817.40492241143295
 20
56.365467262006739
 30
0.0
 11
817.09609538040581
 21
55.711918591357801
 31
0.0
  0
ARC
  5
F05
  8
C4
 10
818.85154343008355
 20
55.681882864585162
 30
0.0
 40
1.6000000000000001
 50
90.0
 51
154.70745356257581
  0
ARC
  5
F06
  8
C4
 10
821.60154343008367
 20
38.281882864585157
 30
0.0
 40
1.1000000000000001
 50
90.0
 51
154.70745356257649
  0
LINE
  5
F07
  8
C4
 10
820.29816444873416
 20
38.098298467163538
 30
0.0
 11
820.6069914797614
 21
38.75184713781249
 31
0.0
  0
ARC
  5
F08
  8
C4
 10
818.85154343008355
 20
38.781882864585093
 30
0.0
 40
1.6000000000000001
 50
270.0
 51
334.70745356257578
  0
ARC
  5
F09
  8
C4
 10
816.10154343008355
 20
38.281882864585157
 30
0.0
 40
1.1000000000000001
 50
25.292546437424171
 51
90.0
  0
LINE
  5
F0A
  8
C4
 10
817.40492241143295
 20
38.098298467163538
 30
0.0
 11
817.09609538040581
 21
38.75184713781249
 31
0.0
  0
ARC
  5
F0B
  8
C4
 10
818.85154343008355
 20
38.781882864585093
 30
0.0
 40
1.6000000000000001
 50
205.29254643742411
 51
270.0
  0
ARC
  5
F0C
  8
C4
 10
827.10154343008367
 20
56.181882864585127
 30
0.0
 40
1.1000000000000001
 50
205.2925464374234
 51
270.0
  0
LINE
  5
F0D
  8
C4
 10
825.79816444873416
 20
56.365467262006739
 30
0.0
 11
826.1069914797614
 21
55.711918591357801
 31
0.0
  0
ARC
  5
F0E
  8
C4
 10
824.35154343008367
 20
55.681882864585162
 30
0.0
 40
1.6000000000000001
 50
25.292546437424171
 51
90.0
  0
ARC
  5
F0F
  8
C4
 10
821.60154343008367
 20
56.181882864585127
 30
0.0
 40
1.1000000000000001
 50
270.0
 51
334.70745356257578
  0
LINE
  5
F10
  8
C4
 10
822.90492241143295
 20
56.365467262006739
 30
0.0
 11
822.59609538040581
 21
55.711918591357801
 31
0.0
  0
ARC
  5
F11
  8
C4
 10
824.35154343008367
 20
55.681882864585162
 30
0.0
 40
1.6000000000000001
 50
90.0
 51
154.70745356257581
  0
ARC
  5
F12
  8
C4
 10
827.10154343008367
 20
38.281882864585157
 30
0.0
 40
1.1000000000000001
 50
90.0
 51
154.70745356257649
  0
LINE
  5
F13
  8
C4
 10
825.79816444873416
 20
38.098298467163538
 30
0.0
 11
826.1069914797614
 21
38.75184713781249
 31
0.0
  0
ARC
  5
F14
  8
C4
 10
824.35154343008367
 20
38.781882864585093
 30
0.0
 40
1.6000000000000001
 50
270.0
 51
334.70745356257578
  0
ARC
  5
F15
  8
C4
 10
821.60154343008367
 20
38.281882864585157
 30
0.0
 40
1.1000000000000001
 50
25.292546437424171
 51
90.0
  0
LINE
  5
F16
  8
C4
 10
822.90492241143295
 20
38.098298467163538
 30
0.0
 11
822.59609538040581
 21
38.75184713781249
 31
0.0
  0
ARC
  5
F17
  8
C4
 10
824.35154343008367
 20
38.781882864585093
 30
0.0
 40
1.6000000000000001
 50
205.29254643742411
 51
270.0
  0
ARC
  5
F18
  8
C4
 10
832.60154343008367
 20
56.181882864585127
 30
0.0
 40
1.1000000000000001
 50
205.2925464374234
 51
270.0
  0
LINE
  5
F19
  8
C4
 10
831.29816444873416
 20
56.365467262006739
 30
0.0
 11
831.6069914797614
 21
55.711918591357801
 31
0.0
  0
ARC
  5
F1A
  8
C4
 10
829.85154343008367
 20
55.681882864585162
 30
0.0
 40
1.6000000000000001
 50
25.292546437424171
 51
90.0
  0
ARC
  5
F1B
  8
C4
 10
827.10154343008367
 20
56.181882864585127
 30
0.0
 40
1.1000000000000001
 50
270.0
 51
334.70745356257578
  0
LINE
  5
F1C
  8
C4
 10
828.40492241143295
 20
56.365467262006739
 30
0.0
 11
828.09609538040604
 21
55.711918591357801
 31
0.0
  0
ARC
  5
F1D
  8
C4
 10
829.85154343008367
 20
55.681882864585162
 30
0.0
 40
1.6000000000000001
 50
90.0
 51
154.70745356257581
  0
ARC
  5
F1E
  8
C4
 10
832.60154343008367
 20
38.281882864585157
 30
0.0
 40
1.1000000000000001
 50
90.0
 51
154.70745356257649
  0
LINE
  5
F1F
  8
C4
 10
831.29816444873416
 20
38.098298467163538
 30
0.0
 11
831.6069914797614
 21
38.75184713781249
 31
0.0
  0
ARC
  5
F20
  8
C4
 10
829.85154343008367
 20
38.781882864585093
 30
0.0
 40
1.6000000000000001
 50
270.0
 51
334.70745356257578
  0
ARC
  5
F21
  8
C4
 10
827.10154343008367
 20
38.281882864585157
 30
0.0
 40
1.1000000000000001
 50
25.292546437424171
 51
90.0
  0
LINE
  5
F22
  8
C4
 10
828.40492241143295
 20
38.098298467163538
 30
0.0
 11
828.09609538040604
 21
38.75184713781249
 31
0.0
  0
ARC
  5
F23
  8
C4
 10
829.85154343008367
 20
38.781882864585093
 30
0.0
 40
1.6000000000000001
 50
205.29254643742411
 51
270.0
  0
ARC
  5
F24
  8
C4
 10
838.10154343008355
 20
56.181882864585127
 30
0.0
 40
1.1000000000000001
 50
205.2925464374234
 51
270.0
  0
LINE
  5
F25
  8
C4
 10
836.79816444873416
 20
56.365467262006739
 30
0.0
 11
837.10699147976129
 21
55.711918591357801
 31
0.0
  0
ARC
  5
F26
  8
C4
 10
835.35154343008355
 20
55.681882864585162
 30
0.0
 40
1.6000000000000001
 50
25.292546437424171
 51
90.0
  0
ARC
  5
F27
  8
C4
 10
832.60154343008367
 20
56.181882864585127
 30
0.0
 40
1.1000000000000001
 50
270.0
 51
334.70745356257578
  0
LINE
  5
F28
  8
C4
 10
833.90492241143295
 20
56.365467262006739
 30
0.0
 11
833.59609538040593
 21
55.711918591357801
 31
0.0
  0
ARC
  5
F29
  8
C4
 10
835.35154343008355
 20
55.681882864585162
 30
0.0
 40
1.6000000000000001
 50
90.0
 51
154.70745356257581
  0
ARC
  5
F2A
  8
C4
 10
838.10154343008355
 20
38.281882864585157
 30
0.0
 40
1.1000000000000001
 50
90.0
 51
154.70745356257649
  0
LINE
  5
F2B
  8
C4
 10
836.79816444873416
 20
38.098298467163538
 30
0.0
 11
837.10699147976129
 21
38.75184713781249
 31
0.0
  0
ARC
  5
F2C
  8
C4
 10
835.35154343008355
 20
38.781882864585093
 30
0.0
 40
1.6000000000000001
 50
270.0
 51
334.70745356257578
  0
ARC
  5
F2D
  8
C4
 10
832.60154343008367
 20
38.281882864585157
 30
0.0
 40
1.1000000000000001
 50
25.292546437424171
 51
90.0
  0
LINE
  5
F2E
  8
C4
 10
833.90492241143295
 20
38.098298467163538
 30
0.0
 11
833.59609538040593
 21
38.75184713781249
 31
0.0
  0
ARC
  5
F2F
  8
C4
 10
835.35154343008355
 20
38.781882864585093
 30
0.0
 40
1.6000000000000001
 50
205.29254643742411
 51
270.0
  0
ARC
  5
F30
  8
C4
 10
843.60154343008355
 20
56.181882864585127
 30
0.0
 40
1.1000000000000001
 50
205.2925464374234
 51
270.0
  0
LINE
  5
F31
  8
C4
 10
842.29816444873427
 20
56.365467262006739
 30
0.0
 11
842.60699147976129
 21
55.711918591357801
 31
0.0
  0
ARC
  5
F32
  8
C4
 10
840.85154343008355
 20
55.681882864585162
 30
0.0
 40
1.6000000000000001
 50
25.292546437424171
 51
90.0
  0
ARC
  5
F33
  8
C4
 10
838.10154343008355
 20
56.181882864585127
 30
0.0
 40
1.1000000000000001
 50
270.0
 51
334.70745356257578
  0
LINE
  5
F34
  8
C4
 10
839.40492241143306
 20
56.365467262006739
 30
0.0
 11
839.09609538040593
 21
55.711918591357801
 31
0.0
  0
ARC
  5
F35
  8
C4
 10
840.85154343008355
 20
55.681882864585162
 30
0.0
 40
1.6000000000000001
 50
90.0
 51
154.70745356257581
  0
ARC
  5
F36
  8
C4
 10
843.60154343008355
 20
38.281882864585157
 30
0.0
 40
1.1000000000000001
 50
90.0
 51
154.70745356257649
  0
LINE
  5
F37
  8
C4
 10
842.29816444873427
 20
38.098298467163538
 30
0.0
 11
842.60699147976129
 21
38.75184713781249
 31
0.0
  0
ARC
  5
F38
  8
C4
 10
840.85154343008355
 20
38.781882864585093
 30
0.0
 40
1.6000000000000001
 50
270.0
 51
334.70745356257578
  0
ARC
  5
F39
  8
C4
 10
838.10154343008355
 20
38.281882864585157
 30
0.0
 40
1.1000000000000001
 50
25.292546437424171
 51
90.0
  0
LINE
  5
F3A
  8
C4
 10
839.40492241143306
 20
38.098298467163538
 30
0.0
 11
839.09609538040593
 21
38.75184713781249
 31
0.0
  0
ARC
  5
F3B
  8
C4
 10
840.85154343008355
 20
38.781882864585093
 30
0.0
 40
1.6000000000000001
 50
205.29254643742411
 51
270.0
  0
ARC
  5
F3C
  8
C4
 10
849.10154343008355
 20
56.181882864585127
 30
0.0
 40
1.1000000000000001
 50
205.2925464374234
 51
270.0
  0
LINE
  5
F3D
  8
C4
 10
847.79816444873427
 20
56.365467262006739
 30
0.0
 11
848.10699147976129
 21
55.711918591357801
 31
0.0
  0
ARC
  5
F3E
  8
C4
 10
846.35154343008355
 20
55.681882864585162
 30
0.0
 40
1.6000000000000001
 50
25.292546437424171
 51
90.0
  0
ARC
  5
F3F
  8
C4
 10
843.60154343008355
 20
56.181882864585127
 30
0.0
 40
1.1000000000000001
 50
270.0
 51
334.70745356257578
  0
LINE
  5
F40
  8
C4
 10
844.90492241143306
 20
56.365467262006739
 30
0.0
 11
844.59609538040593
 21
55.711918591357801
 31
0.0
  0
ARC
  5
F41
  8
C4
 10
846.35154343008355
 20
55.681882864585162
 30
0.0
 40
1.6000000000000001
 50
90.0
 51
154.70745356257581
  0
ARC
  5
F42
  8
C4
 10
849.10154343008355
 20
38.281882864585157
 30
0.0
 40
1.1000000000000001
 50
90.0
 51
154.70745356257649
  0
LINE
  5
F43
  8
C4
 10
847.79816444873427
 20
38.098298467163538
 30
0.0
 11
848.10699147976129
 21
38.75184713781249
 31
0.0
  0
ARC
  5
F44
  8
C4
 10
846.35154343008355
 20
38.781882864585093
 30
0.0
 40
1.6000000000000001
 50
270.0
 51
334.70745356257578
  0
ARC
  5
F45
  8
C4
 10
843.60154343008355
 20
38.281882864585157
 30
0.0
 40
1.1000000000000001
 50
25.292546437424171
 51
90.0
  0
LINE
  5
F46
  8
C4
 10
844.90492241143306
 20
38.098298467163538
 30
0.0
 11
844.59609538040593
 21
38.75184713781249
 31
0.0
  0
ARC
  5
F47
  8
C4
 10
846.35154343008355
 20
38.781882864585093
 30
0.0
 40
1.6000000000000001
 50
205.29254643742411
 51
270.0
  0
ARC
  5
F48
  8
C4
 10
854.60154343008367
 20
56.181882864585127
 30
0.0
 40
1.1000000000000001
 50
205.2925464374234
 51
270.0
  0
LINE
  5
F49
  8
C4
 10
853.29816444873416
 20
56.365467262006739
 30
0.0
 11
853.6069914797614
 21
55.711918591357801
 31
0.0
  0
ARC
  5
F4A
  8
C4
 10
851.85154343008355
 20
55.681882864585162
 30
0.0
 40
1.6000000000000001
 50
25.292546437424171
 51
90.0
  0
ARC
  5
F4B
  8
C4
 10
849.10154343008355
 20
56.181882864585127
 30
0.0
 40
1.1000000000000001
 50
270.0
 51
334.70745356257578
  0
LINE
  5
F4C
  8
C4
 10
850.40492241143295
 20
56.365467262006739
 30
0.0
 11
850.09609538040581
 21
55.711918591357801
 31
0.0
  0
ARC
  5
F4D
  8
C4
 10
851.85154343008355
 20
55.681882864585162
 30
0.0
 40
1.6000000000000001
 50
90.0
 51
154.70745356257581
  0
ARC
  5
F4E
  8
C4
 10
854.60154343008367
 20
38.281882864585157
 30
0.0
 40
1.1000000000000001
 50
90.0
 51
154.70745356257649
  0
LINE
  5
F4F
  8
C4
 10
853.29816444873416
 20
38.098298467163538
 30
0.0
 11
853.6069914797614
 21
38.75184713781249
 31
0.0
  0
ARC
  5
F50
  8
C4
 10
851.85154343008355
 20
38.781882864585093
 30
0.0
 40
1.6000000000000001
 50
270.0
 51
334.70745356257578
  0
ARC
  5
F51
  8
C4
 10
849.10154343008355
 20
38.281882864585157
 30
0.0
 40
1.1000000000000001
 50
25.292546437424171
 51
90.0
  0
LINE
  5
F52
  8
C4
 10
850.40492241143295
 20
38.098298467163538
 30
0.0
 11
850.09609538040581
 21
38.75184713781249
 31
0.0
  0
ARC
  5
F53
  8
C4
 10
851.85154343008355
 20
38.781882864585093
 30
0.0
 40
1.6000000000000001
 50
205.29254643742411
 51
270.0
  0
ARC
  5
F54
  8
C4
 10
860.10154343008367
 20
56.181882864585127
 30
0.0
 40
1.1000000000000001
 50
205.2925464374234
 51
270.0
  0
LINE
  5
F55
  8
C4
 10
858.79816444873416
 20
56.365467262006739
 30
0.0
 11
859.1069914797614
 21
55.711918591357801
 31
0.0
  0
ARC
  5
F56
  8
C4
 10
857.35154343008367
 20
55.681882864585162
 30
0.0
 40
1.6000000000000001
 50
25.292546437424171
 51
90.0
  0
ARC
  5
F57
  8
C4
 10
854.60154343008367
 20
56.181882864585127
 30
0.0
 40
1.1000000000000001
 50
270.0
 51
334.70745356257578
  0
LINE
  5
F58
  8
C4
 10
855.90492241143295
 20
56.365467262006739
 30
0.0
 11
855.59609538040581
 21
55.711918591357801
 31
0.0
  0
ARC
  5
F59
  8
C4
 10
857.35154343008367
 20
55.681882864585162
 30
0.0
 40
1.6000000000000001
 50
90.0
 51
154.70745356257581
  0
ARC
  5
F5A
  8
C4
 10
860.10154343008367
 20
38.281882864585157
 30
0.0
 40
1.1000000000000001
 50
90.0
 51
154.70745356257649
  0
LINE
  5
F5B
  8
C4
 10
858.79816444873416
 20
38.098298467163538
 30
0.0
 11
859.1069914797614
 21
38.75184713781249
 31
0.0
  0
ARC
  5
F5C
  8
C4
 10
857.35154343008367
 20
38.781882864585093
 30
0.0
 40
1.6000000000000001
 50
270.0
 51
334.70745356257578
  0
ARC
  5
F5D
  8
C4
 10
854.60154343008367
 20
38.281882864585157
 30
0.0
 40
1.1000000000000001
 50
25.292546437424171
 51
90.0
  0
LINE
  5
F5E
  8
C4
 10
855.90492241143295
 20
38.098298467163538
 30
0.0
 11
855.59609538040581
 21
38.75184713781249
 31
0.0
  0
ARC
  5
F5F
  8
C4
 10
857.35154343008367
 20
38.781882864585093
 30
0.0
 40
1.6000000000000001
 50
205.29254643742411
 51
270.0
  0
ARC
  5
F60
  8
C4
 10
865.60154343008367
 20
56.181882864585127
 30
0.0
 40
1.1000000000000001
 50
205.2925464374234
 51
270.0
  0
LINE
  5
F61
  8
C4
 10
864.29816444873416
 20
56.365467262006739
 30
0.0
 11
864.6069914797614
 21
55.711918591357801
 31
0.0
  0
ARC
  5
F62
  8
C4
 10
862.85154343008367
 20
55.681882864585162
 30
0.0
 40
1.6000000000000001
 50
25.292546437424171
 51
90.0
  0
ARC
  5
F63
  8
C4
 10
860.10154343008367
 20
56.181882864585127
 30
0.0
 40
1.1000000000000001
 50
270.0
 51
334.70745356257578
  0
LINE
  5
F64
  8
C4
 10
861.40492241143295
 20
56.365467262006739
 30
0.0
 11
861.09609538040604
 21
55.711918591357801
 31
0.0
  0
ARC
  5
F65
  8
C4
 10
862.85154343008367
 20
55.681882864585162
 30
0.0
 40
1.6000000000000001
 50
90.0
 51
154.70745356257581
  0
ARC
  5
F66
  8
C4
 10
865.60154343008367
 20
38.281882864585157
 30
0.0
 40
1.1000000000000001
 50
90.0
 51
154.70745356257649
  0
LINE
  5
F67
  8
C4
 10
864.29816444873416
 20
38.098298467163538
 30
0.0
 11
864.6069914797614
 21
38.75184713781249
 31
0.0
  0
ARC
  5
F68
  8
C4
 10
862.85154343008367
 20
38.781882864585093
 30
0.0
 40
1.6000000000000001
 50
270.0
 51
334.70745356257578
  0
ARC
  5
F69
  8
C4
 10
860.10154343008367
 20
38.281882864585157
 30
0.0
 40
1.1000000000000001
 50
25.292546437424171
 51
90.0
  0
LINE
  5
F6A
  8
C4
 10
861.40492241143295
 20
38.098298467163538
 30
0.0
 11
861.09609538040604
 21
38.75184713781249
 31
0.0
  0
ARC
  5
F6B
  8
C4
 10
862.85154343008367
 20
38.781882864585093
 30
0.0
 40
1.6000000000000001
 50
205.29254643742411
 51
270.0
  0
ARC
  5
F6C
  8
C4
 10
871.10154343008355
 20
56.181882864585127
 30
0.0
 40
1.1000000000000001
 50
205.2925464374234
 51
270.0
  0
LINE
  5
F6D
  8
C4
 10
869.79816444873416
 20
56.365467262006739
 30
0.0
 11
870.1069914797614
 21
55.711918591357801
 31
0.0
  0
ARC
  5
F6E
  8
C4
 10
868.35154343008355
 20
55.681882864585162
 30
0.0
 40
1.6000000000000001
 50
25.292546437424171
 51
90.0
  0
ARC
  5
F6F
  8
C4
 10
865.60154343008367
 20
56.181882864585127
 30
0.0
 40
1.1000000000000001
 50
270.0
 51
334.70745356257578
  0
LINE
  5
F70
  8
C4
 10
866.90492241143295
 20
56.365467262006739
 30
0.0
 11
866.59609538040593
 21
55.711918591357801
 31
0.0
  0
ARC
  5
F71
  8
C4
 10
868.35154343008355
 20
55.681882864585162
 30
0.0
 40
1.6000000000000001
 50
90.0
 51
154.70745356257581
  0
ARC
  5
F72
  8
C4
 10
871.10154343008355
 20
38.281882864585157
 30
0.0
 40
1.1000000000000001
 50
90.0
 51
154.70745356257649
  0
LINE
  5
F73
  8
C4
 10
869.79816444873416
 20
38.098298467163538
 30
0.0
 11
870.1069914797614
 21
38.75184713781249
 31
0.0
  0
ARC
  5
F74
  8
C4
 10
868.35154343008355
 20
38.781882864585093
 30
0.0
 40
1.6000000000000001
 50
270.0
 51
334.70745356257578
  0
ARC
  5
F75
  8
C4
 10
865.60154343008367
 20
38.281882864585157
 30
0.0
 40
1.1000000000000001
 50
25.292546437424171
 51
90.0
  0
LINE
  5
F76
  8
C4
 10
866.90492241143295
 20
38.098298467163538
 30
0.0
 11
866.59609538040593
 21
38.75184713781249
 31
0.0
  0
ARC
  5
F77
  8
C4
 10
868.35154343008355
 20
38.781882864585093
 30
0.0
 40
1.6000000000000001
 50
205.29254643742411
 51
270.0
  0
ARC
  5
F78
  8
C4
 10
876.60154343008355
 20
56.181882864585127
 30
0.0
 40
1.1000000000000001
 50
205.2925464374234
 51
270.0
  0
LINE
  5
F79
  8
C4
 10
875.29816444873427
 20
56.365467262006739
 30
0.0
 11
875.60699147976129
 21
55.711918591357801
 31
0.0
  0
ARC
  5
F7A
  8
C4
 10
873.85154343008355
 20
55.681882864585162
 30
0.0
 40
1.6000000000000001
 50
25.292546437424171
 51
90.0
  0
ARC
  5
F7B
  8
C4
 10
871.10154343008355
 20
56.181882864585127
 30
0.0
 40
1.1000000000000001
 50
270.0
 51
334.70745356257578
  0
LINE
  5
F7C
  8
C4
 10
872.40492241143306
 20
56.365467262006739
 30
0.0
 11
872.09609538040593
 21
55.711918591357801
 31
0.0
  0
ARC
  5
F7D
  8
C4
 10
873.85154343008355
 20
55.681882864585162
 30
0.0
 40
1.6000000000000001
 50
90.0
 51
154.70745356257581
  0
ARC
  5
F7E
  8
C4
 10
876.60154343008355
 20
38.281882864585157
 30
0.0
 40
1.1000000000000001
 50
90.0
 51
154.70745356257649
  0
LINE
  5
F7F
  8
C4
 10
875.29816444873427
 20
38.098298467163538
 30
0.0
 11
875.60699147976129
 21
38.75184713781249
 31
0.0
  0
ARC
  5
F80
  8
C4
 10
873.85154343008355
 20
38.781882864585093
 30
0.0
 40
1.6000000000000001
 50
270.0
 51
334.70745356257578
  0
ARC
  5
F81
  8
C4
 10
871.10154343008355
 20
38.281882864585157
 30
0.0
 40
1.1000000000000001
 50
25.292546437424171
 51
90.0
  0
LINE
  5
F82
  8
C4
 10
872.40492241143306
 20
38.098298467163538
 30
0.0
 11
872.09609538040593
 21
38.75184713781249
 31
0.0
  0
ARC
  5
F83
  8
C4
 10
873.85154343008355
 20
38.781882864585093
 30
0.0
 40
1.6000000000000001
 50
205.29254643742411
 51
270.0
  0
ARC
  5
F84
  8
C4
 10
882.10154343008355
 20
56.181882864585127
 30
0.0
 40
1.1000000000000001
 50
205.2925464374234
 51
270.0
  0
LINE
  5
F85
  8
C4
 10
880.79816444873427
 20
56.365467262006739
 30
0.0
 11
881.10699147976129
 21
55.711918591357801
 31
0.0
  0
ARC
  5
F86
  8
C4
 10
879.35154343008355
 20
55.681882864585162
 30
0.0
 40
1.6000000000000001
 50
25.292546437424171
 51
90.0
  0
ARC
  5
F87
  8
C4
 10
876.60154343008355
 20
56.181882864585127
 30
0.0
 40
1.1000000000000001
 50
270.0
 51
334.70745356257578
  0
LINE
  5
F88
  8
C4
 10
877.90492241143306
 20
56.365467262006739
 30
0.0
 11
877.59609538040593
 21
55.711918591357801
 31
0.0
  0
ARC
  5
F89
  8
C4
 10
879.35154343008355
 20
55.681882864585162
 30
0.0
 40
1.6000000000000001
 50
90.0
 51
154.70745356257581
  0
ARC
  5
F8A
  8
C4
 10
882.10154343008355
 20
38.281882864585157
 30
0.0
 40
1.1000000000000001
 50
90.0
 51
154.70745356257649
  0
LINE
  5
F8B
  8
C4
 10
880.79816444873427
 20
38.098298467163538
 30
0.0
 11
881.10699147976129
 21
38.75184713781249
 31
0.0
  0
ARC
  5
F8C
  8
C4
 10
879.35154343008355
 20
38.781882864585093
 30
0.0
 40
1.6000000000000001
 50
270.0
 51
334.70745356257578
  0
ARC
  5
F8D
  8
C4
 10
876.60154343008355
 20
38.281882864585157
 30
0.0
 40
1.1000000000000001
 50
25.292546437424171
 51
90.0
  0
LINE
  5
F8E
  8
C4
 10
877.90492241143306
 20
38.098298467163538
 30
0.0
 11
877.59609538040593
 21
38.75184713781249
 31
0.0
  0
ARC
  5
F8F
  8
C4
 10
879.35154343008355
 20
38.781882864585093
 30
0.0
 40
1.6000000000000001
 50
205.29254643742411
 51
270.0
  0
ARC
  5
F90
  8
C4
 10
887.60154343008367
 20
56.181882864585127
 30
0.0
 40
1.1000000000000001
 50
205.2925464374234
 51
270.0
  0
LINE
  5
F91
  8
C4
 10
886.29816444873427
 20
56.365467262006739
 30
0.0
 11
886.6069914797614
 21
55.711918591357801
 31
0.0
  0
ARC
  5
F92
  8
C4
 10
884.85154343008355
 20
55.681882864585162
 30
0.0
 40
1.6000000000000001
 50
25.292546437424171
 51
90.0
  0
ARC
  5
F93
  8
C4
 10
882.10154343008355
 20
56.181882864585127
 30
0.0
 40
1.1000000000000001
 50
270.0
 51
334.70745356257578
  0
LINE
  5
F94
  8
C4
 10
883.40492241143295
 20
56.365467262006739
 30
0.0
 11
883.09609538040581
 21
55.711918591357801
 31
0.0
  0
ARC
  5
F95
  8
C4
 10
884.85154343008355
 20
55.681882864585162
 30
0.0
 40
1.6000000000000001
 50
90.0
 51
154.70745356257581
  0
ARC
  5
F96
  8
C4
 10
887.60154343008367
 20
38.281882864585157
 30
0.0
 40
1.1000000000000001
 50
90.0
 51
154.70745356257649
  0
LINE
  5
F97
  8
C4
 10
886.29816444873427
 20
38.098298467163538
 30
0.0
 11
886.6069914797614
 21
38.75184713781249
 31
0.0
  0
ARC
  5
F98
  8
C4
 10
884.85154343008355
 20
38.781882864585093
 30
0.0
 40
1.6000000000000001
 50
270.0
 51
334.70745356257578
  0
ARC
  5
F99
  8
C4
 10
882.10154343008355
 20
38.281882864585157
 30
0.0
 40
1.1000000000000001
 50
25.292546437424171
 51
90.0
  0
LINE
  5
F9A
  8
C4
 10
883.40492241143295
 20
38.098298467163538
 30
0.0
 11
883.09609538040581
 21
38.75184713781249
 31
0.0
  0
ARC
  5
F9B
  8
C4
 10
884.85154343008355
 20
38.781882864585093
 30
0.0
 40
1.6000000000000001
 50
205.29254643742411
 51
270.0
  0
ARC
  5
F9C
  8
C4
 10
893.10154343008367
 20
56.181882864585127
 30
0.0
 40
1.1000000000000001
 50
205.2925464374234
 51
270.0
  0
LINE
  5
F9D
  8
C4
 10
891.79816444873416
 20
56.365467262006739
 30
0.0
 11
892.1069914797614
 21
55.711918591357801
 31
0.0
  0
ARC
  5
F9E
  8
C4
 10
890.35154343008367
 20
55.681882864585162
 30
0.0
 40
1.6000000000000001
 50
25.292546437424171
 51
90.0
  0
ARC
  5
F9F
  8
C4
 10
887.60154343008367
 20
56.181882864585127
 30
0.0
 40
1.1000000000000001
 50
270.0
 51
334.70745356257578
  0
LINE
  5
FA0
  8
C4
 10
888.90492241143295
 20
56.365467262006739
 30
0.0
 11
888.59609538040581
 21
55.711918591357801
 31
0.0
  0
ARC
  5
FA1
  8
C4
 10
890.35154343008367
 20
55.681882864585162
 30
0.0
 40
1.6000000000000001
 50
90.0
 51
154.70745356257581
  0
ARC
  5
FA2
  8
C4
 10
893.10154343008367
 20
38.281882864585157
 30
0.0
 40
1.1000000000000001
 50
90.0
 51
154.70745356257649
  0
LINE
  5
FA3
  8
C4
 10
891.79816444873416
 20
38.098298467163538
 30
0.0
 11
892.1069914797614
 21
38.75184713781249
 31
0.0
  0
ARC
  5
FA4
  8
C4
 10
890.35154343008367
 20
38.781882864585093
 30
0.0
 40
1.6000000000000001
 50
270.0
 51
334.70745356257578
  0
ARC
  5
FA5
  8
C4
 10
887.60154343008367
 20
38.281882864585157
 30
0.0
 40
1.1000000000000001
 50
25.292546437424171
 51
90.0
  0
LINE
  5
FA6
  8
C4
 10
888.90492241143295
 20
38.098298467163538
 30
0.0
 11
888.59609538040581
 21
38.75184713781249
 31
0.0
  0
ARC
  5
FA7
  8
C4
 10
890.35154343008367
 20
38.781882864585093
 30
0.0
 40
1.6000000000000001
 50
205.29254643742411
 51
270.0
  0
ARC
  5
FA8
  8
C4
 10
898.60154343008367
 20
56.181882864585127
 30
0.0
 40
1.1000000000000001
 50
205.2925464374234
 51
270.0
  0
LINE
  5
FA9
  8
C4
 10
897.29816444873416
 20
56.365467262006739
 30
0.0
 11
897.6069914797614
 21
55.711918591357801
 31
0.0
  0
ARC
  5
FAA
  8
C4
 10
895.85154343008367
 20
55.681882864585162
 30
0.0
 40
1.6000000000000001
 50
25.292546437424171
 51
90.0
  0
ARC
  5
FAB
  8
C4
 10
893.10154343008367
 20
56.181882864585127
 30
0.0
 40
1.1000000000000001
 50
270.0
 51
334.70745356257578
  0
LINE
  5
FAC
  8
C4
 10
894.40492241143295
 20
56.365467262006739
 30
0.0
 11
894.09609538040604
 21
55.711918591357801
 31
0.0
  0
ARC
  5
FAD
  8
C4
 10
895.85154343008367
 20
55.681882864585162
 30
0.0
 40
1.6000000000000001
 50
90.0
 51
154.70745356257581
  0
ARC
  5
FAE
  8
C4
 10
898.60154343008367
 20
38.281882864585157
 30
0.0
 40
1.1000000000000001
 50
90.0
 51
154.70745356257649
  0
LINE
  5
FAF
  8
C4
 10
897.29816444873416
 20
38.098298467163538
 30
0.0
 11
897.6069914797614
 21
38.75184713781249
 31
0.0
  0
ARC
  5
FB0
  8
C4
 10
895.85154343008367
 20
38.781882864585093
 30
0.0
 40
1.6000000000000001
 50
270.0
 51
334.70745356257578
  0
ARC
  5
FB1
  8
C4
 10
893.10154343008367
 20
38.281882864585157
 30
0.0
 40
1.1000000000000001
 50
25.292546437424171
 51
90.0
  0
LINE
  5
FB2
  8
C4
 10
894.40492241143295
 20
38.098298467163538
 30
0.0
 11
894.09609538040604
 21
38.75184713781249
 31
0.0
  0
ARC
  5
FB3
  8
C4
 10
895.85154343008367
 20
38.781882864585093
 30
0.0
 40
1.6000000000000001
 50
205.29254643742411
 51
270.0
  0
ARC
  5
FB4
  8
C4
 10
904.10154343008355
 20
56.181882864585127
 30
0.0
 40
1.1000000000000001
 50
205.2925464374234
 51
270.0
  0
LINE
  5
FB5
  8
C4
 10
902.79816444873416
 20
56.365467262006739
 30
0.0
 11
903.1069914797614
 21
55.711918591357801
 31
0.0
  0
ARC
  5
FB6
  8
C4
 10
901.35154343008367
 20
55.681882864585162
 30
0.0
 40
1.6000000000000001
 50
25.292546437424171
 51
90.0
  0
ARC
  5
FB7
  8
C4
 10
898.60154343008367
 20
56.181882864585127
 30
0.0
 40
1.1000000000000001
 50
270.0
 51
334.70745356257578
  0
LINE
  5
FB8
  8
C4
 10
899.90492241143295
 20
56.365467262006739
 30
0.0
 11
899.59609538040593
 21
55.711918591357801
 31
0.0
  0
ARC
  5
FB9
  8
C4
 10
901.35154343008367
 20
55.681882864585162
 30
0.0
 40
1.6000000000000001
 50
90.0
 51
154.70745356257581
  0
ARC
  5
FBA
  8
C4
 10
904.10154343008355
 20
38.281882864585157
 30
0.0
 40
1.1000000000000001
 50
90.0
 51
154.70745356257649
  0
LINE
  5
FBB
  8
C4
 10
902.79816444873416
 20
38.098298467163538
 30
0.0
 11
903.1069914797614
 21
38.75184713781249
 31
0.0
  0
ARC
  5
FBC
  8
C4
 10
901.35154343008367
 20
38.781882864585093
 30
0.0
 40
1.6000000000000001
 50
270.0
 51
334.70745356257578
  0
ARC
  5
FBD
  8
C4
 10
898.60154343008367
 20
38.281882864585157
 30
0.0
 40
1.1000000000000001
 50
25.292546437424171
 51
90.0
  0
LINE
  5
FBE
  8
C4
 10
899.90492241143295
 20
38.098298467163538
 30
0.0
 11
899.59609538040593
 21
38.75184713781249
 31
0.0
  0
ARC
  5
FBF
  8
C4
 10
901.35154343008367
 20
38.781882864585093
 30
0.0
 40
1.6000000000000001
 50
205.29254643742411
 51
270.0
  0
ARC
  5
FC0
  8
C4
 10
909.60154343008355
 20
56.181882864585127
 30
0.0
 40
1.1000000000000001
 50
205.2925464374234
 51
270.0
  0
LINE
  5
FC1
  8
C4
 10
908.29816444873427
 20
56.365467262006739
 30
0.0
 11
908.60699147976129
 21
55.711918591357801
 31
0.0
  0
ARC
  5
FC2
  8
C4
 10
906.85154343008355
 20
55.681882864585162
 30
0.0
 40
1.6000000000000001
 50
25.292546437424171
 51
90.0
  0
ARC
  5
FC3
  8
C4
 10
904.10154343008355
 20
56.181882864585127
 30
0.0
 40
1.1000000000000001
 50
270.0
 51
334.70745356257578
  0
LINE
  5
FC4
  8
C4
 10
905.40492241143306
 20
56.365467262006739
 30
0.0
 11
905.09609538040593
 21
55.711918591357801
 31
0.0
  0
ARC
  5
FC5
  8
C4
 10
906.85154343008355
 20
55.681882864585162
 30
0.0
 40
1.6000000000000001
 50
90.0
 51
154.70745356257581
  0
ARC
  5
FC6
  8
C4
 10
909.60154343008355
 20
38.281882864585157
 30
0.0
 40
1.1000000000000001
 50
90.0
 51
154.70745356257649
  0
LINE
  5
FC7
  8
C4
 10
908.29816444873427
 20
38.098298467163538
 30
0.0
 11
908.60699147976129
 21
38.75184713781249
 31
0.0
  0
ARC
  5
FC8
  8
C4
 10
906.85154343008355
 20
38.781882864585093
 30
0.0
 40
1.6000000000000001
 50
270.0
 51
334.70745356257578
  0
ARC
  5
FC9
  8
C4
 10
904.10154343008355
 20
38.281882864585157
 30
0.0
 40
1.1000000000000001
 50
25.292546437424171
 51
90.0
  0
LINE
  5
FCA
  8
C4
 10
905.40492241143306
 20
38.098298467163538
 30
0.0
 11
905.09609538040593
 21
38.75184713781249
 31
0.0
  0
ARC
  5
FCB
  8
C4
 10
906.85154343008355
 20
38.781882864585093
 30
0.0
 40
1.6000000000000001
 50
205.29254643742411
 51
270.0
  0
ARC
  5
FCC
  8
C4
 10
915.10154343008355
 20
56.181882864585127
 30
0.0
 40
1.1000000000000001
 50
205.2925464374234
 51
270.0
  0
LINE
  5
FCD
  8
C4
 10
913.79816444873427
 20
56.365467262006739
 30
0.0
 11
914.10699147976129
 21
55.711918591357801
 31
0.0
  0
ARC
  5
FCE
  8
C4
 10
912.35154343008355
 20
55.681882864585162
 30
0.0
 40
1.6000000000000001
 50
25.292546437424171
 51
90.0
  0
ARC
  5
FCF
  8
C4
 10
909.60154343008355
 20
56.181882864585127
 30
0.0
 40
1.1000000000000001
 50
270.0
 51
334.70745356257578
  0
LINE
  5
FD0
  8
C4
 10
910.90492241143306
 20
56.365467262006739
 30
0.0
 11
910.59609538040593
 21
55.711918591357801
 31
0.0
  0
ARC
  5
FD1
  8
C4
 10
912.35154343008355
 20
55.681882864585162
 30
0.0
 40
1.6000000000000001
 50
90.0
 51
154.70745356257581
  0
ARC
  5
FD2
  8
C4
 10
915.10154343008355
 20
38.281882864585157
 30
0.0
 40
1.1000000000000001
 50
90.0
 51
154.70745356257649
  0
LINE
  5
FD3
  8
C4
 10
913.79816444873427
 20
38.098298467163538
 30
0.0
 11
914.10699147976129
 21
38.75184713781249
 31
0.0
  0
ARC
  5
FD4
  8
C4
 10
912.35154343008355
 20
38.781882864585093
 30
0.0
 40
1.6000000000000001
 50
270.0
 51
334.70745356257578
  0
ARC
  5
FD5
  8
C4
 10
909.60154343008355
 20
38.281882864585157
 30
0.0
 40
1.1000000000000001
 50
25.292546437424171
 51
90.0
  0
LINE
  5
FD6
  8
C4
 10
910.90492241143306
 20
38.098298467163538
 30
0.0
 11
910.59609538040593
 21
38.75184713781249
 31
0.0
  0
ARC
  5
FD7
  8
C4
 10
912.35154343008355
 20
38.781882864585093
 30
0.0
 40
1.6000000000000001
 50
205.29254643742411
 51
270.0
  0
ARC
  5
FD8
  8
C4
 10
920.60154343008355
 20
56.181882864585127
 30
0.0
 40
1.1000000000000001
 50
205.2925464374234
 51
270.0
  0
LINE
  5
FD9
  8
C4
 10
919.29816444873427
 20
56.365467262006739
 30
0.0
 11
919.60699147976152
 21
55.711918591357801
 31
0.0
  0
ARC
  5
FDA
  8
C4
 10
917.85154343008355
 20
55.681882864585162
 30
0.0
 40
1.6000000000000001
 50
25.292546437424171
 51
90.0
  0
ARC
  5
FDB
  8
C4
 10
915.10154343008355
 20
56.181882864585127
 30
0.0
 40
1.1000000000000001
 50
270.0
 51
334.70745356257578
  0
LINE
  5
FDC
  8
C4
 10
916.40492241143295
 20
56.365467262006739
 30
0.0
 11
916.09609538040593
 21
55.711918591357801
 31
0.0
  0
ARC
  5
FDD
  8
C4
 10
917.85154343008355
 20
55.681882864585162
 30
0.0
 40
1.6000000000000001
 50
90.0
 51
154.70745356257581
  0
ARC
  5
FDE
  8
C4
 10
920.60154343008355
 20
38.281882864585157
 30
0.0
 40
1.1000000000000001
 50
90.0
 51
154.70745356257649
  0
LINE
  5
FDF
  8
C4
 10
919.29816444873427
 20
38.098298467163538
 30
0.0
 11
919.60699147976152
 21
38.75184713781249
 31
0.0
  0
ARC
  5
FE0
  8
C4
 10
917.85154343008355
 20
38.781882864585093
 30
0.0
 40
1.6000000000000001
 50
270.0
 51
334.70745356257578
  0
ARC
  5
FE1
  8
C4
 10
915.10154343008355
 20
38.281882864585157
 30
0.0
 40
1.1000000000000001
 50
25.292546437424171
 51
90.0
  0
LINE
  5
FE2
  8
C4
 10
916.40492241143295
 20
38.098298467163538
 30
0.0
 11
916.09609538040593
 21
38.75184713781249
 31
0.0
  0
ARC
  5
FE3
  8
C4
 10
917.85154343008355
 20
38.781882864585093
 30
0.0
 40
1.6000000000000001
 50
205.29254643742411
 51
270.0
  0
ARC
  5
FE4
  8
C4
 10
926.10154343008367
 20
56.181882864585127
 30
0.0
 40
1.1000000000000001
 50
205.2925464374234
 51
270.0
  0
LINE
  5
FE5
  8
C4
 10
924.79816444873416
 20
56.365467262006739
 30
0.0
 11
925.1069914797614
 21
55.711918591357801
 31
0.0
  0
ARC
  5
FE6
  8
C4
 10
923.35154343008367
 20
55.681882864585162
 30
0.0
 40
1.6000000000000001
 50
25.292546437424171
 51
90.0
  0
ARC
  5
FE7
  8
C4
 10
920.60154343008355
 20
56.181882864585127
 30
0.0
 40
1.1000000000000001
 50
270.0
 51
334.70745356257578
  0
LINE
  5
FE8
  8
C4
 10
921.90492241143295
 20
56.365467262006739
 30
0.0
 11
921.59609538040581
 21
55.711918591357801
 31
0.0
  0
ARC
  5
FE9
  8
C4
 10
923.35154343008367
 20
55.681882864585162
 30
0.0
 40
1.6000000000000001
 50
90.0
 51
154.70745356257581
  0
ARC
  5
FEA
  8
C4
 10
926.10154343008367
 20
38.281882864585157
 30
0.0
 40
1.1000000000000001
 50
90.0
 51
154.70745356257649
  0
LINE
  5
FEB
  8
C4
 10
924.79816444873416
 20
38.098298467163538
 30
0.0
 11
925.1069914797614
 21
38.75184713781249
 31
0.0
  0
ARC
  5
FEC
  8
C4
 10
923.35154343008367
 20
38.781882864585093
 30
0.0
 40
1.6000000000000001
 50
270.0
 51
334.70745356257578
  0
ARC
  5
FED
  8
C4
 10
920.60154343008355
 20
38.281882864585157
 30
0.0
 40
1.1000000000000001
 50
25.292546437424171
 51
90.0
  0
LINE
  5
FEE
  8
C4
 10
921.90492241143295
 20
38.098298467163538
 30
0.0
 11
921.59609538040581
 21
38.75184713781249
 31
0.0
  0
ARC
  5
FEF
  8
C4
 10
923.35154343008367
 20
38.781882864585093
 30
0.0
 40
1.6000000000000001
 50
205.29254643742411
 51
270.0
  0
ARC
  5
FF0
  8
C4
 10
931.60154343008367
 20
56.181882864585127
 30
0.0
 40
1.1000000000000001
 50
205.2925464374234
 51
270.0
  0
LINE
  5
FF1
  8
C4
 10
930.29816444873416
 20
56.365467262006739
 30
0.0
 11
930.6069914797614
 21
55.711918591357801
 31
0.0
  0
ARC
  5
FF2
  8
C4
 10
928.85154343008367
 20
55.681882864585162
 30
0.0
 40
1.6000000000000001
 50
25.292546437424171
 51
90.0
  0
ARC
  5
FF3
  8
C4
 10
926.10154343008367
 20
56.181882864585127
 30
0.0
 40
1.1000000000000001
 50
270.0
 51
334.70745356257578
  0
LINE
  5
FF4
  8
C4
 10
927.40492241143295
 20
56.365467262006739
 30
0.0
 11
927.09609538040604
 21
55.711918591357801
 31
0.0
  0
ARC
  5
FF5
  8
C4
 10
928.85154343008367
 20
55.681882864585162
 30
0.0
 40
1.6000000000000001
 50
90.0
 51
154.70745356257581
  0
ARC
  5
FF6
  8
C4
 10
931.60154343008367
 20
38.281882864585157
 30
0.0
 40
1.1000000000000001
 50
90.0
 51
154.70745356257649
  0
LINE
  5
FF7
  8
C4
 10
930.29816444873416
 20
38.098298467163538
 30
0.0
 11
930.6069914797614
 21
38.75184713781249
 31
0.0
  0
ARC
  5
FF8
  8
C4
 10
928.85154343008367
 20
38.781882864585093
 30
0.0
 40
1.6000000000000001
 50
270.0
 51
334.70745356257578
  0
ARC
  5
FF9
  8
C4
 10
926.10154343008367
 20
38.281882864585157
 30
0.0
 40
1.1000000000000001
 50
25.292546437424171
 51
90.0
  0
LINE
  5
FFA
  8
C4
 10
927.40492241143295
 20
38.098298467163538
 30
0.0
 11
927.09609538040604
 21
38.75184713781249
 31
0.0
  0
ARC
  5
FFB
  8
C4
 10
928.85154343008367
 20
38.781882864585093
 30
0.0
 40
1.6000000000000001
 50
205.29254643742411
 51
270.0
  0
ARC
  5
FFC
  8
C4
 10
937.10154343008355
 20
56.181882864585127
 30
0.0
 40
1.1000000000000001
 50
205.2925464374234
 51
270.0
  0
LINE
  5
FFD
  8
C4
 10
935.79816444873416
 20
56.365467262006739
 30
0.0
 11
936.1069914797614
 21
55.711918591357801
 31
0.0
  0
ARC
  5
FFE
  8
C4
 10
934.35154343008367
 20
55.681882864585162
 30
0.0
 40
1.6000000000000001
 50
25.292546437424171
 51
90.0
  0
ARC
  5
FFF
  8
C4
 10
931.60154343008367
 20
56.181882864585127
 30
0.0
 40
1.1000000000000001
 50
270.0
 51
334.70745356257578
  0
LINE
  5
1000
  8
C4
 10
932.90492241143295
 20
56.365467262006739
 30
0.0
 11
932.59609538040593
 21
55.711918591357801
 31
0.0
  0
ARC
  5
1001
  8
C4
 10
934.35154343008367
 20
55.681882864585162
 30
0.0
 40
1.6000000000000001
 50
90.0
 51
154.70745356257581
  0
ARC
  5
1002
  8
C4
 10
937.10154343008355
 20
38.281882864585157
 30
0.0
 40
1.1000000000000001
 50
90.0
 51
154.70745356257649
  0
LINE
  5
1003
  8
C4
 10
935.79816444873416
 20
38.098298467163538
 30
0.0
 11
936.1069914797614
 21
38.75184713781249
 31
0.0
  0
ARC
  5
1004
  8
C4
 10
934.35154343008367
 20
38.781882864585093
 30
0.0
 40
1.6000000000000001
 50
270.0
 51
334.70745356257578
  0
ARC
  5
1005
  8
C4
 10
931.60154343008367
 20
38.281882864585157
 30
0.0
 40
1.1000000000000001
 50
25.292546437424171
 51
90.0
  0
LINE
  5
1006
  8
C4
 10
932.90492241143295
 20
38.098298467163538
 30
0.0
 11
932.59609538040593
 21
38.75184713781249
 31
0.0
  0
ARC
  5
1007
  8
C4
 10
934.35154343008367
 20
38.781882864585093
 30
0.0
 40
1.6000000000000001
 50
205.29254643742411
 51
270.0
  0
ARC
  5
1008
  8
C4
 10
942.60154343008355
 20
56.181882864585127
 30
0.0
 40
1.1000000000000001
 50
205.2925464374234
 51
270.0
  0
LINE
  5
1009
  8
C4
 10
941.29816444873427
 20
56.365467262006739
 30
0.0
 11
941.60699147976129
 21
55.711918591357801
 31
0.0
  0
ARC
  5
100A
  8
C4
 10
939.85154343008355
 20
55.681882864585162
 30
0.0
 40
1.6000000000000001
 50
25.292546437424171
 51
90.0
  0
ARC
  5
100B
  8
C4
 10
937.10154343008355
 20
56.181882864585127
 30
0.0
 40
1.1000000000000001
 50
270.0
 51
334.70745356257578
  0
LINE
  5
100C
  8
C4
 10
938.40492241143306
 20
56.365467262006739
 30
0.0
 11
938.09609538040593
 21
55.711918591357801
 31
0.0
  0
ARC
  5
100D
  8
C4
 10
939.85154343008355
 20
55.681882864585162
 30
0.0
 40
1.6000000000000001
 50
90.0
 51
154.70745356257581
  0
ARC
  5
100E
  8
C4
 10
942.60154343008355
 20
38.281882864585157
 30
0.0
 40
1.1000000000000001
 50
90.0
 51
154.70745356257649
  0
LINE
  5
100F
  8
C4
 10
941.29816444873427
 20
38.098298467163538
 30
0.0
 11
941.60699147976129
 21
38.75184713781249
 31
0.0
  0
ARC
  5
1010
  8
C4
 10
939.85154343008355
 20
38.781882864585093
 30
0.0
 40
1.6000000000000001
 50
270.0
 51
334.70745356257578
  0
ARC
  5
1011
  8
C4
 10
937.10154343008355
 20
38.281882864585157
 30
0.0
 40
1.1000000000000001
 50
25.292546437424171
 51
90.0
  0
LINE
  5
1012
  8
C4
 10
938.40492241143306
 20
38.098298467163538
 30
0.0
 11
938.09609538040593
 21
38.75184713781249
 31
0.0
  0
ARC
  5
1013
  8
C4
 10
939.85154343008355
 20
38.781882864585093
 30
0.0
 40
1.6000000000000001
 50
205.29254643742411
 51
270.0
  0
ARC
  5
1014
  8
C4
 10
948.10154343008355
 20
56.181882864585127
 30
0.0
 40
1.1000000000000001
 50
205.2925464374234
 51
270.0
  0
LINE
  5
1015
  8
C4
 10
946.79816444873427
 20
56.365467262006739
 30
0.0
 11
947.10699147976129
 21
55.711918591357801
 31
0.0
  0
ARC
  5
1016
  8
C4
 10
945.35154343008355
 20
55.681882864585162
 30
0.0
 40
1.6000000000000001
 50
25.292546437424171
 51
90.0
  0
ARC
  5
1017
  8
C4
 10
942.60154343008355
 20
56.181882864585127
 30
0.0
 40
1.1000000000000001
 50
270.0
 51
334.70745356257578
  0
LINE
  5
1018
  8
C4
 10
943.90492241143306
 20
56.365467262006739
 30
0.0
 11
943.59609538040593
 21
55.711918591357801
 31
0.0
  0
ARC
  5
1019
  8
C4
 10
945.35154343008355
 20
55.681882864585162
 30
0.0
 40
1.6000000000000001
 50
90.0
 51
154.70745356257581
  0
ARC
  5
101A
  8
C4
 10
948.10154343008355
 20
38.281882864585157
 30
0.0
 40
1.1000000000000001
 50
90.0
 51
154.70745356257649
  0
LINE
  5
101B
  8
C4
 10
946.79816444873427
 20
38.098298467163538
 30
0.0
 11
947.10699147976129
 21
38.75184713781249
 31
0.0
  0
ARC
  5
101C
  8
C4
 10
945.35154343008355
 20
38.781882864585093
 30
0.0
 40
1.6000000000000001
 50
270.0
 51
334.70745356257578
  0
ARC
  5
101D
  8
C4
 10
942.60154343008355
 20
38.281882864585157
 30
0.0
 40
1.1000000000000001
 50
25.292546437424171
 51
90.0
  0
LINE
  5
101E
  8
C4
 10
943.90492241143306
 20
38.098298467163538
 30
0.0
 11
943.59609538040593
 21
38.75184713781249
 31
0.0
  0
ARC
  5
101F
  8
C4
 10
945.35154343008355
 20
38.781882864585093
 30
0.0
 40
1.6000000000000001
 50
205.29254643742411
 51
270.0
  0
ARC
  5
1020
  8
C4
 10
953.60154343008355
 20
56.181882864585127
 30
0.0
 40
1.1000000000000001
 50
205.2925464374234
 51
270.0
  0
LINE
  5
1021
  8
C4
 10
952.29816444873427
 20
56.365467262006739
 30
0.0
 11
952.60699147976152
 21
55.711918591357801
 31
0.0
  0
ARC
  5
1022
  8
C4
 10
950.85154343008355
 20
55.681882864585162
 30
0.0
 40
1.6000000000000001
 50
25.292546437424171
 51
90.0
  0
ARC
  5
1023
  8
C4
 10
948.10154343008355
 20
56.181882864585127
 30
0.0
 40
1.1000000000000001
 50
270.0
 51
334.70745356257578
  0
LINE
  5
1024
  8
C4
 10
949.40492241143306
 20
56.365467262006739
 30
0.0
 11
949.09609538040593
 21
55.711918591357801
 31
0.0
  0
ARC
  5
1025
  8
C4
 10
950.85154343008355
 20
55.681882864585162
 30
0.0
 40
1.6000000000000001
 50
90.0
 51
154.70745356257581
  0
ARC
  5
1026
  8
C4
 10
953.60154343008355
 20
38.281882864585157
 30
0.0
 40
1.1000000000000001
 50
90.0
 51
154.70745356257649
  0
LINE
  5
1027
  8
C4
 10
952.29816444873427
 20
38.098298467163538
 30
0.0
 11
952.60699147976152
 21
38.75184713781249
 31
0.0
  0
ARC
  5
1028
  8
C4
 10
950.85154343008355
 20
38.781882864585093
 30
0.0
 40
1.6000000000000001
 50
270.0
 51
334.70745356257578
  0
ARC
  5
1029
  8
C4
 10
948.10154343008355
 20
38.281882864585157
 30
0.0
 40
1.1000000000000001
 50
25.292546437424171
 51
90.0
  0
LINE
  5
102A
  8
C4
 10
949.40492241143306
 20
38.098298467163538
 30
0.0
 11
949.09609538040593
 21
38.75184713781249
 31
0.0
  0
ARC
  5
102B
  8
C4
 10
950.85154343008355
 20
38.781882864585093
 30
0.0
 40
1.6000000000000001
 50
205.29254643742411
 51
270.0
  0
ARC
  5
102C
  8
C4
 10
959.10154343008367
 20
56.181882864585127
 30
0.0
 40
1.1000000000000001
 50
205.2925464374234
 51
270.0
  0
LINE
  5
102D
  8
C4
 10
957.79816444873416
 20
56.365467262006739
 30
0.0
 11
958.1069914797614
 21
55.711918591357801
 31
0.0
  0
ARC
  5
102E
  8
C4
 10
956.35154343008367
 20
55.681882864585162
 30
0.0
 40
1.6000000000000001
 50
25.292546437424171
 51
90.0
  0
ARC
  5
102F
  8
C4
 10
953.60154343008355
 20
56.181882864585127
 30
0.0
 40
1.1000000000000001
 50
270.0
 51
334.70745356257578
  0
LINE
  5
1030
  8
C4
 10
954.90492241143295
 20
56.365467262006739
 30
0.0
 11
954.59609538040581
 21
55.711918591357801
 31
0.0
  0
ARC
  5
1031
  8
C4
 10
956.35154343008367
 20
55.681882864585162
 30
0.0
 40
1.6000000000000001
 50
90.0
 51
154.70745356257581
  0
ARC
  5
1032
  8
C4
 10
959.10154343008367
 20
38.281882864585157
 30
0.0
 40
1.1000000000000001
 50
90.0
 51
154.70745356257649
  0
LINE
  5
1033
  8
C4
 10
957.79816444873416
 20
38.098298467163538
 30
0.0
 11
958.1069914797614
 21
38.75184713781249
 31
0.0
  0
ARC
  5
1034
  8
C4
 10
956.35154343008367
 20
38.781882864585093
 30
0.0
 40
1.6000000000000001
 50
270.0
 51
334.70745356257578
  0
ARC
  5
1035
  8
C4
 10
953.60154343008355
 20
38.281882864585157
 30
0.0
 40
1.1000000000000001
 50
25.292546437424171
 51
90.0
  0
LINE
  5
1036
  8
C4
 10
954.90492241143295
 20
38.098298467163538
 30
0.0
 11
954.59609538040581
 21
38.75184713781249
 31
0.0
  0
ARC
  5
1037
  8
C4
 10
956.35154343008367
 20
38.781882864585093
 30
0.0
 40
1.6000000000000001
 50
205.29254643742411
 51
270.0
  0
ARC
  5
1038
  8
C4
 10
964.60154343008367
 20
56.181882864585127
 30
0.0
 40
1.1000000000000001
 50
205.2925464374234
 51
270.0
  0
LINE
  5
1039
  8
C4
 10
963.29816444873416
 20
56.365467262006739
 30
0.0
 11
963.6069914797614
 21
55.711918591357801
 31
0.0
  0
ARC
  5
103A
  8
C4
 10
961.85154343008367
 20
55.681882864585162
 30
0.0
 40
1.6000000000000001
 50
25.292546437424171
 51
90.0
  0
ARC
  5
103B
  8
C4
 10
959.10154343008367
 20
56.181882864585127
 30
0.0
 40
1.1000000000000001
 50
270.0
 51
334.70745356257578
  0
LINE
  5
103C
  8
C4
 10
960.40492241143295
 20
56.365467262006739
 30
0.0
 11
960.09609538040604
 21
55.711918591357801
 31
0.0
  0
ARC
  5
103D
  8
C4
 10
961.85154343008367
 20
55.681882864585162
 30
0.0
 40
1.6000000000000001
 50
90.0
 51
154.70745356257581
  0
ARC
  5
103E
  8
C4
 10
964.60154343008367
 20
38.281882864585157
 30
0.0
 40
1.1000000000000001
 50
90.0
 51
154.70745356257649
  0
LINE
  5
103F
  8
C4
 10
963.29816444873416
 20
38.098298467163538
 30
0.0
 11
963.6069914797614
 21
38.75184713781249
 31
0.0
  0
ARC
  5
1040
  8
C4
 10
961.85154343008367
 20
38.781882864585093
 30
0.0
 40
1.6000000000000001
 50
270.0
 51
334.70745356257578
  0
ARC
  5
1041
  8
C4
 10
959.10154343008367
 20
38.281882864585157
 30
0.0
 40
1.1000000000000001
 50
25.292546437424171
 51
90.0
  0
LINE
  5
1042
  8
C4
 10
960.40492241143295
 20
38.098298467163538
 30
0.0
 11
960.09609538040604
 21
38.75184713781249
 31
0.0
  0
ARC
  5
1043
  8
C4
 10
961.85154343008367
 20
38.781882864585093
 30
0.0
 40
1.6000000000000001
 50
205.29254643742411
 51
270.0
  0
ARC
  5
1044
  8
C4
 10
970.10154343008367
 20
56.181882864585127
 30
0.0
 40
1.1000000000000001
 50
205.2925464374234
 51
270.0
  0
LINE
  5
1045
  8
C4
 10
968.79816444873416
 20
56.365467262006739
 30
0.0
 11
969.1069914797614
 21
55.711918591357801
 31
0.0
  0
ARC
  5
1046
  8
C4
 10
967.35154343008367
 20
55.681882864585162
 30
0.0
 40
1.6000000000000001
 50
25.292546437424171
 51
90.0
  0
ARC
  5
1047
  8
C4
 10
964.60154343008367
 20
56.181882864585127
 30
0.0
 40
1.1000000000000001
 50
270.0
 51
334.70745356257578
  0
LINE
  5
1048
  8
C4
 10
965.90492241143295
 20
56.365467262006739
 30
0.0
 11
965.59609538040604
 21
55.711918591357801
 31
0.0
  0
ARC
  5
1049
  8
C4
 10
967.35154343008367
 20
55.681882864585162
 30
0.0
 40
1.6000000000000001
 50
90.0
 51
154.70745356257581
  0
ARC
  5
104A
  8
C4
 10
970.10154343008367
 20
38.281882864585157
 30
0.0
 40
1.1000000000000001
 50
90.0
 51
154.70745356257649
  0
LINE
  5
104B
  8
C4
 10
968.79816444873416
 20
38.098298467163538
 30
0.0
 11
969.1069914797614
 21
38.75184713781249
 31
0.0
  0
ARC
  5
104C
  8
C4
 10
967.35154343008367
 20
38.781882864585093
 30
0.0
 40
1.6000000000000001
 50
270.0
 51
334.70745356257578
  0
ARC
  5
104D
  8
C4
 10
964.60154343008367
 20
38.281882864585157
 30
0.0
 40
1.1000000000000001
 50
25.292546437424171
 51
90.0
  0
LINE
  5
104E
  8
C4
 10
965.90492241143295
 20
38.098298467163538
 30
0.0
 11
965.59609538040604
 21
38.75184713781249
 31
0.0
  0
ARC
  5
104F
  8
C4
 10
967.35154343008367
 20
38.781882864585093
 30
0.0
 40
1.6000000000000001
 50
205.29254643742411
 51
270.0
  0
ARC
  5
1050
  8
C4
 10
975.60154343008355
 20
56.181882864585127
 30
0.0
 40
1.1000000000000001
 50
205.2925464374234
 51
270.0
  0
LINE
  5
1051
  8
C4
 10
974.29816444873416
 20
56.365467262006739
 30
0.0
 11
974.60699147976129
 21
55.711918591357801
 31
0.0
  0
ARC
  5
1052
  8
C4
 10
972.85154343008355
 20
55.681882864585162
 30
0.0
 40
1.6000000000000001
 50
25.292546437424171
 51
90.0
  0
ARC
  5
1053
  8
C4
 10
970.10154343008367
 20
56.181882864585127
 30
0.0
 40
1.1000000000000001
 50
270.0
 51
334.70745356257578
  0
LINE
  5
1054
  8
C4
 10
971.40492241143306
 20
56.365467262006739
 30
0.0
 11
971.09609538040593
 21
55.711918591357801
 31
0.0
  0
ARC
  5
1055
  8
C4
 10
972.85154343008355
 20
55.681882864585162
 30
0.0
 40
1.6000000000000001
 50
90.0
 51
154.70745356257581
  0
ARC
  5
1056
  8
C4
 10
975.60154343008355
 20
38.281882864585157
 30
0.0
 40
1.1000000000000001
 50
90.0
 51
154.70745356257649
  0
LINE
  5
1057
  8
C4
 10
974.29816444873416
 20
38.098298467163538
 30
0.0
 11
974.60699147976129
 21
38.75184713781249
 31
0.0
  0
ARC
  5
1058
  8
C4
 10
972.85154343008355
 20
38.781882864585093
 30
0.0
 40
1.6000000000000001
 50
270.0
 51
334.70745356257578
  0
ARC
  5
1059
  8
C4
 10
970.10154343008367
 20
38.281882864585157
 30
0.0
 40
1.1000000000000001
 50
25.292546437424171
 51
90.0
  0
LINE
  5
105A
  8
C4
 10
971.40492241143306
 20
38.098298467163538
 30
0.0
 11
971.09609538040593
 21
38.75184713781249
 31
0.0
  0
ARC
  5
105B
  8
C4
 10
972.85154343008355
 20
38.781882864585093
 30
0.0
 40
1.6000000000000001
 50
205.29254643742411
 51
270.0
  0
ARC
  5
105C
  8
C4
 10
981.10154343008355
 20
56.181882864585127
 30
0.0
 40
1.1000000000000001
 50
205.2925464374234
 51
270.0
  0
LINE
  5
105D
  8
C4
 10
979.79816444873427
 20
56.365467262006739
 30
0.0
 11
980.10699147976129
 21
55.711918591357801
 31
0.0
  0
ARC
  5
105E
  8
C4
 10
978.35154343008355
 20
55.681882864585162
 30
0.0
 40
1.6000000000000001
 50
25.292546437424171
 51
90.0
  0
ARC
  5
105F
  8
C4
 10
975.60154343008355
 20
56.181882864585127
 30
0.0
 40
1.1000000000000001
 50
270.0
 51
334.70745356257578
  0
LINE
  5
1060
  8
C4
 10
976.90492241143306
 20
56.365467262006739
 30
0.0
 11
976.59609538040593
 21
55.711918591357801
 31
0.0
  0
ARC
  5
1061
  8
C4
 10
978.35154343008355
 20
55.681882864585162
 30
0.0
 40
1.6000000000000001
 50
90.0
 51
154.70745356257581
  0
ARC
  5
1062
  8
C4
 10
981.10154343008355
 20
38.281882864585157
 30
0.0
 40
1.1000000000000001
 50
90.0
 51
154.70745356257649
  0
LINE
  5
1063
  8
C4
 10
979.79816444873427
 20
38.098298467163538
 30
0.0
 11
980.10699147976129
 21
38.75184713781249
 31
0.0
  0
ARC
  5
1064
  8
C4
 10
978.35154343008355
 20
38.781882864585093
 30
0.0
 40
1.6000000000000001
 50
270.0
 51
334.70745356257578
  0
ARC
  5
1065
  8
C4
 10
975.60154343008355
 20
38.281882864585157
 30
0.0
 40
1.1000000000000001
 50
25.292546437424171
 51
90.0
  0
LINE
  5
1066
  8
C4
 10
976.90492241143306
 20
38.098298467163538
 30
0.0
 11
976.59609538040593
 21
38.75184713781249
 31
0.0
  0
ARC
  5
1067
  8
C4
 10
978.35154343008355
 20
38.781882864585093
 30
0.0
 40
1.6000000000000001
 50
205.29254643742411
 51
270.0
  0
ARC
  5
1068
  8
C4
 10
986.60154343008355
 20
56.181882864585127
 30
0.0
 40
1.1000000000000001
 50
205.2925464374234
 51
270.0
  0
LINE
  5
1069
  8
C4
 10
985.29816444873427
 20
56.365467262006739
 30
0.0
 11
985.60699147976129
 21
55.711918591357801
 31
0.0
  0
ARC
  5
106A
  8
C4
 10
983.85154343008355
 20
55.681882864585162
 30
0.0
 40
1.6000000000000001
 50
25.292546437424171
 51
90.0
  0
ARC
  5
106B
  8
C4
 10
981.10154343008355
 20
56.181882864585127
 30
0.0
 40
1.1000000000000001
 50
270.0
 51
334.70745356257578
  0
LINE
  5
106C
  8
C4
 10
982.40492241143306
 20
56.365467262006739
 30
0.0
 11
982.09609538040593
 21
55.711918591357801
 31
0.0
  0
ARC
  5
106D
  8
C4
 10
983.85154343008355
 20
55.681882864585162
 30
0.0
 40
1.6000000000000001
 50
90.0
 51
154.70745356257581
  0
ARC
  5
106E
  8
C4
 10
986.60154343008355
 20
38.281882864585157
 30
0.0
 40
1.1000000000000001
 50
90.0
 51
154.70745356257649
  0
LINE
  5
106F
  8
C4
 10
985.29816444873427
 20
38.098298467163538
 30
0.0
 11
985.60699147976129
 21
38.75184713781249
 31
0.0
  0
ARC
  5
1070
  8
C4
 10
983.85154343008355
 20
38.781882864585093
 30
0.0
 40
1.6000000000000001
 50
270.0
 51
334.70745356257578
  0
ARC
  5
1071
  8
C4
 10
981.10154343008355
 20
38.281882864585157
 30
0.0
 40
1.1000000000000001
 50
25.292546437424171
 51
90.0
  0
LINE
  5
1072
  8
C4
 10
982.40492241143306
 20
38.098298467163538
 30
0.0
 11
982.09609538040593
 21
38.75184713781249
 31
0.0
  0
ARC
  5
1073
  8
C4
 10
983.85154343008355
 20
38.781882864585093
 30
0.0
 40
1.6000000000000001
 50
205.29254643742411
 51
270.0
  0
ARC
  5
1074
  8
C4
 10
992.10154343008367
 20
56.181882864585127
 30
0.0
 40
1.1000000000000001
 50
205.2925464374234
 51
270.0
  0
LINE
  5
1075
  8
C4
 10
990.79816444873416
 20
56.365467262006739
 30
0.0
 11
991.1069914797614
 21
55.711918591357801
 31
0.0
  0
ARC
  5
1076
  8
C4
 10
989.35154343008355
 20
55.681882864585162
 30
0.0
 40
1.6000000000000001
 50
25.292546437424171
 51
90.0
  0
ARC
  5
1077
  8
C4
 10
986.60154343008355
 20
56.181882864585127
 30
0.0
 40
1.1000000000000001
 50
270.0
 51
334.70745356257578
  0
LINE
  5
1078
  8
C4
 10
987.90492241143295
 20
56.365467262006739
 30
0.0
 11
987.59609538040581
 21
55.711918591357801
 31
0.0
  0
ARC
  5
1079
  8
C4
 10
989.35154343008355
 20
55.681882864585162
 30
0.0
 40
1.6000000000000001
 50
90.0
 51
154.70745356257581
  0
ARC
  5
107A
  8
C4
 10
992.10154343008367
 20
38.281882864585157
 30
0.0
 40
1.1000000000000001
 50
90.0
 51
154.70745356257649
  0
LINE
  5
107B
  8
C4
 10
990.79816444873416
 20
38.098298467163538
 30
0.0
 11
991.1069914797614
 21
38.75184713781249
 31
0.0
  0
ARC
  5
107C
  8
C4
 10
989.35154343008355
 20
38.781882864585093
 30
0.0
 40
1.6000000000000001
 50
270.0
 51
334.70745356257578
  0
ARC
  5
107D
  8
C4
 10
986.60154343008355
 20
38.281882864585157
 30
0.0
 40
1.1000000000000001
 50
25.292546437424171
 51
90.0
  0
LINE
  5
107E
  8
C4
 10
987.90492241143295
 20
38.098298467163538
 30
0.0
 11
987.59609538040581
 21
38.75184713781249
 31
0.0
  0
ARC
  5
107F
  8
C4
 10
989.35154343008355
 20
38.781882864585093
 30
0.0
 40
1.6000000000000001
 50
205.29254643742411
 51
270.0
  0
ARC
  5
1080
  8
C4
 10
997.60154343008367
 20
56.181882864585127
 30
0.0
 40
1.1000000000000001
 50
205.2925464374234
 51
270.0
  0
LINE
  5
1081
  8
C4
 10
996.29816444873416
 20
56.365467262006739
 30
0.0
 11
996.6069914797614
 21
55.711918591357801
 31
0.0
  0
ARC
  5
1082
  8
C4
 10
994.85154343008367
 20
55.681882864585162
 30
0.0
 40
1.6000000000000001
 50
25.292546437424171
 51
90.0
  0
ARC
  5
1083
  8
C4
 10
992.10154343008367
 20
56.181882864585127
 30
0.0
 40
1.1000000000000001
 50
270.0
 51
334.70745356257578
  0
LINE
  5
1084
  8
C4
 10
993.40492241143295
 20
56.365467262006739
 30
0.0
 11
993.09609538040581
 21
55.711918591357801
 31
0.0
  0
ARC
  5
1085
  8
C4
 10
994.85154343008367
 20
55.681882864585162
 30
0.0
 40
1.6000000000000001
 50
90.0
 51
154.70745356257581
  0
ARC
  5
1086
  8
C4
 10
997.60154343008367
 20
38.281882864585157
 30
0.0
 40
1.1000000000000001
 50
90.0
 51
154.70745356257649
  0
LINE
  5
1087
  8
C4
 10
996.29816444873416
 20
38.098298467163538
 30
0.0
 11
996.6069914797614
 21
38.75184713781249
 31
0.0
  0
ARC
  5
1088
  8
C4
 10
994.85154343008367
 20
38.781882864585093
 30
0.0
 40
1.6000000000000001
 50
270.0
 51
334.70745356257578
  0
ARC
  5
1089
  8
C4
 10
992.10154343008367
 20
38.281882864585157
 30
0.0
 40
1.1000000000000001
 50
25.292546437424171
 51
90.0
  0
LINE
  5
108A
  8
C4
 10
993.40492241143295
 20
38.098298467163538
 30
0.0
 11
993.09609538040581
 21
38.75184713781249
 31
0.0
  0
ARC
  5
108B
  8
C4
 10
994.85154343008367
 20
38.781882864585093
 30
0.0
 40
1.6000000000000001
 50
205.29254643742411
 51
270.0
  0
ARC
  5
108C
  8
C4
 10
1003.101543430083
 20
56.181882864585127
 30
0.0
 40
1.1000000000000001
 50
205.2925464374234
 51
270.0
  0
LINE
  5
108D
  8
C4
 10
1001.798164448734
 20
56.365467262006739
 30
0.0
 11
1002.1069914797609
 21
55.711918591357801
 31
0.0
  0
ARC
  5
108E
  8
C4
 10
1000.351543430083
 20
55.681882864585162
 30
0.0
 40
1.6000000000000001
 50
25.292546437424171
 51
90.0
  0
ARC
  5
108F
  8
C4
 10
997.60154343008367
 20
56.181882864585127
 30
0.0
 40
1.1000000000000001
 50
270.0
 51
334.70745356257578
  0
LINE
  5
1090
  8
C4
 10
998.90492241143295
 20
56.365467262006739
 30
0.0
 11
998.59609538040604
 21
55.711918591357801
 31
0.0
  0
ARC
  5
1091
  8
C4
 10
1000.351543430083
 20
55.681882864585162
 30
0.0
 40
1.6000000000000001
 50
90.0
 51
154.70745356257581
  0
ARC
  5
1092
  8
C4
 10
1003.101543430083
 20
38.281882864585157
 30
0.0
 40
1.1000000000000001
 50
90.0
 51
154.70745356257649
  0
LINE
  5
1093
  8
C4
 10
1001.798164448734
 20
38.098298467163538
 30
0.0
 11
1002.1069914797609
 21
38.75184713781249
 31
0.0
  0
ARC
  5
1094
  8
C4
 10
1000.351543430083
 20
38.781882864585093
 30
0.0
 40
1.6000000000000001
 50
270.0
 51
334.70745356257578
  0
ARC
  5
1095
  8
C4
 10
997.60154343008367
 20
38.281882864585157
 30
0.0
 40
1.1000000000000001
 50
25.292546437424171
 51
90.0
  0
LINE
  5
1096
  8
C4
 10
998.90492241143295
 20
38.098298467163538
 30
0.0
 11
998.59609538040604
 21
38.75184713781249
 31
0.0
  0
ARC
  5
1097
  8
C4
 10
1000.351543430083
 20
38.781882864585093
 30
0.0
 40
1.6000000000000001
 50
205.29254643742411
 51
270.0
  0
ARC
  5
1098
  8
C4
 10
1008.601543430083
 20
56.181882864585127
 30
0.0
 40
1.1000000000000001
 50
205.2925464374234
 51
270.0
  0
LINE
  5
1099
  8
C4
 10
1007.298164448734
 20
56.365467262006739
 30
0.0
 11
1007.6069914797609
 21
55.711918591357801
 31
0.0
  0
ARC
  5
109A
  8
C4
 10
1005.851543430083
 20
55.681882864585162
 30
0.0
 40
1.6000000000000001
 50
25.292546437424171
 51
90.0
  0
ARC
  5
109B
  8
C4
 10
1003.101543430083
 20
56.181882864585127
 30
0.0
 40
1.1000000000000001
 50
270.0
 51
334.70745356257578
  0
LINE
  5
109C
  8
C4
 10
1004.4049224114329
 20
56.365467262006739
 30
0.0
 11
1004.096095380406
 21
55.711918591357801
 31
0.0
  0
ARC
  5
109D
  8
C4
 10
1005.851543430083
 20
55.681882864585162
 30
0.0
 40
1.6000000000000001
 50
90.0
 51
154.70745356257581
  0
ARC
  5
109E
  8
C4
 10
1008.601543430083
 20
38.281882864585157
 30
0.0
 40
1.1000000000000001
 50
90.0
 51
154.70745356257649
  0
LINE
  5
109F
  8
C4
 10
1007.298164448734
 20
38.098298467163538
 30
0.0
 11
1007.6069914797609
 21
38.75184713781249
 31
0.0
  0
ARC
  5
10A0
  8
C4
 10
1005.851543430083
 20
38.781882864585093
 30
0.0
 40
1.6000000000000001
 50
270.0
 51
334.70745356257578
  0
ARC
  5
10A1
  8
C4
 10
1003.101543430083
 20
38.281882864585157
 30
0.0
 40
1.1000000000000001
 50
25.292546437424171
 51
90.0
  0
LINE
  5
10A2
  8
C4
 10
1004.4049224114329
 20
38.098298467163538
 30
0.0
 11
1004.096095380406
 21
38.75184713781249
 31
0.0
  0
ARC
  5
10A3
  8
C4
 10
1005.851543430083
 20
38.781882864585093
 30
0.0
 40
1.6000000000000001
 50
205.29254643742411
 51
270.0
  0
ARC
  5
10A4
  8
C4
 10
1014.101543430083
 20
56.181882864585127
 30
0.0
 40
1.1000000000000001
 50
205.2925464374234
 51
270.0
  0
LINE
  5
10A5
  8
C4
 10
1012.798164448734
 20
56.365467262006739
 30
0.0
 11
1013.1069914797609
 21
55.711918591357801
 31
0.0
  0
ARC
  5
10A6
  8
C4
 10
1011.351543430083
 20
55.681882864585162
 30
0.0
 40
1.6000000000000001
 50
25.292546437424171
 51
90.0
  0
ARC
  5
10A7
  8
C4
 10
1008.601543430083
 20
56.181882864585127
 30
0.0
 40
1.1000000000000001
 50
270.0
 51
334.70745356257578
  0
LINE
  5
10A8
  8
C4
 10
1009.9049224114329
 20
56.365467262006739
 30
0.0
 11
1009.596095380405
 21
55.711918591357801
 31
0.0
  0
ARC
  5
10A9
  8
C4
 10
1011.351543430083
 20
55.681882864585162
 30
0.0
 40
1.6000000000000001
 50
90.0
 51
154.70745356257581
  0
ARC
  5
10AA
  8
C4
 10
1014.101543430083
 20
38.281882864585157
 30
0.0
 40
1.1000000000000001
 50
90.0
 51
154.70745356257649
  0
LINE
  5
10AB
  8
C4
 10
1012.798164448734
 20
38.098298467163538
 30
0.0
 11
1013.1069914797609
 21
38.75184713781249
 31
0.0
  0
ARC
  5
10AC
  8
C4
 10
1011.351543430083
 20
38.781882864585093
 30
0.0
 40
1.6000000000000001
 50
270.0
 51
334.70745356257578
  0
ARC
  5
10AD
  8
C4
 10
1008.601543430083
 20
38.281882864585157
 30
0.0
 40
1.1000000000000001
 50
25.292546437424171
 51
90.0
  0
LINE
  5
10AE
  8
C4
 10
1009.9049224114329
 20
38.098298467163538
 30
0.0
 11
1009.596095380405
 21
38.75184713781249
 31
0.0
  0
ARC
  5
10AF
  8
C4
 10
1011.351543430083
 20
38.781882864585093
 30
0.0
 40
1.6000000000000001
 50
205.29254643742411
 51
270.0
  0
ARC
  5
10B0
  8
C4
 10
1019.601543430083
 20
56.181882864585127
 30
0.0
 40
1.1000000000000001
 50
205.2925464374234
 51
270.0
  0
LINE
  5
10B1
  8
C4
 10
1018.298164448734
 20
56.365467262006739
 30
0.0
 11
1018.6069914797609
 21
55.711918591357801
 31
0.0
  0
ARC
  5
10B2
  8
C4
 10
1016.851543430083
 20
55.681882864585162
 30
0.0
 40
1.6000000000000001
 50
25.292546437424171
 51
90.0
  0
ARC
  5
10B3
  8
C4
 10
1014.101543430083
 20
56.181882864585127
 30
0.0
 40
1.1000000000000001
 50
270.0
 51
334.70745356257578
  0
LINE
  5
10B4
  8
C4
 10
1015.4049224114329
 20
56.365467262006739
 30
0.0
 11
1015.096095380406
 21
55.711918591357801
 31
0.0
  0
ARC
  5
10B5
  8
C4
 10
1016.851543430083
 20
55.681882864585162
 30
0.0
 40
1.6000000000000001
 50
90.0
 51
154.70745356257581
  0
ARC
  5
10B6
  8
C4
 10
1019.601543430083
 20
38.281882864585157
 30
0.0
 40
1.1000000000000001
 50
90.0
 51
154.70745356257649
  0
LINE
  5
10B7
  8
C4
 10
1018.298164448734
 20
38.098298467163538
 30
0.0
 11
1018.6069914797609
 21
38.75184713781249
 31
0.0
  0
ARC
  5
10B8
  8
C4
 10
1016.851543430083
 20
38.781882864585093
 30
0.0
 40
1.6000000000000001
 50
270.0
 51
334.70745356257578
  0
ARC
  5
10B9
  8
C4
 10
1014.101543430083
 20
38.281882864585157
 30
0.0
 40
1.1000000000000001
 50
25.292546437424171
 51
90.0
  0
LINE
  5
10BA
  8
C4
 10
1015.4049224114329
 20
38.098298467163538
 30
0.0
 11
1015.096095380406
 21
38.75184713781249
 31
0.0
  0
ARC
  5
10BB
  8
C4
 10
1016.851543430083
 20
38.781882864585093
 30
0.0
 40
1.6000000000000001
 50
205.29254643742411
 51
270.0
  0
ARC
  5
10BC
  8
C4
 10
1025.101543430083
 20
56.181882864585127
 30
0.0
 40
1.1000000000000001
 50
205.2925464374234
 51
270.0
  0
LINE
  5
10BD
  8
C4
 10
1023.798164448734
 20
56.365467262006739
 30
0.0
 11
1024.1069914797611
 21
55.711918591357801
 31
0.0
  0
ARC
  5
10BE
  8
C4
 10
1022.351543430083
 20
55.681882864585162
 30
0.0
 40
1.6000000000000001
 50
25.292546437424171
 51
90.0
  0
ARC
  5
10BF
  8
C4
 10
1019.601543430083
 20
56.181882864585127
 30
0.0
 40
1.1000000000000001
 50
270.0
 51
334.70745356257578
  0
LINE
  5
10C0
  8
C4
 10
1020.9049224114329
 20
56.365467262006739
 30
0.0
 11
1020.596095380405
 21
55.711918591357801
 31
0.0
  0
ARC
  5
10C1
  8
C4
 10
1022.351543430083
 20
55.681882864585162
 30
0.0
 40
1.6000000000000001
 50
90.0
 51
154.70745356257581
  0
ARC
  5
10C2
  8
C4
 10
1025.101543430083
 20
38.281882864585157
 30
0.0
 40
1.1000000000000001
 50
90.0
 51
154.70745356257649
  0
LINE
  5
10C3
  8
C4
 10
1023.798164448734
 20
38.098298467163538
 30
0.0
 11
1024.1069914797611
 21
38.75184713781249
 31
0.0
  0
ARC
  5
10C4
  8
C4
 10
1022.351543430083
 20
38.781882864585093
 30
0.0
 40
1.6000000000000001
 50
270.0
 51
334.70745356257578
  0
ARC
  5
10C5
  8
C4
 10
1019.601543430083
 20
38.281882864585157
 30
0.0
 40
1.1000000000000001
 50
25.292546437424171
 51
90.0
  0
LINE
  5
10C6
  8
C4
 10
1020.9049224114329
 20
38.098298467163538
 30
0.0
 11
1020.596095380405
 21
38.75184713781249
 31
0.0
  0
ARC
  5
10C7
  8
C4
 10
1022.351543430083
 20
38.781882864585093
 30
0.0
 40
1.6000000000000001
 50
205.29254643742411
 51
270.0
  0
ARC
  5
10C8
  8
C4
 10
1030.601543430083
 20
56.181882864585127
 30
0.0
 40
1.1000000000000001
 50
205.2925464374234
 51
270.0
  0
LINE
  5
10C9
  8
C4
 10
1029.298164448734
 20
56.365467262006739
 30
0.0
 11
1029.6069914797611
 21
55.711918591357801
 31
0.0
  0
ARC
  5
10CA
  8
C4
 10
1027.851543430083
 20
55.681882864585162
 30
0.0
 40
1.6000000000000001
 50
25.292546437424171
 51
90.0
  0
ARC
  5
10CB
  8
C4
 10
1025.101543430083
 20
56.181882864585127
 30
0.0
 40
1.1000000000000001
 50
270.0
 51
334.70745356257578
  0
LINE
  5
10CC
  8
C4
 10
1026.4049224114331
 20
56.365467262006739
 30
0.0
 11
1026.096095380406
 21
55.711918591357801
 31
0.0
  0
ARC
  5
10CD
  8
C4
 10
1027.851543430083
 20
55.681882864585162
 30
0.0
 40
1.6000000000000001
 50
90.0
 51
154.70745356257581
  0
ARC
  5
10CE
  8
C4
 10
1030.601543430083
 20
38.281882864585157
 30
0.0
 40
1.1000000000000001
 50
90.0
 51
154.70745356257649
  0
LINE
  5
10CF
  8
C4
 10
1029.298164448734
 20
38.098298467163538
 30
0.0
 11
1029.6069914797611
 21
38.75184713781249
 31
0.0
  0
ARC
  5
10D0
  8
C4
 10
1027.851543430083
 20
38.781882864585093
 30
0.0
 40
1.6000000000000001
 50
270.0
 51
334.70745356257578
  0
ARC
  5
10D1
  8
C4
 10
1025.101543430083
 20
38.281882864585157
 30
0.0
 40
1.1000000000000001
 50
25.292546437424171
 51
90.0
  0
LINE
  5
10D2
  8
C4
 10
1026.4049224114331
 20
38.098298467163538
 30
0.0
 11
1026.096095380406
 21
38.75184713781249
 31
0.0
  0
ARC
  5
10D3
  8
C4
 10
1027.851543430083
 20
38.781882864585093
 30
0.0
 40
1.6000000000000001
 50
205.29254643742411
 51
270.0
  0
ARC
  5
10D4
  8
C4
 10
1036.101543430083
 20
56.181882864585127
 30
0.0
 40
1.1000000000000001
 50
205.2925464374234
 51
270.0
  0
LINE
  5
10D5
  8
C4
 10
1034.798164448734
 20
56.365467262006739
 30
0.0
 11
1035.1069914797611
 21
55.711918591357801
 31
0.0
  0
ARC
  5
10D6
  8
C4
 10
1033.351543430083
 20
55.681882864585162
 30
0.0
 40
1.6000000000000001
 50
25.292546437424171
 51
90.0
  0
ARC
  5
10D7
  8
C4
 10
1030.601543430083
 20
56.181882864585127
 30
0.0
 40
1.1000000000000001
 50
270.0
 51
334.70745356257578
  0
LINE
  5
10D8
  8
C4
 10
1031.9049224114331
 20
56.365467262006739
 30
0.0
 11
1031.5960953804049
 21
55.711918591357801
 31
0.0
  0
ARC
  5
10D9
  8
C4
 10
1033.351543430083
 20
55.681882864585162
 30
0.0
 40
1.6000000000000001
 50
90.0
 51
154.70745356257581
  0
ARC
  5
10DA
  8
C4
 10
1036.101543430083
 20
38.281882864585157
 30
0.0
 40
1.1000000000000001
 50
90.0
 51
154.70745356257649
  0
LINE
  5
10DB
  8
C4
 10
1034.798164448734
 20
38.098298467163538
 30
0.0
 11
1035.1069914797611
 21
38.75184713781249
 31
0.0
  0
ARC
  5
10DC
  8
C4
 10
1033.351543430083
 20
38.781882864585093
 30
0.0
 40
1.6000000000000001
 50
270.0
 51
334.70745356257578
  0
ARC
  5
10DD
  8
C4
 10
1030.601543430083
 20
38.281882864585157
 30
0.0
 40
1.1000000000000001
 50
25.292546437424171
 51
90.0
  0
LINE
  5
10DE
  8
C4
 10
1031.9049224114331
 20
38.098298467163538
 30
0.0
 11
1031.5960953804049
 21
38.75184713781249
 31
0.0
  0
ARC
  5
10DF
  8
C4
 10
1033.351543430083
 20
38.781882864585093
 30
0.0
 40
1.6000000000000001
 50
205.29254643742411
 51
270.0
  0
ARC
  5
10E0
  8
C4
 10
1041.601543430083
 20
56.181882864585127
 30
0.0
 40
1.1000000000000001
 50
205.2925464374234
 51
270.0
  0
LINE
  5
10E1
  8
C4
 10
1040.298164448734
 20
56.365467262006739
 30
0.0
 11
1040.6069914797611
 21
55.711918591357801
 31
0.0
  0
ARC
  5
10E2
  8
C4
 10
1038.851543430083
 20
55.681882864585162
 30
0.0
 40
1.6000000000000001
 50
25.292546437424171
 51
90.0
  0
ARC
  5
10E3
  8
C4
 10
1036.101543430083
 20
56.181882864585127
 30
0.0
 40
1.1000000000000001
 50
270.0
 51
334.70745356257578
  0
LINE
  5
10E4
  8
C4
 10
1037.4049224114331
 20
56.365467262006739
 30
0.0
 11
1037.096095380406
 21
55.711918591357801
 31
0.0
  0
ARC
  5
10E5
  8
C4
 10
1038.851543430083
 20
55.681882864585162
 30
0.0
 40
1.6000000000000001
 50
90.0
 51
154.70745356257581
  0
ARC
  5
10E6
  8
C4
 10
1041.601543430083
 20
38.281882864585157
 30
0.0
 40
1.1000000000000001
 50
90.0
 51
154.70745356257649
  0
LINE
  5
10E7
  8
C4
 10
1040.298164448734
 20
38.098298467163538
 30
0.0
 11
1040.6069914797611
 21
38.75184713781249
 31
0.0
  0
ARC
  5
10E8
  8
C4
 10
1038.851543430083
 20
38.781882864585093
 30
0.0
 40
1.6000000000000001
 50
270.0
 51
334.70745356257578
  0
ARC
  5
10E9
  8
C4
 10
1036.101543430083
 20
38.281882864585157
 30
0.0
 40
1.1000000000000001
 50
25.292546437424171
 51
90.0
  0
LINE
  5
10EA
  8
C4
 10
1037.4049224114331
 20
38.098298467163538
 30
0.0
 11
1037.096095380406
 21
38.75184713781249
 31
0.0
  0
ARC
  5
10EB
  8
C4
 10
1038.851543430083
 20
38.781882864585093
 30
0.0
 40
1.6000000000000001
 50
205.29254643742411
 51
270.0
  0
ARC
  5
10EC
  8
C4
 10
1047.101543430083
 20
56.181882864585127
 30
0.0
 40
1.1000000000000001
 50
205.2925464374234
 51
270.0
  0
LINE
  5
10ED
  8
C4
 10
1045.798164448734
 20
56.365467262006739
 30
0.0
 11
1046.1069914797611
 21
55.711918591357801
 31
0.0
  0
ARC
  5
10EE
  8
C4
 10
1044.351543430083
 20
55.681882864585162
 30
0.0
 40
1.6000000000000001
 50
25.292546437424171
 51
90.0
  0
ARC
  5
10EF
  8
C4
 10
1041.601543430083
 20
56.181882864585127
 30
0.0
 40
1.1000000000000001
 50
270.0
 51
334.70745356257578
  0
LINE
  5
10F0
  8
C4
 10
1042.9049224114331
 20
56.365467262006739
 30
0.0
 11
1042.596095380406
 21
55.711918591357801
 31
0.0
  0
ARC
  5
10F1
  8
C4
 10
1044.351543430083
 20
55.681882864585162
 30
0.0
 40
1.6000000000000001
 50
90.0
 51
154.70745356257581
  0
ARC
  5
10F2
  8
C4
 10
1047.101543430083
 20
38.281882864585157
 30
0.0
 40
1.1000000000000001
 50
90.0
 51
154.70745356257649
  0
LINE
  5
10F3
  8
C4
 10
1045.798164448734
 20
38.098298467163538
 30
0.0
 11
1046.1069914797611
 21
38.75184713781249
 31
0.0
  0
ARC
  5
10F4
  8
C4
 10
1044.351543430083
 20
38.781882864585093
 30
0.0
 40
1.6000000000000001
 50
270.0
 51
334.70745356257578
  0
ARC
  5
10F5
  8
C4
 10
1041.601543430083
 20
38.281882864585157
 30
0.0
 40
1.1000000000000001
 50
25.292546437424171
 51
90.0
  0
LINE
  5
10F6
  8
C4
 10
1042.9049224114331
 20
38.098298467163538
 30
0.0
 11
1042.596095380406
 21
38.75184713781249
 31
0.0
  0
ARC
  5
10F7
  8
C4
 10
1044.351543430083
 20
38.781882864585093
 30
0.0
 40
1.6000000000000001
 50
205.29254643742411
 51
270.0
  0
ARC
  5
10F8
  8
C4
 10
1052.601543430083
 20
56.181882864585127
 30
0.0
 40
1.1000000000000001
 50
205.2925464374234
 51
270.0
  0
LINE
  5
10F9
  8
C4
 10
1051.298164448734
 20
56.365467262006739
 30
0.0
 11
1051.6069914797611
 21
55.711918591357801
 31
0.0
  0
ARC
  5
10FA
  8
C4
 10
1049.851543430083
 20
55.681882864585162
 30
0.0
 40
1.6000000000000001
 50
25.292546437424171
 51
90.0
  0
ARC
  5
10FB
  8
C4
 10
1047.101543430083
 20
56.181882864585127
 30
0.0
 40
1.1000000000000001
 50
270.0
 51
334.70745356257578
  0
LINE
  5
10FC
  8
C4
 10
1048.4049224114331
 20
56.365467262006739
 30
0.0
 11
1048.096095380406
 21
55.711918591357801
 31
0.0
  0
ARC
  5
10FD
  8
C4
 10
1049.851543430083
 20
55.681882864585162
 30
0.0
 40
1.6000000000000001
 50
90.0
 51
154.70745356257581
  0
ARC
  5
10FE
  8
C4
 10
1052.601543430083
 20
38.281882864585157
 30
0.0
 40
1.1000000000000001
 50
90.0
 51
154.70745356257649
  0
LINE
  5
10FF
  8
C4
 10
1051.298164448734
 20
38.098298467163538
 30
0.0
 11
1051.6069914797611
 21
38.75184713781249
 31
0.0
  0
ARC
  5
1100
  8
C4
 10
1049.851543430083
 20
38.781882864585093
 30
0.0
 40
1.6000000000000001
 50
270.0
 51
334.70745356257578
  0
ARC
  5
1101
  8
C4
 10
1047.101543430083
 20
38.281882864585157
 30
0.0
 40
1.1000000000000001
 50
25.292546437424171
 51
90.0
  0
LINE
  5
1102
  8
C4
 10
1048.4049224114331
 20
38.098298467163538
 30
0.0
 11
1048.096095380406
 21
38.75184713781249
 31
0.0
  0
ARC
  5
1103
  8
C4
 10
1049.851543430083
 20
38.781882864585093
 30
0.0
 40
1.6000000000000001
 50
205.29254643742411
 51
270.0
  0
ARC
  5
1104
  8
C4
 10
1058.101543430083
 20
56.181882864585127
 30
0.0
 40
1.1000000000000001
 50
205.2925464374234
 51
270.0
  0
LINE
  5
1105
  8
C4
 10
1056.798164448734
 20
56.365467262006739
 30
0.0
 11
1057.1069914797611
 21
55.711918591357801
 31
0.0
  0
ARC
  5
1106
  8
C4
 10
1055.351543430083
 20
55.681882864585162
 30
0.0
 40
1.6000000000000001
 50
25.292546437424171
 51
90.0
  0
ARC
  5
1107
  8
C4
 10
1052.601543430083
 20
56.181882864585127
 30
0.0
 40
1.1000000000000001
 50
270.0
 51
334.70745356257578
  0
LINE
  5
1108
  8
C4
 10
1053.9049224114331
 20
56.365467262006739
 30
0.0
 11
1053.596095380406
 21
55.711918591357801
 31
0.0
  0
ARC
  5
1109
  8
C4
 10
1055.351543430083
 20
55.681882864585162
 30
0.0
 40
1.6000000000000001
 50
90.0
 51
154.70745356257581
  0
ARC
  5
110A
  8
C4
 10
1058.101543430083
 20
38.281882864585157
 30
0.0
 40
1.1000000000000001
 50
90.0
 51
154.70745356257649
  0
LINE
  5
110B
  8
C4
 10
1056.798164448734
 20
38.098298467163538
 30
0.0
 11
1057.1069914797611
 21
38.75184713781249
 31
0.0
  0
ARC
  5
110C
  8
C4
 10
1055.351543430083
 20
38.781882864585093
 30
0.0
 40
1.6000000000000001
 50
270.0
 51
334.70745356257578
  0
ARC
  5
110D
  8
C4
 10
1052.601543430083
 20
38.281882864585157
 30
0.0
 40
1.1000000000000001
 50
25.292546437424171
 51
90.0
  0
LINE
  5
110E
  8
C4
 10
1053.9049224114331
 20
38.098298467163538
 30
0.0
 11
1053.596095380406
 21
38.75184713781249
 31
0.0
  0
ARC
  5
110F
  8
C4
 10
1055.351543430083
 20
38.781882864585093
 30
0.0
 40
1.6000000000000001
 50
205.29254643742411
 51
270.0
  0
ARC
  5
1110
  8
C4
 10
1063.601543430083
 20
56.181882864585127
 30
0.0
 40
1.1000000000000001
 50
205.2925464374234
 51
270.0
  0
LINE
  5
1111
  8
C4
 10
1062.298164448734
 20
56.365467262006739
 30
0.0
 11
1062.6069914797611
 21
55.711918591357801
 31
0.0
  0
ARC
  5
1112
  8
C4
 10
1060.851543430083
 20
55.681882864585162
 30
0.0
 40
1.6000000000000001
 50
25.292546437424171
 51
90.0
  0
ARC
  5
1113
  8
C4
 10
1058.101543430083
 20
56.181882864585127
 30
0.0
 40
1.1000000000000001
 50
270.0
 51
334.70745356257578
  0
LINE
  5
1114
  8
C4
 10
1059.4049224114331
 20
56.365467262006739
 30
0.0
 11
1059.096095380406
 21
55.711918591357801
 31
0.0
  0
ARC
  5
1115
  8
C4
 10
1060.851543430083
 20
55.681882864585162
 30
0.0
 40
1.6000000000000001
 50
90.0
 51
154.70745356257581
  0
ARC
  5
1116
  8
C4
 10
1063.601543430083
 20
38.281882864585157
 30
0.0
 40
1.1000000000000001
 50
90.0
 51
154.70745356257649
  0
LINE
  5
1117
  8
C4
 10
1062.298164448734
 20
38.098298467163538
 30
0.0
 11
1062.6069914797611
 21
38.75184713781249
 31
0.0
  0
ARC
  5
1118
  8
C4
 10
1060.851543430083
 20
38.781882864585093
 30
0.0
 40
1.6000000000000001
 50
270.0
 51
334.70745356257578
  0
ARC
  5
1119
  8
C4
 10
1058.101543430083
 20
38.281882864585157
 30
0.0
 40
1.1000000000000001
 50
25.292546437424171
 51
90.0
  0
LINE
  5
111A
  8
C4
 10
1059.4049224114331
 20
38.098298467163538
 30
0.0
 11
1059.096095380406
 21
38.75184713781249
 31
0.0
  0
ARC
  5
111B
  8
C4
 10
1060.851543430083
 20
38.781882864585093
 30
0.0
 40
1.6000000000000001
 50
205.29254643742411
 51
270.0
  0
ARC
  5
111C
  8
C4
 10
1069.101543430083
 20
56.181882864585127
 30
0.0
 40
1.1000000000000001
 50
205.2925464374234
 51
270.0
  0
LINE
  5
111D
  8
C4
 10
1067.798164448734
 20
56.365467262006739
 30
0.0
 11
1068.1069914797611
 21
55.711918591357801
 31
0.0
  0
ARC
  5
111E
  8
C4
 10
1066.351543430083
 20
55.681882864585162
 30
0.0
 40
1.6000000000000001
 50
25.292546437424171
 51
90.0
  0
ARC
  5
111F
  8
C4
 10
1063.601543430083
 20
56.181882864585127
 30
0.0
 40
1.1000000000000001
 50
270.0
 51
334.70745356257578
  0
LINE
  5
1120
  8
C4
 10
1064.9049224114331
 20
56.365467262006739
 30
0.0
 11
1064.596095380406
 21
55.711918591357801
 31
0.0
  0
ARC
  5
1121
  8
C4
 10
1066.351543430083
 20
55.681882864585162
 30
0.0
 40
1.6000000000000001
 50
90.0
 51
154.70745356257581
  0
ARC
  5
1122
  8
C4
 10
1069.101543430083
 20
38.281882864585157
 30
0.0
 40
1.1000000000000001
 50
90.0
 51
154.70745356257649
  0
LINE
  5
1123
  8
C4
 10
1067.798164448734
 20
38.098298467163538
 30
0.0
 11
1068.1069914797611
 21
38.75184713781249
 31
0.0
  0
ARC
  5
1124
  8
C4
 10
1066.351543430083
 20
38.781882864585093
 30
0.0
 40
1.6000000000000001
 50
270.0
 51
334.70745356257578
  0
ARC
  5
1125
  8
C4
 10
1063.601543430083
 20
38.281882864585157
 30
0.0
 40
1.1000000000000001
 50
25.292546437424171
 51
90.0
  0
LINE
  5
1126
  8
C4
 10
1064.9049224114331
 20
38.098298467163538
 30
0.0
 11
1064.596095380406
 21
38.75184713781249
 31
0.0
  0
ARC
  5
1127
  8
C4
 10
1066.351543430083
 20
38.781882864585093
 30
0.0
 40
1.6000000000000001
 50
205.29254643742411
 51
270.0
  0
ARC
  5
1128
  8
C4
 10
1074.601543430083
 20
56.181882864585127
 30
0.0
 40
1.1000000000000001
 50
205.2925464374234
 51
270.0
  0
LINE
  5
1129
  8
C4
 10
1073.298164448734
 20
56.365467262006739
 30
0.0
 11
1073.6069914797611
 21
55.711918591357801
 31
0.0
  0
ARC
  5
112A
  8
C4
 10
1071.851543430083
 20
55.681882864585162
 30
0.0
 40
1.6000000000000001
 50
25.292546437424171
 51
90.0
  0
ARC
  5
112B
  8
C4
 10
1069.101543430083
 20
56.181882864585127
 30
0.0
 40
1.1000000000000001
 50
270.0
 51
334.70745356257578
  0
LINE
  5
112C
  8
C4
 10
1070.4049224114331
 20
56.365467262006739
 30
0.0
 11
1070.0960953804049
 21
55.711918591357801
 31
0.0
  0
ARC
  5
112D
  8
C4
 10
1071.851543430083
 20
55.681882864585162
 30
0.0
 40
1.6000000000000001
 50
90.0
 51
154.70745356257581
  0
ARC
  5
112E
  8
C4
 10
1074.601543430083
 20
38.281882864585157
 30
0.0
 40
1.1000000000000001
 50
90.0
 51
154.70745356257649
  0
LINE
  5
112F
  8
C4
 10
1073.298164448734
 20
38.098298467163538
 30
0.0
 11
1073.6069914797611
 21
38.75184713781249
 31
0.0
  0
ARC
  5
1130
  8
C4
 10
1071.851543430083
 20
38.781882864585093
 30
0.0
 40
1.6000000000000001
 50
270.0
 51
334.70745356257578
  0
ARC
  5
1131
  8
C4
 10
1069.101543430083
 20
38.281882864585157
 30
0.0
 40
1.1000000000000001
 50
25.292546437424171
 51
90.0
  0
LINE
  5
1132
  8
C4
 10
1070.4049224114331
 20
38.098298467163538
 30
0.0
 11
1070.0960953804049
 21
38.75184713781249
 31
0.0
  0
ARC
  5
1133
  8
C4
 10
1071.851543430083
 20
38.781882864585093
 30
0.0
 40
1.6000000000000001
 50
205.29254643742411
 51
270.0
  0
ARC
  5
1134
  8
C4
 10
1080.101543430083
 20
56.181882864585127
 30
0.0
 40
1.1000000000000001
 50
205.2925464374234
 51
270.0
  0
LINE
  5
1135
  8
C4
 10
1078.798164448734
 20
56.365467262006739
 30
0.0
 11
1079.1069914797611
 21
55.711918591357801
 31
0.0
  0
ARC
  5
1136
  8
C4
 10
1077.351543430083
 20
55.681882864585162
 30
0.0
 40
1.6000000000000001
 50
25.292546437424171
 51
90.0
  0
ARC
  5
1137
  8
C4
 10
1074.601543430083
 20
56.181882864585127
 30
0.0
 40
1.1000000000000001
 50
270.0
 51
334.70745356257578
  0
LINE
  5
1138
  8
C4
 10
1075.9049224114331
 20
56.365467262006739
 30
0.0
 11
1075.596095380406
 21
55.711918591357801
 31
0.0
  0
ARC
  5
1139
  8
C4
 10
1077.351543430083
 20
55.681882864585162
 30
0.0
 40
1.6000000000000001
 50
90.0
 51
154.70745356257581
  0
ARC
  5
113A
  8
C4
 10
1080.101543430083
 20
38.281882864585157
 30
0.0
 40
1.1000000000000001
 50
90.0
 51
154.70745356257649
  0
LINE
  5
113B
  8
C4
 10
1078.798164448734
 20
38.098298467163538
 30
0.0
 11
1079.1069914797611
 21
38.75184713781249
 31
0.0
  0
ARC
  5
113C
  8
C4
 10
1077.351543430083
 20
38.781882864585093
 30
0.0
 40
1.6000000000000001
 50
270.0
 51
334.70745356257578
  0
ARC
  5
113D
  8
C4
 10
1074.601543430083
 20
38.281882864585157
 30
0.0
 40
1.1000000000000001
 50
25.292546437424171
 51
90.0
  0
LINE
  5
113E
  8
C4
 10
1075.9049224114331
 20
38.098298467163538
 30
0.0
 11
1075.596095380406
 21
38.75184713781249
 31
0.0
  0
ARC
  5
113F
  8
C4
 10
1077.351543430083
 20
38.781882864585093
 30
0.0
 40
1.6000000000000001
 50
205.29254643742411
 51
270.0
  0
ARC
  5
1140
  8
C4
 10
1085.6015434300839
 20
56.181882864585127
 30
0.0
 40
1.1000000000000001
 50
205.2925464374234
 51
270.0
  0
LINE
  5
1141
  8
C4
 10
1084.298164448734
 20
56.365467262006739
 30
0.0
 11
1084.6069914797611
 21
55.711918591357801
 31
0.0
  0
ARC
  5
1142
  8
C4
 10
1082.851543430083
 20
55.681882864585162
 30
0.0
 40
1.6000000000000001
 50
25.292546437424171
 51
90.0
  0
ARC
  5
1143
  8
C4
 10
1080.101543430083
 20
56.181882864585127
 30
0.0
 40
1.1000000000000001
 50
270.0
 51
334.70745356257578
  0
LINE
  5
1144
  8
C4
 10
1081.4049224114331
 20
56.365467262006739
 30
0.0
 11
1081.096095380406
 21
55.711918591357801
 31
0.0
  0
ARC
  5
1145
  8
C4
 10
1082.851543430083
 20
55.681882864585162
 30
0.0
 40
1.6000000000000001
 50
90.0
 51
154.70745356257581
  0
ARC
  5
1146
  8
C4
 10
1085.6015434300839
 20
38.281882864585157
 30
0.0
 40
1.1000000000000001
 50
90.0
 51
154.70745356257649
  0
LINE
  5
1147
  8
C4
 10
1084.298164448734
 20
38.098298467163538
 30
0.0
 11
1084.6069914797611
 21
38.75184713781249
 31
0.0
  0
ARC
  5
1148
  8
C4
 10
1082.851543430083
 20
38.781882864585093
 30
0.0
 40
1.6000000000000001
 50
270.0
 51
334.70745356257578
  0
ARC
  5
1149
  8
C4
 10
1080.101543430083
 20
38.281882864585157
 30
0.0
 40
1.1000000000000001
 50
25.292546437424171
 51
90.0
  0
LINE
  5
114A
  8
C4
 10
1081.4049224114331
 20
38.098298467163538
 30
0.0
 11
1081.096095380406
 21
38.75184713781249
 31
0.0
  0
ARC
  5
114B
  8
C4
 10
1082.851543430083
 20
38.781882864585093
 30
0.0
 40
1.6000000000000001
 50
205.29254643742411
 51
270.0
  0
ARC
  5
114C
  8
C4
 10
1091.101543430083
 20
56.181882864585127
 30
0.0
 40
1.1000000000000001
 50
205.2925464374234
 51
270.0
  0
LINE
  5
114D
  8
C4
 10
1089.798164448734
 20
56.365467262006739
 30
0.0
 11
1090.1069914797611
 21
55.711918591357801
 31
0.0
  0
ARC
  5
114E
  8
C4
 10
1088.3515434300839
 20
55.681882864585162
 30
0.0
 40
1.6000000000000001
 50
25.292546437424171
 51
90.0
  0
ARC
  5
114F
  8
C4
 10
1085.6015434300839
 20
56.181882864585127
 30
0.0
 40
1.1000000000000001
 50
270.0
 51
334.70745356257578
  0
LINE
  5
1150
  8
C4
 10
1086.9049224114331
 20
56.365467262006739
 30
0.0
 11
1086.596095380406
 21
55.711918591357801
 31
0.0
  0
ARC
  5
1151
  8
C4
 10
1088.3515434300839
 20
55.681882864585162
 30
0.0
 40
1.6000000000000001
 50
90.0
 51
154.70745356257581
  0
ARC
  5
1152
  8
C4
 10
1091.101543430083
 20
38.281882864585157
 30
0.0
 40
1.1000000000000001
 50
90.0
 51
154.70745356257649
  0
LINE
  5
1153
  8
C4
 10
1089.798164448734
 20
38.098298467163538
 30
0.0
 11
1090.1069914797611
 21
38.75184713781249
 31
0.0
  0
ARC
  5
1154
  8
C4
 10
1088.3515434300839
 20
38.781882864585093
 30
0.0
 40
1.6000000000000001
 50
270.0
 51
334.70745356257578
  0
ARC
  5
1155
  8
C4
 10
1085.6015434300839
 20
38.281882864585157
 30
0.0
 40
1.1000000000000001
 50
25.292546437424171
 51
90.0
  0
LINE
  5
1156
  8
C4
 10
1086.9049224114331
 20
38.098298467163538
 30
0.0
 11
1086.596095380406
 21
38.75184713781249
 31
0.0
  0
ARC
  5
1157
  8
C4
 10
1088.3515434300839
 20
38.781882864585093
 30
0.0
 40
1.6000000000000001
 50
205.29254643742411
 51
270.0
  0
LINE
  5
1158
  8
C4
 10
1091.101543430083
 20
55.08188286458514
 30
0.0
 11
1091.101543430083
 21
39.381882864585123
 31
0.0
  0
ENDSEC
  0
EOF
