  0
SECTION
  2
HEADER
  9
$ACADVER
  1
AC1009
  9
$INSBASE
 10
0.0
 20
0.0
 30
0.0
  9
$EXTMIN
 10
20.44514926073338
 20
-25.750029856048059
 30
-0.0015258207003583
  9
$EXTMAX
 10
615.43703137683963
 20
462.53139940095582
 30
0.0000000349246037
  9
$LIMMIN
 10
0.0
 20
0.0
  9
$LIMMAX
 10
420.0
 20
297.0
  9
$ORTHOMODE
 70
     0
  9
$REGENMODE
 70
     1
  9
$FILLMODE
 70
     1
  9
$QTEXTMODE
 70
     0
  9
$MIRRTEXT
 70
     1
  9
$DRAGMODE
 70
     2
  9
$LTSCALE
 40
1.0
  9
$OSMODE
 70
    37
  9
$ATTMODE
 70
     1
  9
$TEXTSIZE
 40
2.5
  9
$TRACEWID
 40
1.0
  9
$TEXTSTYLE
  7
STANDARD
  9
$CLAYER
  8
0
  9
$CELTYPE
  6
BYLAYER
  9
$CECOLOR
 62
   256
  9
$DIMSCALE
 40
1.0
  9
$DIMASZ
 40
2.5
  9
$DIMEXO
 40
0.625
  9
$DIMDLI
 40
3.75
  9
$DIMRND
 40
0.0
  9
$DIMDLE
 40
0.0
  9
$DIMEXE
 40
1.25
  9
$DIMTP
 40
0.0
  9
$DIMTM
 40
0.0
  9
$DIMTXT
 40
2.5
  9
$DIMCEN
 40
2.5
  9
$DIMTSZ
 40
0.0
  9
$DIMTOL
 70
     0
  9
$DIMLIM
 70
     0
  9
$DIMTIH
 70
     0
  9
$DIMTOH
 70
     0
  9
$DIMSE1
 70
     0
  9
$DIMSE2
 70
     0
  9
$DIMTAD
 70
     1
  9
$DIMZIN
 70
     8
  9
$DIMBLK
  1

  9
$DIMASO
 70
     1
  9
$DIMSHO
 70
     1
  9
$DIMPOST
  1

  9
$DIMAPOST
  1

  9
$DIMALT
 70
     0
  9
$DIMALTD
 70
     3
  9
$DIMALTF
 40
0.03937007874016
  9
$DIMLFAC
 40
1.0
  9
$DIMTOFL
 70
     1
  9
$DIMTVP
 40
0.0
  9
$DIMTIX
 70
     0
  9
$DIMSOXD
 70
     0
  9
$DIMSAH
 70
     0
  9
$DIMBLK1
  1

  9
$DIMBLK2
  1

  9
$DIMSTYLE
  2
ISO-25
  9
$DIMCLRD
 70
     0
  9
$DIMCLRE
 70
     0
  9
$DIMCLRT
 70
     0
  9
$DIMTFAC
 40
1.0
  9
$DIMGAP
 40
0.625
  9
$LUNITS
 70
     2
  9
$LUPREC
 70
     4
  9
$SKETCHINC
 40
1.0
  9
$FILLETRAD
 40
10.0
  9
$AUNITS
 70
     0
  9
$AUPREC
 70
     0
  9
$MENU
  1
.
  9
$ELEVATION
 40
0.0
  9
$PELEVATION
 40
0.0
  9
$THICKNESS
 40
0.0
  9
$LIMCHECK
 70
     0
  9
$BLIPMODE
 70
     0
  9
$CHAMFERA
 40
10.0
  9
$CHAMFERB
 40
10.0
  9
$SKPOLY
 70
     0
  9
$TDCREATE
 40
2452048.587873715
  9
$TDUPDATE
 40
2452048.6300475458
  9
$TDINDWG
 40
0.0421762731
  9
$TDUSRTIMER
 40
0.0421762731
  9
$USRTIMER
 70
     1
  9
$ANGBASE
 50
0.0
  9
$ANGDIR
 70
     0
  9
$PDMODE
 70
     0
  9
$PDSIZE
 40
0.0
  9
$PLINEWID
 40
0.0
  9
$COORDS
 70
     1
  9
$SPLFRAME
 70
     0
  9
$SPLINETYPE
 70
     6
  9
$SPLINESEGS
 70
     8
  9
$ATTDIA
 70
     0
  9
$ATTREQ
 70
     1
  9
$HANDLING
 70
-16383
  9
$HANDSEED
  5
6F34
  9
$SURFTAB1
 70
     6
  9
$SURFTAB2
 70
     6
  9
$SURFTYPE
 70
     6
  9
$SURFU
 70
     6
  9
$SURFV
 70
     6
  9
$UCSNAME
  2

  9
$UCSORG
 10
0.0
 20
0.0
 30
0.0
  9
$UCSXDIR
 10
1.0
 20
0.0
 30
0.0
  9
$UCSYDIR
 10
0.0
 20
1.0
 30
0.0
  9
$PUCSNAME
  2

  9
$PUCSORG
 10
0.0
 20
0.0
 30
0.0
  9
$PUCSXDIR
 10
1.0
 20
0.0
 30
0.0
  9
$PUCSYDIR
 10
0.0
 20
1.0
 30
0.0
  9
$USERI1
 70
     0
  9
$USERI2
 70
     0
  9
$USERI3
 70
     0
  9
$USERI4
 70
     0
  9
$USERI5
 70
     0
  9
$USERR1
 40
0.0
  9
$USERR2
 40
0.0
  9
$USERR3
 40
0.0
  9
$USERR4
 40
0.0
  9
$USERR5
 40
0.0
  9
$WORLDVIEW
 70
     1
  9
$SHADEDGE
 70
     3
  9
$SHADEDIF
 70
    70
  9
$TILEMODE
 70
     1
  9
$MAXACTVP
 70
    64
  9
$PLIMCHECK
 70
     0
  9
$PEXTMIN
 10
1.0000000000000000E+020
 20
1.0000000000000000E+020
 30
1.0000000000000000E+020
  9
$PEXTMAX
 10
-1.0000000000000000E+020
 20
-1.0000000000000000E+020
 30
-1.0000000000000000E+020
  9
$PLIMMIN
 10
0.0
 20
0.0
  9
$PLIMMAX
 10
420.0
 20
297.0
  9
$UNITMODE
 70
     0
  9
$VISRETAIN
 70
     1
  9
$PLINEGEN
 70
     0
  9
$PSLTSCALE
 70
     1
  0
ENDSEC
  0
SECTION
  2
TABLES
  0
TABLE
  2
VPORT
 70
    58
  0
VPORT
  2
*ACTIVE
 70
     0
 10
0.0
 20
0.0
 11
1.0
 21
1.0
 12
243.19809294536361
 22
20.724196922940902
 13
0.0
 23
0.0
 14
10.0
 24
10.0
 15
10.0
 25
10.0
 16
0.0
 26
0.0
 36
1.0
 17
0.0
 27
0.0
 37
0.0
 40
1137.7171551220929
 41
0.8452830188679245
 42
50.0
 43
0.0
 44
0.0
 50
0.0
 51
0.0
 71
     0
 72
   100
 73
     1
 74
     3
 75
     0
 76
     0
 77
     0
 78
     0
  0
ENDTAB
  0
TABLE
  2
LTYPE
 70
     1
  0
LTYPE
  2
CONTINUOUS
 70
     0
  3
Solid line
 72
    65
 73
     0
 40
0.0
  0
ENDTAB
  0
TABLE
  2
LAYER
 70
     3
  0
LAYER
  2
0
 70
     0
 62
     7
  6
CONTINUOUS
  0
LAYER
  2
1外形線
 70
     0
 62
     3
  6
CONTINUOUS
  0
LAYER
  2
4太線
 70
     0
 62
     6
  6
CONTINUOUS
  0
ENDTAB
  0
TABLE
  2
STYLE
 70
     2
  0
STYLE
  2
STANDARD
 70
     0
 40
0.0
 41
1.0
 50
0.0
 71
     0
 42
2.5
  3
txt
  4

  0
STYLE
  2
KANJI
 70
     0
 40
0.0
 41
1.0
 50
0.0
 71
     0
 42
10.0
  3
simplex
  4
bigfont
  0
ENDTAB
  0
TABLE
  2
VIEW
 70
     0
  0
ENDTAB
  0
TABLE
  2
UCS
 70
     0
  0
ENDTAB
  0
TABLE
  2
APPID
 70
     1
  0
APPID
  2
ACAD
 70
     0
  0
ENDTAB
  0
TABLE
  2
DIMSTYLE
 70
     2
  0
DIMSTYLE
  2
ISO-25
 70
     0
  3

  4

  5

  6

  7

 40
1.0
 41
2.5
 42
0.625
 43
3.75
 44
1.25
 45
0.0
 46
0.0
 47
0.0
 48
0.0
140
2.5
141
2.5
142
0.0
143
0.03937007874016
144
1.0
145
0.0
146
1.0
147
0.625
 71
     0
 72
     0
 73
     0
 74
     0
 75
     0
 76
     0
 77
     1
 78
     8
170
     0
171
     3
172
     1
173
     0
174
     0
175
     0
176
     0
177
     0
178
     0
  0
DIMSTYLE
  2
STANDARD
 70
     0
  3

  4

  5

  6
1
  7
1
 40
1.0
 41
1.0
 42
1.0
 43
6.0
 44
1.0
 45
0.0
 46
0.0
 47
0.0
 48
0.0
140
2.5
141
0.0
142
0.0
143
25.399999999999999
144
1.0
145
0.0
146
1.0
147
0.5
 71
     0
 72
     0
 73
     0
 74
     0
 75
     0
 76
     0
 77
     1
 78
     8
170
     0
171
     2
172
     1
173
     1
174
     0
175
     0
176
     0
177
     0
178
     0
  0
ENDTAB
  0
ENDSEC
  0
SECTION
  2
BLOCKS
  0
BLOCK
  8
0
  2
$MODEL_SPACE
 70
     0
 10
0.0
 20
0.0
 30
0.0
  3
$MODEL_SPACE
  1

  0
ENDBLK
  5
21
  8
0
  0
BLOCK
 67
     1
  8
0
  2
$PAPER_SPACE
 70
     0
 10
0.0
 20
0.0
 30
0.0
  3
$PAPER_SPACE
  1

  0
ENDBLK
  5
1D
 67
     1
  8
0
  0
BLOCK
  8
0
  2
1
 70
     0
 10
0.0
 20
0.0
 30
0.0
  3
1
  1

  0
SOLID
  5
2C
  8
0
  6
BYBLOCK
 62
     0
 10
-1.811110924292052
 20
0.4852857095671653
 30
0.0
 11
-1.811110924292052
 21
-0.4852857095673642
 31
0.0
 12
0.0
 22
0.0
 32
0.0
 13
0.0
 23
0.0
 33
0.0
  0
ENDBLK
  5
2E
  8
0
  0
ENDSEC
  0
SECTION
  2
ENTITIES
  0
ARC
  5
6EA1
  8
1外形線
 10
94.107966406785067
 20
89.563333082524252
 30
0.0
 40
1.0
 50
270.0
 51
0.0
  0
ARC
  5
6EA2
  8
1外形線
 10
84.607966406785067
 20
89.563333082524252
 30
0.0
 40
1.0
 50
180.0
 51
270.0
  0
LINE
  5
6EA3
  8
1外形線
 10
95.107966406785053
 20
75.34129308252426
 30
0.0
 11
95.107966406785053
 21
93.764706582524269
 31
0.0
  0
LINE
  5
6EA4
  8
1外形線
 10
83.607966406785053
 20
75.34129308252426
 30
0.0
 11
83.607966406785053
 21
93.764706582524269
 31
0.0
  0
ARC
  5
6EA5
  8
1外形線
 10
49.981875637460057
 20
82.710697082524291
 30
0.0
 40
16.0
 50
334.50252218313682
 51
42.861453000000182
  0
LINE
  5
6EA6
  8
1外形線
 10
99.357966406785067
 20
63.810378582524258
 30
0.0
 11
99.357966406785067
 21
94.701015082524293
 31
0.0
  0
LINE
  5
6EA7
  8
1外形線
 10
79.357966406785067
 20
63.810378582524258
 30
0.0
 11
79.357966406785067
 21
94.701015082524293
 31
0.0
  0
ARC
  5
6EA8
  8
1外形線
 10
49.981875637460057
 20
82.710697082524291
 30
0.0
 40
12.0
 50
147.29244299999979
 51
174.394823
  0
ARC
  5
6EA9
  8
1外形線
 10
49.981875637460057
 20
82.710697082524291
 30
0.0
 40
16.699999999999989
 50
152.8195960000001
 51
189.77020099999999
  0
ARC
  5
6EAA
  8
1外形線
 10
64.775591137460026
 20
89.063333082524281
 30
0.0
 40
0.5
 50
280.82931688972877
 51
342.2529990000001
  0
ARC
  5
6EAB
  8
1外形線
 10
49.981875637460057
 20
82.710697082524291
 30
0.0
 40
12.0
 50
5.6051769999999319
 51
30.5882749999999
  0
ARC
  5
6EAC
  8
1外形線
 10
49.981875637460057
 20
82.710697082524291
 30
0.0
 40
14.0
 50
302.230953
 51
144.99999935210809
  0
LINE
  5
6EAD
  8
1外形線
 10
42.181875637460017
 20
32.794571389444222
 30
0.0
 11
45.281875637460011
 21
32.794571389444222
 31
0.0
  0
LINE
  5
6EAE
  8
1外形線
 10
33.58187563746003
 20
49.294571389444229
 30
0.0
 11
57.581875637460051
 21
49.294571389444229
 31
0.0
  0
LINE
  5
6EAF
  8
1外形線
 10
42.181875637460017
 20
45.294571389444222
 30
0.0
 11
45.28187563746004
 21
45.294571389444222
 31
0.0
  0
LINE
  5
6EB0
  8
1外形線
 10
42.381875637460013
 20
29.294571389444229
 30
0.0
 11
66.381875637459984
 21
29.294571389444229
 31
0.0
  0
LINE
  5
6EB1
  8
1外形線
 10
41.981875637460028
 20
45.094571389444241
 30
0.0
 11
41.981875637460028
 21
32.994571389444239
 31
0.0
  0
ARC
  5
6EB2
  8
1外形線
 10
42.381875637460013
 20
38.294571389444251
 30
0.0
 40
9.0
 50
180.0
 51
270.0
  0
ARC
  5
6EB3
  8
1外形線
 10
42.181875637460017
 20
32.994571389444239
 30
0.0
 40
0.2
 50
180.0
 51
270.0
  0
LINE
  5
6EB4
  8
1外形線
 10
33.381875637460013
 20
49.094571389444241
 30
0.0
 11
33.381875637460013
 21
38.294571389444251
 31
0.0
  0
ARC
  5
6EB5
  8
1外形線
 10
33.58187563746003
 20
49.094571389444241
 30
0.0
 40
0.2
 50
90.0
 51
180.0
  0
ARC
  5
6EB6
  8
1外形線
 10
42.181875637460017
 20
45.094571389444241
 30
0.0
 40
0.2
 50
90.0
 51
180.0
  0
LINE
  5
6EB7
  8
1外形線
 10
66.58187563746003
 20
40.294571389444251
 30
0.0
 11
66.58187563746003
 21
29.494571389444239
 31
0.0
  0
LINE
  5
6EB8
  8
1外形線
 10
45.481875637460043
 20
45.094571389444241
 30
0.0
 11
45.48187563746
 21
32.994571389444218
 31
0.0
  0
ARC
  5
6EB9
  8
1外形線
 10
45.281875637460011
 20
32.994571389444218
 30
0.0
 40
0.2
 50
270.0
 51
0.0
  0
ARC
  5
6EBA
  8
1外形線
 10
66.381875637459984
 20
29.494571389444239
 30
0.0
 40
0.2
 50
270.0
 51
0.0
  0
ARC
  5
6EBB
  8
1外形線
 10
57.581875637460051
 20
40.294571389444251
 30
0.0
 40
9.0
 50
0.0
 51
90.0
  0
CIRCLE
  5
6EBC
  8
1外形線
 10
49.981875637460043
 20
39.294571389444251
 30
0.0
 40
2.1000000000000001
  0
ARC
  5
6EBD
  8
1外形線
 10
45.28187563746004
 20
45.094571389444241
 30
0.0
 40
0.2
 50
0.0
 51
90.0
  0
ARC
  5
6EBE
  8
1外形線
 10
49.981875637460057
 20
82.710697082524291
 30
0.0
 40
12.0
 50
235.605177
 51
304.39482299999992
  0
LINE
  5
6EBF
  8
1外形線
 10
41.981875637460057
 20
64.110697082524254
 30
0.0
 11
57.981875637460057
 21
64.110697082524254
 31
0.0
  0
ARC
  5
6EC0
  8
1外形線
 10
49.981875637460057
 20
82.710697082524291
 30
0.0
 40
14.0
 50
160.24243509796801
 51
237.7690479999998
  0
LINE
  5
6EC1
  8
1外形線
 10
34.34697613745999
 20
66.245543582524277
 30
0.0
 11
42.016775137460002
 21
66.513379082524267
 31
0.0
  0
LINE
  5
6EC2
  8
1外形線
 10
33.381875637460041
 20
63.810378582524258
 30
0.0
 11
41.981875637460057
 21
64.110697082524254
 31
0.0
  0
ARC
  5
6EC3
  8
1外形線
 10
34.381875637460041
 20
65.246152582524275
 30
0.0
 40
1.0
 50
91.999999999999972
 51
180.0
  0
LINE
  5
6EC4
  8
1外形線
 10
33.381875637460041
 20
63.810378582524258
 30
0.0
 11
33.381875637460041
 21
65.246152582524275
 31
0.0
  0
ARC
  5
6EC5
  8
1外形線
 10
41.981875637460057
 20
67.512769582524271
 30
0.0
 40
1.0
 50
272.0
 51
0.0
  0
LINE
  5
6EC6
  8
1外形線
 10
42.981875637460057
 20
67.512769582524271
 30
0.0
 11
42.981875637460057
 21
70.022119582524269
 31
0.0
  0
ARC
  5
6EC7
  8
1外形線
 10
41.981875637460057
 20
70.022119582524269
 30
0.0
 40
1.0
 50
0.0
 51
57.769046999999937
  0
LINE
  5
6EC8
  8
1外形線
 10
34.622269637460079
 20
81.191541082524338
 30
0.0
 11
35.662429637460093
 21
79.041991582524304
 31
0.0
  0
ARC
  5
6EC9
  8
1外形線
 10
34.498659137460038
 20
80.110697082524254
 30
0.0
 40
0.4
 50
270.0
 51
90.0
  0
ARC
  5
6ECA
  8
1外形線
 10
49.981875637460057
 20
82.710697082524291
 30
0.0
 40
12.0
 50
185.60517699999991
 51
224.394823
  0
ARC
  5
6ECB
  8
1外形線
 10
36.215325637460062
 20
79.229016582524309
 30
0.0
 40
0.2
 50
284.99999999999989
 51
14.19299000000003
  0
LINE
  5
6ECC
  8
1外形線
 10
35.894223637460072
 20
78.935922082524314
 30
0.0
 11
36.26708963746011
 21
79.035831082524325
 31
0.0
  0
ARC
  5
6ECD
  8
1外形線
 10
35.842459637460081
 20
79.129107082524342
 30
0.0
 40
0.2
 50
205.82218499999991
 51
284.99999999999989
  0
LINE
  5
6ECE
  8
1外形線
 10
34.498659137460038
 20
79.710697082524291
 30
0.0
 11
33.721187137460042
 21
79.710697082524291
 31
0.0
  0
ARC
  5
6ECF
  8
1外形線
 10
33.721187137460042
 20
79.91069708252428
 30
0.0
 40
0.2
 50
189.77020099999999
 51
270.0
  0
ARC
  5
6ED0
  8
1外形線
 10
42.268424137460052
 20
73.518164082524265
 30
0.0
 40
1.0
 50
146.77989600000001
 51
313.22010399999999
  0
ARC
  5
6ED1
  8
1外形線
 10
43.090187637460019
 20
72.643690082524273
 30
0.0
 40
0.2
 50
55.605177000000111
 51
133.22010399999999
  0
ARC
  5
6ED2
  8
1外形線
 10
41.264537637460023
 20
74.175592082524275
 30
0.0
 40
0.2
 50
326.77989600000001
 51
44.394823000000009
  0
ARC
  5
6ED3
  8
1外形線
 10
37.981875637460057
 20
82.710697082524291
 30
0.0
 40
1.0
 50
96.779895999999781
 51
263.22010400000022
  0
ARC
  5
6ED4
  8
1外形線
 10
35.522419637460068
 20
81.627120582524327
 30
0.0
 40
1.0
 50
184.285675
 51
205.82218499999991
  0
ARC
  5
6ED5
  8
1外形線
 10
36.426434137460028
 20
86.210697082524291
 30
0.0
 40
1.5
 50
90.0
 51
165.52248800000001
  0
LINE
  5
6ED6
  8
1外形線
 10
36.426434137460028
 20
87.710697082524291
 30
0.0
 11
36.617744637460021
 21
87.710697082524291
 31
0.0
  0
ARC
  5
6ED7
  8
1外形線
 10
36.617744637460021
 20
87.510697082524274
 30
0.0
 40
0.2
 50
340.24321500000008
 51
90.0
  0
LINE
  5
6ED8
  8
1外形線
 10
34.133847637460057
 20
80.510697082524274
 30
0.0
 11
34.498659137460038
 21
80.510697082524274
 31
0.0
  0
LINE
  5
6ED9
  8
1外形線
 10
34.481875637460057
 20
82.710697082524291
 30
0.0
 11
34.183141637459983
 21
82.710697082524291
 31
0.0
  0
ARC
  5
6EDA
  8
1外形線
 10
49.981875637460057
 20
82.710697082524291
 30
0.0
 40
16.0
 50
180.72528199999999
 51
187.91960299999991
  0
ARC
  5
6EDB
  8
1外形線
 10
34.183141637459983
 20
82.510697082524274
 30
0.0
 40
0.2
 50
90.0
 51
180.72528199999999
  0
ARC
  5
6EDC
  8
1外形線
 10
49.981875637460057
 20
82.710697082524291
 30
0.0
 40
15.5
 50
165.5224869999999
 51
184.28324818865261
  0
ARC
  5
6EDD
  8
1外形線
 10
37.840209137460022
 20
81.51908908252426
 30
0.0
 40
0.2
 50
5.6051769999999319
 51
83.220104000000205
  0
ARC
  5
6EDE
  8
1外形線
 10
37.840209137460022
 20
83.902305582524264
 30
0.0
 40
0.2
 50
276.77989599999972
 51
354.39482299999997
  0
ARC
  5
6EDF
  8
1外形線
 10
55.981875637460057
 20
71.178134582524322
 30
0.0
 40
1.0
 50
117.4638655700366
 51
180.0
  0
ARC
  5
6EE0
  8
1外形線
 10
43.981875637460057
 20
71.178134582524322
 30
0.0
 40
1.0
 50
0.0
 51
62.536134429963361
  0
LINE
  5
6EE1
  8
1外形線
 10
65.616775137460024
 20
66.245543582524277
 30
0.0
 11
57.946976137460013
 21
66.513379082524267
 31
0.0
  0
LINE
  5
6EE2
  8
1外形線
 10
66.58187563746003
 20
63.810378582524258
 30
0.0
 11
57.981875637460057
 21
64.110697082524254
 31
0.0
  0
LINE
  5
6EE3
  8
1外形線
 10
45.181875637460102
 20
66.010697082524317
 30
0.0
 11
54.781875637460082
 21
66.010697082524317
 31
0.0
  0
ARC
  5
6EE4
  8
1外形線
 10
45.181875637460102
 20
66.21069708252432
 30
0.0
 40
0.2
 50
180.0
 51
270.0
  0
LINE
  5
6EE5
  8
1外形線
 10
44.981875637460057
 20
66.21069708252432
 30
0.0
 11
44.981875637460057
 21
71.178134582524322
 31
0.0
  0
ARC
  5
6EE6
  8
1外形線
 10
54.781875637460082
 20
66.21069708252432
 30
0.0
 40
0.2
 50
270.0
 51
0.0
  0
LINE
  5
6EE7
  8
1外形線
 10
54.981875637460057
 20
66.21069708252432
 30
0.0
 11
54.981875637460057
 21
71.178134582524322
 31
0.0
  0
ARC
  5
6EE8
  8
1外形線
 10
57.981875637460057
 20
67.512769582524271
 30
0.0
 40
1.0
 50
180.0
 51
268.0
  0
LINE
  5
6EE9
  8
1外形線
 10
56.981875637460071
 20
67.512769582524271
 30
0.0
 11
56.981875637460071
 21
70.022119582524269
 31
0.0
  0
ARC
  5
6EEA
  8
1外形線
 10
57.981875637460057
 20
70.022119582524269
 30
0.0
 40
1.0
 50
122.230953
 51
180.0
  0
ARC
  5
6EEB
  8
1外形線
 10
65.581875637459973
 20
65.246152582524275
 30
0.0
 40
1.0
 50
0.0
 51
88.000000000000014
  0
LINE
  5
6EEC
  8
1外形線
 10
66.58187563746003
 20
63.810378582524258
 30
0.0
 11
66.58187563746003
 21
65.246152582524275
 31
0.0
  0
ARC
  5
6EED
  8
1外形線
 10
57.695327137459969
 20
73.518164082524265
 30
0.0
 40
1.0
 50
226.77989599999989
 51
33.220103999999921
  0
ARC
  5
6EEE
  8
1外形線
 10
56.873563637459988
 20
72.643690082524273
 30
0.0
 40
0.2
 50
46.779895999999951
 51
124.3948229999998
  0
ARC
  5
6EEF
  8
1外形線
 10
49.981875637460057
 20
82.710697082524291
 30
0.0
 40
12.0
 50
315.60517700000003
 51
354.39482299999997
  0
ARC
  5
6EF0
  8
1外形線
 10
63.520655137459983
 20
76.253030582524275
 30
0.0
 40
2.0
 50
289.7529990000001
 51
37.756324176379749
  0
ARC
  5
6EF1
  8
1外形線
 10
63.520655137460089
 20
76.253030582524332
 30
0.0
 40
1.0
 50
154.49994499999991
 51
334.50004199999978
  0
ARC
  5
6EF2
  8
1外形線
 10
58.699213637459991
 20
74.175592082524275
 30
0.0
 40
0.2
 50
135.60517699999991
 51
213.22010399999991
  0
ARC
  5
6EF3
  8
1外形線
 10
64.02760413746006
 20
74.84129308252426
 30
0.0
 40
0.5
 50
150.73938700000011
 51
289.7529990000001
  0
ARC
  5
6EF4
  8
1外形線
 10
64.02760413746006
 20
74.84129308252426
 30
0.0
 40
0.5
 50
109.7529990000001
 51
150.73938700000011
  0
ARC
  5
6EF5
  8
1外形線
 10
62.123542137459992
 20
81.51908908252426
 30
0.0
 40
0.2
 50
96.779895999999781
 51
174.394823
  0
ARC
  5
6EF6
  8
1外形線
 10
61.981875637460071
 20
82.710697082524291
 30
0.0
 40
1.0
 50
276.77989599999972
 51
83.220104000000205
  0
ARC
  5
6EF7
  8
1外形線
 10
62.123542137459992
 20
83.902305582524264
 30
0.0
 40
0.2
 50
185.60517699999991
 51
263.22010400000022
  0
LINE
  5
6EF8
  8
1外形線
 10
79.557966406785113
 20
65.911658582524268
 30
0.0
 11
99.157966406785135
 21
65.911658582524268
 31
0.0
  0
LINE
  5
6EF9
  8
1外形線
 10
79.557966406785113
 20
70.586341582524256
 30
0.0
 11
99.157966406785135
 21
70.586341582524256
 31
0.0
  0
LINE
  5
6EFA
  8
1外形線
 10
79.357966406785067
 20
63.810378582524258
 30
0.0
 11
99.357966406785067
 21
63.810378582524258
 31
0.0
  0
ARC
  5
6EFB
  8
1外形線
 10
79.557966406785113
 20
70.786341582524258
 30
0.0
 40
0.2
 50
180.0
 51
270.0
  0
ARC
  5
6EFC
  8
1外形線
 10
79.557966406785113
 20
65.711658582524265
 30
0.0
 40
0.2
 50
90.0
 51
180.0
  0
ARC
  5
6EFD
  8
1外形線
 10
99.157966406785135
 20
70.786341582524258
 30
0.0
 40
0.2
 50
270.0
 51
0.0
  0
ARC
  5
6EFE
  8
1外形線
 10
99.157966406785135
 20
65.711658582524265
 30
0.0
 40
0.2
 50
0.0
 51
90.0
  0
LINE
  5
6EFF
  8
1外形線
 10
84.607966406785067
 20
88.563333082524252
 30
0.0
 11
94.107966406785067
 21
88.563333082524252
 31
0.0
  0
LINE
  5
6F00
  8
1外形線
 10
84.607966406785067
 20
74.34129308252426
 30
0.0
 11
94.107966406785067
 21
74.34129308252426
 31
0.0
  0
LINE
  5
6F01
  8
1外形線
 10
83.607966406785053
 20
79.318655582524244
 30
0.0
 11
95.107966406785053
 21
79.318655582524244
 31
0.0
  0
LINE
  5
6F02
  8
1外形線
 10
79.557966406785113
 20
75.253030582524275
 30
0.0
 11
83.611869406785104
 21
75.253030582524275
 31
0.0
  0
ARC
  5
6F03
  8
1外形線
 10
79.557966406785113
 20
75.453030582524264
 30
0.0
 40
0.2
 50
180.0
 51
270.0
  0
ARC
  5
6F04
  8
1外形線
 10
84.607966406785067
 20
75.34129308252426
 30
0.0
 40
1.0
 50
180.0
 51
270.0
  0
LINE
  5
6F05
  8
1外形線
 10
95.107966406785053
 20
75.253030582524275
 30
0.0
 11
99.157966406785135
 21
75.253030582524275
 31
0.0
  0
LINE
  5
6F06
  8
1外形線
 10
95.104063906785086
 20
75.253030582524275
 30
0.0
 11
95.107966406785053
 21
75.253030582524275
 31
0.0
  0
ARC
  5
6F07
  8
1外形線
 10
99.157966406785135
 20
75.453030582524264
 30
0.0
 40
0.2
 50
270.0
 51
0.0
  0
ARC
  5
6F08
  8
1外形線
 10
94.107966406785067
 20
75.34129308252426
 30
0.0
 40
1.0
 50
270.0
 51
0.0
  0
ARC
  5
6F09
  8
1外形線
 10
49.981875637460057
 20
82.710697082524291
 30
0.0
 40
15.5
 50
49.927023999999882
 51
145.85758079760191
  0
ARC
  5
6F0A
  8
1外形線
 10
36.905157637460029
 20
89.425564582524245
 30
0.0
 40
1.0
 50
54.999999999999922
 51
152.8195960000001
  0
ARC
  5
6F0B
  8
1外形線
 10
36.905157637460029
 20
89.425564582524245
 30
0.0
 40
2.0
 50
54.999999999999922
 51
152.8195960000001
  0
LINE
  5
6F0C
  8
1外形線
 10
35.775891137460057
 20
88.710697082524291
 30
0.0
 11
37.206900137459968
 21
88.710697082524291
 31
0.0
  0
ARC
  5
6F0D
  8
1外形線
 10
35.775891137460057
 20
88.910697082524294
 30
0.0
 40
0.2
 50
156.42182199999979
 51
270.0
  0
ARC
  5
6F0E
  8
1外形線
 10
49.981875637460057
 20
82.710697082524291
 30
0.0
 40
15.699999999999999
 50
152.81959499999979
 51
156.42182199999979
  0
ARC
  5
6F0F
  8
1外形線
 10
37.703233637459959
 20
89.843365082524244
 30
0.0
 40
0.2
 50
329.8476779999998
 51
54.999999999999922
  0
ARC
  5
6F10
  8
1外形線
 10
49.981875637460057
 20
82.710697082524291
 30
0.0
 40
14.0
 50
149.8476779999998
 51
154.11159599999999
  0
LINE
  5
6F11
  8
1外形線
 10
37.817949137460062
 20
90.007195582524275
 30
0.0
 11
37.478734137459981
 21
90.244716582524276
 31
0.0
  0
ARC
  5
6F12
  8
1外形線
 10
37.206900137459968
 20
88.910697082524294
 30
0.0
 40
0.2
 50
270.0
 51
334.11159600000002
  0
ARC
  5
6F13
  8
1外形線
 10
39.46388163746002
 20
89.465088582524274
 30
0.0
 40
0.5
 50
327.29244299999999
 51
54.999999999999922
  0
LINE
  5
6F14
  8
1外形線
 10
39.750670137459963
 20
89.874664582524275
 30
0.0
 11
38.052310637460039
 21
91.063868582524265
 31
0.0
  0
ARC
  5
6F15
  8
1外形線
 10
49.981875637460057
 20
82.710697082524291
 30
0.0
 40
16.5
 50
44.775366000000027
 51
48.537985999999847
  0
ARC
  5
6F16
  8
1外形線
 10
61.33985363746006
 20
93.979962582524308
 30
0.0
 40
0.5
 50
334.49999999999989
 51
44.775366000000027
  0
ARC
  5
6F17
  8
1外形線
 10
60.57584963746006
 20
94.70101508252435
 30
0.0
 40
0.5
 50
48.537985999999847
 51
154.49999999999989
  0
LINE
  5
6F18
  8
1外形線
 10
60.772924637460108
 20
91.629960582524305
 30
0.0
 11
61.7098871374601
 21
93.594343082524347
 31
0.0
  0
LINE
  5
6F19
  8
1外形線
 10
59.290531637460113
 20
93.167700582524333
 30
0.0
 11
60.124556637460103
 21
94.916270582524305
 31
0.0
  0
LINE
  5
6F1A
  8
1外形線
 10
61.7098871374601
 20
93.594343082524347
 30
0.0
 11
61.791146137460082
 21
93.764706582524326
 31
0.0
  0
ARC
  5
6F1B
  8
1外形線
 10
63.306599137460069
 20
89.599220082524255
 30
0.0
 40
2.0
 50
27.337743999999901
 51
90.594067754002552
  0
LINE
  5
6F1C
  8
1外形線
 10
61.450004132494598
 20
90.740767369973639
 30
0.0
 11
60.599299637459978
 21
90.145097582524286
 31
0.0
  0
ARC
  5
6F1D
  8
1外形線
 10
49.981875637460057
 20
82.710697082524291
 30
0.0
 40
17.0
 50
26.999998000000051
 51
27.337743999999901
  0
ARC
  5
6F1E
  8
1外形線
 10
63.34697363746006
 20
89.520554582524255
 30
0.0
 40
2.0
 50
342.2529990000001
 51
26.99999999999994
  0
ARC
  5
6F1F
  8
1外形線
 10
61.172876137460037
 20
89.32594558252427
 30
0.0
 40
1.0
 50
125.0
 51
210.5882739999999
  0
LINE
  5
6F20
  8
1外形線
 10
83.607966406785053
 20
91.599219582524256
 30
0.0
 11
95.107966406785053
 21
91.599219582524256
 31
0.0
  0
LINE
  5
6F21
  8
1外形線
 10
79.857966406785067
 20
95.201015082524279
 30
0.0
 11
98.857966406785053
 21
95.201015082524279
 31
0.0
  0
LINE
  5
6F22
  8
1外形線
 10
83.807966406785113
 20
98.210697082524234
 30
0.0
 11
94.907966406785135
 21
98.210697082524234
 31
0.0
  0
LINE
  5
6F23
  8
1外形線
 10
83.607966406785053
 20
95.201015082524279
 30
0.0
 11
83.607966406785053
 21
98.010697082524246
 31
0.0
  0
LINE
  5
6F24
  8
1外形線
 10
79.357966406785067
 20
93.764706582524269
 30
0.0
 11
83.607966406785053
 21
93.764706582524269
 31
0.0
  0
ARC
  5
6F25
  8
1外形線
 10
79.857966406785067
 20
94.701015082524293
 30
0.0
 40
0.5
 50
90.0
 51
180.0
  0
LINE
  5
6F26
  8
1外形線
 10
83.607966406785053
 20
89.563333082524252
 30
0.0
 11
83.607966406785053
 21
91.399219582524267
 31
0.0
  0
ARC
  5
6F27
  8
1外形線
 10
83.807966406785113
 20
98.010697082524246
 30
0.0
 40
0.2
 50
90.0
 51
180.0
  0
LINE
  5
6F28
  8
1外形線
 10
95.107966406785053
 20
95.201015082524279
 30
0.0
 11
95.107966406785053
 21
98.010697082524246
 31
0.0
  0
LINE
  5
6F29
  8
1外形線
 10
95.107966406785053
 20
93.764706582524269
 30
0.0
 11
99.357966406785067
 21
93.764706582524269
 31
0.0
  0
ARC
  5
6F2A
  8
1外形線
 10
98.857966406785053
 20
94.701015082524293
 30
0.0
 40
0.5
 50
0.0
 51
90.0
  0
LINE
  5
6F2B
  8
1外形線
 10
95.107966406785053
 20
89.563333082524252
 30
0.0
 11
95.107966406785053
 21
91.399219582524267
 31
0.0
  0
ARC
  5
6F2C
  8
1外形線
 10
94.907966406785135
 20
98.010697082524246
 30
0.0
 40
0.2
 50
0.0
 51
90.0
  0
ENDSEC
  0
EOF
