  0
SECTION
  2
HEADER
  9
$ACADVER
  1
AC1009
  9
$INSBASE
 10
0.0
 20
0.0
 30
0.0
  9
$EXTMIN
 10
20.44514926073338
 20
-25.750029856048059
 30
-0.0015258207003583
  9
$EXTMAX
 10
615.43703137683963
 20
462.53139940095582
 30
0.0000000349246037
  9
$LIMMIN
 10
0.0
 20
0.0
  9
$LIMMAX
 10
420.0
 20
297.0
  9
$ORTHOMODE
 70
     0
  9
$REGENMODE
 70
     1
  9
$FILLMODE
 70
     1
  9
$QTEXTMODE
 70
     0
  9
$MIRRTEXT
 70
     1
  9
$DRAGMODE
 70
     2
  9
$LTSCALE
 40
1.0
  9
$OSMODE
 70
    37
  9
$ATTMODE
 70
     1
  9
$TEXTSIZE
 40
2.5
  9
$TRACEWID
 40
1.0
  9
$TEXTSTYLE
  7
STANDARD
  9
$CLAYER
  8
0
  9
$CELTYPE
  6
BYLAYER
  9
$CECOLOR
 62
   256
  9
$DIMSCALE
 40
1.0
  9
$DIMASZ
 40
2.5
  9
$DIMEXO
 40
0.625
  9
$DIMDLI
 40
3.75
  9
$DIMRND
 40
0.0
  9
$DIMDLE
 40
0.0
  9
$DIMEXE
 40
1.25
  9
$DIMTP
 40
0.0
  9
$DIMTM
 40
0.0
  9
$DIMTXT
 40
2.5
  9
$DIMCEN
 40
2.5
  9
$DIMTSZ
 40
0.0
  9
$DIMTOL
 70
     0
  9
$DIMLIM
 70
     0
  9
$DIMTIH
 70
     0
  9
$DIMTOH
 70
     0
  9
$DIMSE1
 70
     0
  9
$DIMSE2
 70
     0
  9
$DIMTAD
 70
     1
  9
$DIMZIN
 70
     8
  9
$DIMBLK
  1

  9
$DIMASO
 70
     1
  9
$DIMSHO
 70
     1
  9
$DIMPOST
  1

  9
$DIMAPOST
  1

  9
$DIMALT
 70
     0
  9
$DIMALTD
 70
     3
  9
$DIMALTF
 40
0.03937007874016
  9
$DIMLFAC
 40
1.0
  9
$DIMTOFL
 70
     1
  9
$DIMTVP
 40
0.0
  9
$DIMTIX
 70
     0
  9
$DIMSOXD
 70
     0
  9
$DIMSAH
 70
     0
  9
$DIMBLK1
  1

  9
$DIMBLK2
  1

  9
$DIMSTYLE
  2
ISO-25
  9
$DIMCLRD
 70
     0
  9
$DIMCLRE
 70
     0
  9
$DIMCLRT
 70
     0
  9
$DIMTFAC
 40
1.0
  9
$DIMGAP
 40
0.625
  9
$LUNITS
 70
     2
  9
$LUPREC
 70
     4
  9
$SKETCHINC
 40
1.0
  9
$FILLETRAD
 40
10.0
  9
$AUNITS
 70
     0
  9
$AUPREC
 70
     0
  9
$MENU
  1
.
  9
$ELEVATION
 40
0.0
  9
$PELEVATION
 40
0.0
  9
$THICKNESS
 40
0.0
  9
$LIMCHECK
 70
     0
  9
$BLIPMODE
 70
     0
  9
$CHAMFERA
 40
10.0
  9
$CHAMFERB
 40
10.0
  9
$SKPOLY
 70
     0
  9
$TDCREATE
 40
2452048.587873715
  9
$TDUPDATE
 40
2452048.6302579278
  9
$TDINDWG
 40
0.0423865278
  9
$TDUSRTIMER
 40
0.0423865278
  9
$USRTIMER
 70
     1
  9
$ANGBASE
 50
0.0
  9
$ANGDIR
 70
     0
  9
$PDMODE
 70
     0
  9
$PDSIZE
 40
0.0
  9
$PLINEWID
 40
0.0
  9
$COORDS
 70
     1
  9
$SPLFRAME
 70
     0
  9
$SPLINETYPE
 70
     6
  9
$SPLINESEGS
 70
     8
  9
$ATTDIA
 70
     0
  9
$ATTREQ
 70
     1
  9
$HANDLING
 70
-16383
  9
$HANDSEED
  5
7059
  9
$SURFTAB1
 70
     6
  9
$SURFTAB2
 70
     6
  9
$SURFTYPE
 70
     6
  9
$SURFU
 70
     6
  9
$SURFV
 70
     6
  9
$UCSNAME
  2

  9
$UCSORG
 10
0.0
 20
0.0
 30
0.0
  9
$UCSXDIR
 10
1.0
 20
0.0
 30
0.0
  9
$UCSYDIR
 10
0.0
 20
1.0
 30
0.0
  9
$PUCSNAME
  2

  9
$PUCSORG
 10
0.0
 20
0.0
 30
0.0
  9
$PUCSXDIR
 10
1.0
 20
0.0
 30
0.0
  9
$PUCSYDIR
 10
0.0
 20
1.0
 30
0.0
  9
$USERI1
 70
     0
  9
$USERI2
 70
     0
  9
$USERI3
 70
     0
  9
$USERI4
 70
     0
  9
$USERI5
 70
     0
  9
$USERR1
 40
0.0
  9
$USERR2
 40
0.0
  9
$USERR3
 40
0.0
  9
$USERR4
 40
0.0
  9
$USERR5
 40
0.0
  9
$WORLDVIEW
 70
     1
  9
$SHADEDGE
 70
     3
  9
$SHADEDIF
 70
    70
  9
$TILEMODE
 70
     1
  9
$MAXACTVP
 70
    64
  9
$PLIMCHECK
 70
     0
  9
$PEXTMIN
 10
1.0000000000000000E+020
 20
1.0000000000000000E+020
 30
1.0000000000000000E+020
  9
$PEXTMAX
 10
-1.0000000000000000E+020
 20
-1.0000000000000000E+020
 30
-1.0000000000000000E+020
  9
$PLIMMIN
 10
0.0
 20
0.0
  9
$PLIMMAX
 10
420.0
 20
297.0
  9
$UNITMODE
 70
     0
  9
$VISRETAIN
 70
     1
  9
$PLINEGEN
 70
     0
  9
$PSLTSCALE
 70
     1
  0
ENDSEC
  0
SECTION
  2
TABLES
  0
TABLE
  2
VPORT
 70
    59
  0
VPORT
  2
*ACTIVE
 70
     0
 10
0.0
 20
0.0
 11
1.0
 21
1.0
 12
243.19809294536361
 22
20.724196922940902
 13
0.0
 23
0.0
 14
10.0
 24
10.0
 15
10.0
 25
10.0
 16
0.0
 26
0.0
 36
1.0
 17
0.0
 27
0.0
 37
0.0
 40
1137.7171551220929
 41
0.8452830188679245
 42
50.0
 43
0.0
 44
0.0
 50
0.0
 51
0.0
 71
     0
 72
   100
 73
     1
 74
     3
 75
     0
 76
     0
 77
     0
 78
     0
  0
ENDTAB
  0
TABLE
  2
LTYPE
 70
     1
  0
LTYPE
  2
CONTINUOUS
 70
     0
  3
Solid line
 72
    65
 73
     0
 40
0.0
  0
ENDTAB
  0
TABLE
  2
LAYER
 70
     3
  0
LAYER
  2
0
 70
     0
 62
     7
  6
CONTINUOUS
  0
LAYER
  2
1外形線
 70
     0
 62
     3
  6
CONTINUOUS
  0
LAYER
  2
4太線
 70
     0
 62
     6
  6
CONTINUOUS
  0
ENDTAB
  0
TABLE
  2
STYLE
 70
     2
  0
STYLE
  2
STANDARD
 70
     0
 40
0.0
 41
1.0
 50
0.0
 71
     0
 42
2.5
  3
txt
  4

  0
STYLE
  2
KANJI
 70
     0
 40
0.0
 41
1.0
 50
0.0
 71
     0
 42
10.0
  3
simplex
  4
bigfont
  0
ENDTAB
  0
TABLE
  2
VIEW
 70
     0
  0
ENDTAB
  0
TABLE
  2
UCS
 70
     0
  0
ENDTAB
  0
TABLE
  2
APPID
 70
     1
  0
APPID
  2
ACAD
 70
     0
  0
ENDTAB
  0
TABLE
  2
DIMSTYLE
 70
     2
  0
DIMSTYLE
  2
ISO-25
 70
     0
  3

  4

  5

  6

  7

 40
1.0
 41
2.5
 42
0.625
 43
3.75
 44
1.25
 45
0.0
 46
0.0
 47
0.0
 48
0.0
140
2.5
141
2.5
142
0.0
143
0.03937007874016
144
1.0
145
0.0
146
1.0
147
0.625
 71
     0
 72
     0
 73
     0
 74
     0
 75
     0
 76
     0
 77
     1
 78
     8
170
     0
171
     3
172
     1
173
     0
174
     0
175
     0
176
     0
177
     0
178
     0
  0
DIMSTYLE
  2
STANDARD
 70
     0
  3

  4

  5

  6
1
  7
1
 40
1.0
 41
1.0
 42
1.0
 43
6.0
 44
1.0
 45
0.0
 46
0.0
 47
0.0
 48
0.0
140
2.5
141
0.0
142
0.0
143
25.399999999999999
144
1.0
145
0.0
146
1.0
147
0.5
 71
     0
 72
     0
 73
     0
 74
     0
 75
     0
 76
     0
 77
     1
 78
     8
170
     0
171
     2
172
     1
173
     1
174
     0
175
     0
176
     0
177
     0
178
     0
  0
ENDTAB
  0
ENDSEC
  0
SECTION
  2
BLOCKS
  0
BLOCK
  8
0
  2
$MODEL_SPACE
 70
     0
 10
0.0
 20
0.0
 30
0.0
  3
$MODEL_SPACE
  1

  0
ENDBLK
  5
21
  8
0
  0
BLOCK
 67
     1
  8
0
  2
$PAPER_SPACE
 70
     0
 10
0.0
 20
0.0
 30
0.0
  3
$PAPER_SPACE
  1

  0
ENDBLK
  5
1D
 67
     1
  8
0
  0
BLOCK
  8
0
  2
1
 70
     0
 10
0.0
 20
0.0
 30
0.0
  3
1
  1

  0
SOLID
  5
2C
  8
0
  6
BYBLOCK
 62
     0
 10
-1.811110924292052
 20
0.4852857095671653
 30
0.0
 11
-1.811110924292052
 21
-0.4852857095673642
 31
0.0
 12
0.0
 22
0.0
 32
0.0
 13
0.0
 23
0.0
 33
0.0
  0
ENDBLK
  5
2E
  8
0
  0
ENDSEC
  0
SECTION
  2
ENTITIES
  0
LINE
  5
6FC5
  8
1外形線
 10
126.68059364900139
 20
63.331167010715738
 30
0.0
 11
126.68059364900139
 21
96.917693010715723
 31
0.0
  0
LINE
  5
6FC6
  8
1外形線
 10
131.93059364900139
 20
52.538509010715757
 30
0.0
 11
131.93059364900139
 21
98.021121010715774
 31
0.0
  0
LINE
  5
6FC7
  8
1外形線
 10
112.18059364900139
 20
63.331167010715738
 30
0.0
 11
112.18059364900139
 21
96.917693010715723
 31
0.0
  0
ARC
  5
6FC8
  8
1外形線
 10
65.579992720841886
 20
81.219464010715768
 30
0.0
 40
24.0
 50
312.99999999999972
 51
34.236315999999889
  0
LINE
  5
6FC9
  8
1外形線
 10
106.93059364900139
 20
52.538509010715757
 30
0.0
 11
106.93059364900139
 21
98.021121010715774
 31
0.0
  0
ARC
  5
6FCA
  8
1外形線
 10
46.579992720841908
 20
81.219464010715768
 30
0.0
 40
1.25
 50
95.767911000000183
 51
264.23208899999969
  0
ARC
  5
6FCB
  8
1外形線
 10
84.579992720841886
 20
81.219464010715768
 30
0.0
 40
1.25
 50
275.76791100000008
 51
84.232088999999817
  0
ARC
  5
6FCC
  8
1外形線
 10
65.579992720841886
 20
81.219464010715768
 30
0.0
 40
23.5
 50
165.5224860000001
 51
180.0
  0
ARC
  5
6FCD
  8
1外形線
 10
65.579992720841886
 20
81.219464010715768
 30
0.0
 40
21.499999999999989
 50
292.196101
 51
147.99999980100779
  0
ARC
  5
6FCE
  8
1外形線
 10
65.579992720841886
 20
81.219464010715768
 30
0.0
 40
25.199999999999999
 50
152.9454300000001
 51
186.43061999999989
  0
ARC
  5
6FCF
  8
1外形線
 10
65.579992720841886
 20
81.219464010715768
 30
0.0
 40
21.499999999999989
 50
161.73791800000009
 51
247.8039009999998
  0
ARC
  5
6FD0
  8
1外形線
 10
93.379992720841841
 20
12.35382303547248
 30
0.0
 40
0.2
 50
270.0
 51
0.0
  0
ARC
  5
6FD1
  8
1外形線
 10
50.079992720841879
 20
24.65382303547247
 30
0.0
 40
12.5
 50
180.0
 51
270.0
  0
LINE
  5
6FD2
  8
1外形線
 10
50.079992720841879
 20
12.15382303547247
 30
0.0
 11
93.379992720841841
 21
12.15382303547247
 31
0.0
  0
ARC
  5
6FD3
  8
1外形線
 10
81.079992720841886
 20
24.65382303547247
 30
0.0
 40
12.5
 50
0.0
 51
90.0
  0
ARC
  5
6FD4
  8
1外形線
 10
81.095455720841898
 20
64.581167010715774
 30
0.0
 40
2.25
 50
267.06288099999961
 51
313.00001299999991
  0
ARC
  5
6FD5
  8
1外形線
 10
65.579992720841886
 20
81.219464010715768
 30
0.0
 40
25.0
 50
312.9999989999996
 51
314.81145799999967
  0
LINE
  5
6FD6
  8
1外形線
 10
92.651981720841874
 20
54.80683001071575
 30
0.0
 11
74.008003720841884
 21
56.152483010715748
 31
0.0
  0
LINE
  5
6FD7
  8
1外形線
 10
93.579992720841915
 20
52.538509010715757
 30
0.0
 11
74.079992720841886
 21
53.219464010715768
 31
0.0
  0
ARC
  5
6FD8
  8
1外形線
 10
65.579992720841886
 20
81.219464010715768
 30
0.0
 40
19.0
 50
304.30917900000043
 51
355.69082099999991
  0
LINE
  5
6FD9
  8
1外形線
 10
37.779992720841868
 20
37.15382303547247
 30
0.0
 11
81.079992720841886
 21
37.15382303547247
 31
0.0
  0
LINE
  5
6FDA
  8
1外形線
 10
37.579992720841879
 20
36.953823035472482
 30
0.0
 11
37.579992720841879
 21
24.65382303547247
 31
0.0
  0
ARC
  5
6FDB
  8
1外形線
 10
37.779992720841868
 20
36.953823035472482
 30
0.0
 40
0.2
 50
90.0
 51
180.0
  0
LINE
  5
6FDC
  8
1外形線
 10
61.079992720841886
 20
31.953823035472482
 30
0.0
 11
61.079992720841872
 21
16.853823035472448
 31
0.0
  0
LINE
  5
6FDD
  8
1外形線
 10
57.079992720841886
 20
31.953823035472482
 30
0.0
 11
57.079992720841886
 21
16.85382303547248
 31
0.0
  0
ARC
  5
6FDE
  8
1外形線
 10
60.879992720841869
 20
16.853823035472448
 30
0.0
 40
0.2
 50
270.0
 51
0.0
  0
ARC
  5
6FDF
  8
1外形線
 10
57.279992720841868
 20
16.85382303547248
 30
0.0
 40
0.2
 50
180.0
 51
270.0
  0
LINE
  5
6FE0
  8
1外形線
 10
57.279992720841868
 20
16.65382303547247
 30
0.0
 11
60.879992720841869
 21
16.65382303547247
 31
0.0
  0
CIRCLE
  5
6FE1
  8
1外形線
 10
65.579992720841886
 20
24.65382303547247
 30
0.0
 40
2.1000000000000001
  0
ARC
  5
6FE2
  8
1外形線
 10
57.279992720841868
 20
31.953823035472482
 30
0.0
 40
0.2
 50
90.0
 51
180.0
  0
ARC
  5
6FE3
  8
1外形線
 10
60.879992720841841
 20
31.953823035472482
 30
0.0
 40
0.2
 50
0.0
 51
90.0
  0
LINE
  5
6FE4
  8
1外形線
 10
57.279992720841868
 20
32.15382303547247
 30
0.0
 11
60.879992720841841
 21
32.15382303547247
 31
0.0
  0
LINE
  5
6FE5
  8
1外形線
 10
60.579992720841879
 20
32.15382303547247
 30
0.0
 11
60.879992720841841
 21
32.15382303547247
 31
0.0
  0
ARC
  5
6FE6
  8
1外形線
 10
65.579992720841886
 20
81.219464010715768
 30
0.0
 40
19.0
 50
184.309179
 51
235.6908210000004
  0
LINE
  5
6FE7
  8
1外形線
 10
57.151981720841889
 20
56.152483010715748
 30
0.0
 11
38.508003720841877
 21
54.80683001071575
 31
0.0
  0
LINE
  5
6FE8
  8
1外形線
 10
37.579992720841908
 20
52.538509010715757
 30
0.0
 11
57.079992720841908
 21
53.219464010715768
 31
0.0
  0
LINE
  5
6FE9
  8
1外形線
 10
37.579992720841908
 20
52.538509010715757
 30
0.0
 11
37.579992720841908
 21
53.809425010715742
 31
0.0
  0
ARC
  5
6FEA
  8
1外形線
 10
38.579992720841908
 20
53.809425010715742
 30
0.0
 40
1.0
 50
94.128237999999683
 51
180.0
  0
ARC
  5
6FEB
  8
1外形線
 10
44.061122720841887
 20
77.729734010715774
 30
0.0
 40
0.3
 50
280.00000000000011
 51
9.2115009999998296
  0
ARC
  5
6FEC
  8
1外形線
 10
65.579992720841886
 20
81.219464010715768
 30
0.0
 40
23.5
 50
180.0
 51
181.99999999999989
  0
ARC
  5
6FED
  8
1外形線
 10
43.603596720841857
 20
77.649060010715772
 30
0.0
 40
0.3
 50
203.26963599999999
 51
280.00000000000011
  0
LINE
  5
6FEE
  8
1外形線
 10
42.094308720841887
 20
80.399325010715785
 30
0.0
 11
43.327999720841909
 21
77.530542010715763
 31
0.0
  0
LINE
  5
6FEF
  8
1外形線
 10
44.113216720841912
 20
77.434292010715765
 30
0.0
 11
43.655690720841868
 21
77.353618010715763
 31
0.0
  0
LINE
  5
6FF0
  8
1外形線
 10
42.079992720841886
 20
81.219464010715768
 30
0.0
 11
41.585201720841887
 21
81.219464010715768
 31
0.0
  0
ARC
  5
6FF1
  8
1外形線
 10
40.737287720841891
 20
78.419464010715757
 30
0.0
 40
0.2
 50
186.43061899999981
 51
270.0
  0
ARC
  5
6FF2
  8
1外形線
 10
41.207877720841871
 20
78.719464010715768
 30
0.0
 40
0.5
 50
270.0
 51
95.272040999999888
  0
LINE
  5
6FF3
  8
1外形線
 10
40.737287720841891
 20
78.219464010715768
 30
0.0
 11
41.207877720841871
 21
78.219464010715768
 31
0.0
  0
ARC
  5
6FF4
  8
1外形線
 10
65.579992720841886
 20
81.219464010715768
 30
0.0
 40
24.5
 50
181.193748
 51
184.68737999999999
  0
ARC
  5
6FF5
  8
1外形線
 10
41.585201720841887
 20
80.719464010715754
 30
0.0
 40
0.5
 50
90.0
 51
181.193748
  0
ARC
  5
6FF6
  8
1外形線
 10
46.434269720841883
 20
79.776805010715734
 30
0.0
 40
0.2
 50
4.3091790000000891
 51
84.232088999999817
  0
ARC
  5
6FF7
  8
1外形線
 10
81.095455720841855
 20
64.581167010715774
 30
0.0
 40
1.25
 50
132.99994900000021
 51
313.00001999999989
  0
ARC
  5
6FF8
  8
1外形線
 10
75.079992720841886
 20
64.764981010715758
 30
0.0
 40
1.25
 50
215.76791099999991
 51
24.232089000000151
  0
ARC
  5
6FF9
  8
1外形線
 10
56.079992720841922
 20
64.764981010715758
 30
0.0
 40
1.25
 50
155.7679109999998
 51
324.23208899999997
  0
LINE
  5
6FFA
  8
1外形線
 10
60.779992720841932
 20
55.119464010715767
 30
0.0
 11
70.379992720841841
 21
55.119464010715767
 31
0.0
  0
ARC
  5
6FFB
  8
1外形線
 10
65.579992720841886
 20
81.219464010715768
 30
0.0
 40
19.0
 50
244.3091789999998
 51
295.69082100000008
  0
LINE
  5
6FFC
  8
1外形線
 10
57.079992720841908
 20
53.219464010715768
 30
0.0
 11
74.079992720841886
 21
53.219464010715768
 31
0.0
  0
LINE
  5
6FFD
  8
1外形線
 10
60.579992720841879
 20
55.319464010715791
 30
0.0
 11
60.579992720841879
 21
62.140680010715784
 31
0.0
  0
ARC
  5
6FFE
  8
1外形線
 10
60.779992720841932
 20
55.319464010715791
 30
0.0
 40
0.2
 50
180.0
 51
270.0
  0
ARC
  5
6FFF
  8
1外形線
 10
59.579992720841886
 20
62.140680010715784
 30
0.0
 40
1.0
 50
0.0
 51
72.555382137109603
  0
ARC
  5
7000
  8
1外形線
 10
57.079992720841908
 20
60.38679701071576
 30
0.0
 40
1.0
 50
0.0
 51
67.803898999999987
  0
ARC
  5
7001
  8
1外形線
 10
57.256510720841902
 20
63.917451010715752
 30
0.0
 40
0.2
 50
64.309178999999801
 51
144.232089
  0
ARC
  5
7002
  8
1外形線
 10
57.079992720841908
 20
57.149889010715746
 30
0.0
 40
1.0
 50
274.12823799999961
 51
0.0
  0
LINE
  5
7003
  8
1外形線
 10
58.079992720841922
 20
57.149889010715746
 30
0.0
 11
58.079992720841922
 21
60.38679701071576
 31
0.0
  0
LINE
  5
7004
  8
1外形線
 10
70.579992720841886
 20
55.319464010715791
 30
0.0
 11
70.579992720841886
 21
62.140680010715784
 31
0.0
  0
ARC
  5
7005
  8
1外形線
 10
70.379992720841841
 20
55.319464010715791
 30
0.0
 40
0.2
 50
270.0
 51
0.0
  0
ARC
  5
7006
  8
1外形線
 10
71.579992720841886
 20
62.140680010715784
 30
0.0
 40
1.0
 50
107.4446178628903
 51
180.0
  0
ARC
  5
7007
  8
1外形線
 10
74.079992720841886
 20
60.38679701071576
 30
0.0
 40
1.0
 50
112.196101
 51
180.0
  0
ARC
  5
7008
  8
1外形線
 10
73.903475720841868
 20
63.917451010715752
 30
0.0
 40
0.2
 50
35.767910999999948
 51
115.6908210000002
  0
ARC
  5
7009
  8
1外形線
 10
74.079992720841886
 20
57.149889010715746
 30
0.0
 40
1.0
 50
180.0
 51
265.87176200000022
  0
LINE
  5
700A
  8
1外形線
 10
73.079992720841886
 20
57.149889010715746
 30
0.0
 11
73.079992720841886
 21
60.38679701071576
 31
0.0
  0
ARC
  5
700B
  8
1外形線
 10
81.005785720841885
 20
62.833466010715767
 30
0.0
 40
0.5
 50
87.062881000000417
 51
129.99654099999989
  0
ARC
  5
700C
  8
1外形線
 10
81.005785720841885
 20
62.833466010715767
 30
0.0
 40
0.5
 50
129.99654099999989
 51
267.06288099999961
  0
ARC
  5
700D
  8
1外形線
 10
54.757751720841902
 20
65.360110010715772
 30
0.0
 40
0.2
 50
335.7679109999998
 51
55.690821000000447
  0
ARC
  5
700E
  8
1外形線
 10
76.402233720841878
 20
65.360110010715772
 30
0.0
 40
0.2
 50
124.3091790000004
 51
204.23208900000009
  0
LINE
  5
700F
  8
1外形線
 10
93.579992720841886
 20
24.65382303547247
 30
0.0
 11
93.579992720841886
 21
12.35382303547248
 31
0.0
  0
LINE
  5
7010
  8
1外形線
 10
107.1305936490013
 20
63.331167010715738
 30
0.0
 11
112.18059364900139
 21
63.331167010715738
 31
0.0
  0
LINE
  5
7011
  8
1外形線
 10
107.1305936490013
 20
54.439667010715731
 30
0.0
 11
131.73059364900141
 21
54.439667010715731
 31
0.0
  0
LINE
  5
7012
  8
1外形線
 10
106.93059364900139
 20
52.538509010715757
 30
0.0
 11
131.93059364900139
 21
52.538509010715757
 31
0.0
  0
LINE
  5
7013
  8
1外形線
 10
107.1305936490013
 20
61.070022010715739
 30
0.0
 11
131.73059364900141
 21
61.070022010715739
 31
0.0
  0
ARC
  5
7014
  8
1外形線
 10
81.789843720841901
 20
64.902578010715743
 30
0.0
 40
2.0
 50
314.81145799999967
 51
16.946393473500422
  0
ARC
  5
7015
  8
1外形線
 10
92.579992720841915
 20
53.809425010715742
 30
0.0
 40
1.0
 50
0.0
 51
85.871762000000317
  0
LINE
  5
7016
  8
1外形線
 10
93.579992720841915
 20
52.538509010715757
 30
0.0
 11
93.579992720841915
 21
53.809425010715742
 31
0.0
  0
ARC
  5
7017
  8
1外形線
 10
107.1305936490013
 20
54.239667010715749
 30
0.0
 40
0.2
 50
90.0
 51
180.0
  0
ARC
  5
7018
  8
1外形線
 10
107.1305936490013
 20
63.531167010715741
 30
0.0
 40
0.2
 50
180.0
 51
270.0
  0
ARC
  5
7019
  8
1外形線
 10
107.1305936490013
 20
61.270022010715728
 30
0.0
 40
0.2
 50
180.0
 51
270.0
  0
ARC
  5
701A
  8
1外形線
 10
84.725716720841888
 20
79.776805010715734
 30
0.0
 40
0.2
 50
95.767911000000183
 51
175.69082099999989
  0
LINE
  5
701B
  8
1外形線
 10
113.18059364900139
 20
62.331167010715738
 30
0.0
 11
125.68059364900139
 21
62.331167010715738
 31
0.0
  0
ARC
  5
701C
  8
1外形線
 10
113.18059364900139
 20
63.331167010715738
 30
0.0
 40
1.0
 50
180.0
 51
270.0
  0
ARC
  5
701D
  8
1外形線
 10
131.73059364900141
 20
54.239667010715749
 30
0.0
 40
0.2
 50
0.0
 51
90.0
  0
ARC
  5
701E
  8
1外形線
 10
131.73059364900141
 20
63.531167010715741
 30
0.0
 40
0.2
 50
270.0
 51
0.0
  0
ARC
  5
701F
  8
1外形線
 10
131.73059364900141
 20
61.270022010715728
 30
0.0
 40
0.2
 50
270.0
 51
0.0
  0
ARC
  5
7020
  8
1外形線
 10
125.68059364900139
 20
63.331167010715738
 30
0.0
 40
1.0
 50
270.0
 51
0.0
  0
LINE
  5
7021
  8
1外形線
 10
126.68059364900139
 20
63.331167010715738
 30
0.0
 11
131.73059364900141
 21
63.331167010715738
 31
0.0
  0
LINE
  5
7022
  8
1外形線
 10
112.18059364900139
 20
68.085686010715762
 30
0.0
 11
126.68059364900139
 21
68.085686010715762
 31
0.0
  0
LINE
  5
7023
  8
1外形線
 10
81.904113720841991
 20
95.211357010715759
 30
0.0
 11
83.733934720842015
 21
96.917693010715766
 31
0.0
  0
ARC
  5
7024
  8
1外形線
 10
82.717796720841847
 20
98.021121010715802
 30
0.0
 40
1.0
 50
44.432544000000028
 51
132.99999999999969
  0
ARC
  5
7025
  8
1外形線
 10
83.851146720841896
 20
91.571514010715759
 30
0.0
 40
2.0
 50
125.0
 51
209.53497600000011
  0
ARC
  5
7026
  8
1外形線
 10
65.579992720841886
 20
81.219464010715768
 30
0.0
 40
19.0
 50
4.3091790000000891
 51
29.534976000000121
  0
ARC
  5
7027
  8
1外形線
 10
65.579992720841886
 20
81.219464010715768
 30
0.0
 40
23.5
 50
46.90400899999964
 51
148.09184053865701
  0
ARC
  5
7028
  8
1外形線
 10
65.579992720841886
 20
81.219464010715768
 30
0.0
 40
21.499999999999989
 50
152.49321399999999
 51
156.36419199999989
  0
ARC
  5
7029
  8
1外形線
 10
65.579992720841886
 20
81.219464010715768
 30
0.0
 40
23.699999999999999
 50
154.32293400000029
 51
158.27126000000001
  0
ARC
  5
702A
  8
1外形線
 10
48.110326720841897
 20
90.956545010715757
 30
0.0
 40
1.0
 50
330.86598399999991
 51
58.00000000000027
  0
ARC
  5
702B
  8
1外形線
 10
65.579992720841886
 20
81.219464010715768
 30
0.0
 40
19.0
 50
150.86598399999991
 51
175.69082099999989
  0
ARC
  5
702C
  8
1外形線
 10
44.278584720841877
 20
86.719464010715768
 30
0.0
 40
1.5
 50
90.0
 51
165.52248799999981
  0
LINE
  5
702D
  8
1外形線
 10
44.278584720841877
 20
88.219464010715754
 30
0.0
 11
44.97295572084186
 21
88.219464010715754
 31
0.0
  0
ARC
  5
702E
  8
1外形線
 10
65.579992720841886
 20
81.219464010715768
 30
0.0
 40
21.499999999999989
 50
161.73661743325241
 51
161.7379169999997
  0
ARC
  5
702F
  8
1外形線
 10
44.97295572084186
 20
88.019464010715751
 30
0.0
 40
0.2
 50
341.73791800000009
 51
90.0
  0
ARC
  5
7030
  8
1外形線
 10
43.74973872084189
 20
89.919464010715757
 30
0.0
 40
0.2
 50
158.27126000000001
 51
270.0
  0
ARC
  5
7031
  8
1外形線
 10
45.700355720841877
 20
89.919464010715757
 30
0.0
 40
0.2
 50
270.0
 51
336.36419199999989
  0
LINE
  5
7032
  8
1外形線
 10
43.74973872084189
 20
89.719464010715754
 30
0.0
 11
45.700355720841877
 21
89.719464010715754
 31
0.0
  0
ARC
  5
7033
  8
1外形線
 10
46.434269720841883
 20
82.66212301071576
 30
0.0
 40
0.2
 50
275.76791100000008
 51
355.69082099999991
  0
LINE
  5
7034
  8
1外形線
 10
48.640245720841897
 20
91.804593010715763
 30
0.0
 11
45.978520720841907
 21
93.467823010715733
 31
0.0
  0
ARC
  5
7035
  8
1外形線
 10
45.121605720841899
 20
91.055337010715775
 30
0.0
 40
1.0
 50
58.00000000000027
 51
154.32293400000029
  0
ARC
  5
7036
  8
1外形線
 10
46.333044720841883
 20
91.241688010715762
 30
0.0
 40
0.2
 50
332.49321400000002
 51
58.00000000000027
  0
ARC
  5
7037
  8
1外形線
 10
44.9186827208419
 20
91.771727010715736
 30
0.0
 40
2.0
 50
58.00000000000027
 51
152.9454300000001
  0
LINE
  5
7038
  8
1外形線
 10
46.43902872084189
 20
91.41129801071574
 30
0.0
 11
45.651525720841867
 21
91.903385010715766
 31
0.0
  0
LINE
  5
7039
  8
1外形線
 10
80.169298720841965
 20
97.011935010715774
 30
0.0
 11
82.035798720841825
 21
98.752474010715787
 31
0.0
  0
LINE
  5
703A
  8
1外形線
 10
106.93059364900139
 20
96.917693010715723
 30
0.0
 11
112.18059364900139
 21
96.917693010715723
 31
0.0
  0
LINE
  5
703B
  8
1外形線
 10
107.93059364900139
 20
99.021121010715774
 30
0.0
 11
130.93059364900139
 21
99.021121010715774
 31
0.0
  0
ARC
  5
703C
  8
1外形線
 10
84.725716720841888
 20
82.66212301071576
 30
0.0
 40
0.2
 50
184.309179
 51
264.23208899999969
  0
ARC
  5
703D
  8
1外形線
 10
65.579992720841886
 20
81.219464010715768
 30
0.0
 40
25.0
 50
43.238733000000252
 51
44.432544000000028
  0
ARC
  5
703E
  8
1外形線
 10
65.579992720841886
 20
81.219464010715768
 30
0.0
 40
24.0
 50
34.236315999999889
 51
40.850904999999813
  0
LINE
  5
703F
  8
1外形線
 10
83.733934720842015
 20
96.917693010715766
 30
0.0
 11
83.746127720841827
 21
96.929064010715763
 31
0.0
  0
ARC
  5
7040
  8
1外形線
 10
83.064129720841805
 20
97.660418010715773
 30
0.0
 40
1.0
 50
312.99999999999972
 51
43.238733000000252
  0
LINE
  5
7041
  8
1外形線
 10
82.703993720841893
 20
93.209818010715765
 30
0.0
 11
83.191761965452756
 21
93.551356974676267
 31
0.0
  0
ARC
  5
7042
  8
1外形線
 10
65.579992720841886
 20
81.219464010715768
 30
0.0
 40
25.0
 50
28.19999899999975
 51
30.011458000000179
  0
ARC
  5
7043
  8
1外形線
 10
85.629646720841905
 20
91.969994010715766
 30
0.0
 40
2.25
 50
342.26288100000011
 51
28.200013000000141
  0
ARC
  5
7044
  8
1外形線
 10
87.296458720841883
 20
91.436856010715758
 30
0.0
 40
0.5
 50
294.59971174909907
 51
342.26288100000011
  0
ARC
  5
7045
  8
1外形線
 10
85.496277720841874
 20
92.723447010715745
 30
0.0
 40
2.0
 50
30.011458000000179
 51
92.146387694890421
  0
ARC
  5
7046
  8
1外形線
 10
107.93059364900139
 20
98.021121010715774
 30
0.0
 40
1.0
 50
90.0
 51
180.0
  0
LINE
  5
7047
  8
1外形線
 10
126.68059364900139
 20
99.021121010715774
 30
0.0
 11
126.68059364900139
 21
104.51946401071569
 31
0.0
  0
LINE
  5
7048
  8
1外形線
 10
112.18059364900139
 20
99.021121010715774
 30
0.0
 11
112.18059364900139
 21
104.51946401071569
 31
0.0
  0
LINE
  5
7049
  8
1外形線
 10
112.18059364900139
 20
94.723447010715745
 30
0.0
 11
126.68059364900139
 21
94.723447010715745
 31
0.0
  0
LINE
  5
704A
  8
1外形線
 10
113.18059364900139
 20
90.936856010715729
 30
0.0
 11
125.68059364900139
 21
90.936856010715729
 31
0.0
  0
ARC
  5
704B
  8
1外形線
 10
113.18059364900139
 20
91.936856010715729
 30
0.0
 40
1.0
 50
180.0
 51
270.0
  0
ARC
  5
704C
  8
1外形線
 10
125.68059364900139
 20
91.936856010715729
 30
0.0
 40
1.0
 50
270.0
 51
0.0
  0
LINE
  5
704D
  8
1外形線
 10
126.68059364900139
 20
96.917693010715723
 30
0.0
 11
131.93059364900139
 21
96.917693010715723
 31
0.0
  0
ARC
  5
704E
  8
1外形線
 10
130.93059364900139
 20
98.021121010715774
 30
0.0
 40
1.0
 50
0.0
 51
90.0
  0
LINE
  5
704F
  8
1外形線
 10
112.3805936490013
 20
104.7194640107157
 30
0.0
 11
126.48059364900141
 21
104.7194640107157
 31
0.0
  0
ARC
  5
7050
  8
1外形線
 10
112.3805936490013
 20
104.51946401071569
 30
0.0
 40
0.2
 50
90.0
 51
180.0
  0
ARC
  5
7051
  8
1外形線
 10
126.48059364900141
 20
104.51946401071569
 30
0.0
 40
0.2
 50
0.0
 51
90.0
  0
ENDSEC
  0
EOF
