  0
SECTION
  2
HEADER
  9
$ACADVER
  1
AC1009
  9
$INSBASE
 10
0.0
 20
0.0
 30
0.0
  9
$EXTMIN
 10
35.739819845913139
 20
-25.750029856048059
 30
-0.0015258207003583
  9
$EXTMAX
 10
341.17581131425487
 20
125.0712745616748
 30
0.0000000349246037
  9
$LIMMIN
 10
0.0
 20
0.0
  9
$LIMMAX
 10
420.0
 20
297.0
  9
$ORTHOMODE
 70
     0
  9
$REGENMODE
 70
     1
  9
$FILLMODE
 70
     1
  9
$QTEXTMODE
 70
     0
  9
$MIRRTEXT
 70
     1
  9
$DRAGMODE
 70
     2
  9
$LTSCALE
 40
1.0
  9
$OSMODE
 70
    37
  9
$ATTMODE
 70
     1
  9
$TEXTSIZE
 40
2.5
  9
$TRACEWID
 40
1.0
  9
$TEXTSTYLE
  7
STANDARD
  9
$CLAYER
  8
0
  9
$CELTYPE
  6
BYLAYER
  9
$CECOLOR
 62
   256
  9
$DIMSCALE
 40
1.0
  9
$DIMASZ
 40
2.5
  9
$DIMEXO
 40
0.625
  9
$DIMDLI
 40
3.75
  9
$DIMRND
 40
0.0
  9
$DIMDLE
 40
0.0
  9
$DIMEXE
 40
1.25
  9
$DIMTP
 40
0.0
  9
$DIMTM
 40
0.0
  9
$DIMTXT
 40
2.5
  9
$DIMCEN
 40
2.5
  9
$DIMTSZ
 40
0.0
  9
$DIMTOL
 70
     0
  9
$DIMLIM
 70
     0
  9
$DIMTIH
 70
     0
  9
$DIMTOH
 70
     0
  9
$DIMSE1
 70
     0
  9
$DIMSE2
 70
     0
  9
$DIMTAD
 70
     1
  9
$DIMZIN
 70
     8
  9
$DIMBLK
  1

  9
$DIMASO
 70
     1
  9
$DIMSHO
 70
     1
  9
$DIMPOST
  1

  9
$DIMAPOST
  1

  9
$DIMALT
 70
     0
  9
$DIMALTD
 70
     3
  9
$DIMALTF
 40
0.03937007874016
  9
$DIMLFAC
 40
1.0
  9
$DIMTOFL
 70
     1
  9
$DIMTVP
 40
0.0
  9
$DIMTIX
 70
     0
  9
$DIMSOXD
 70
     0
  9
$DIMSAH
 70
     0
  9
$DIMBLK1
  1

  9
$DIMBLK2
  1

  9
$DIMSTYLE
  2
ISO-25
  9
$DIMCLRD
 70
     0
  9
$DIMCLRE
 70
     0
  9
$DIMCLRT
 70
     0
  9
$DIMTFAC
 40
1.0
  9
$DIMGAP
 40
0.625
  9
$LUNITS
 70
     2
  9
$LUPREC
 70
     4
  9
$SKETCHINC
 40
1.0
  9
$FILLETRAD
 40
10.0
  9
$AUNITS
 70
     0
  9
$AUPREC
 70
     0
  9
$MENU
  1
.
  9
$ELEVATION
 40
0.0
  9
$PELEVATION
 40
0.0
  9
$THICKNESS
 40
0.0
  9
$LIMCHECK
 70
     0
  9
$BLIPMODE
 70
     0
  9
$CHAMFERA
 40
10.0
  9
$CHAMFERB
 40
10.0
  9
$SKPOLY
 70
     0
  9
$TDCREATE
 40
2452048.587873715
  9
$TDUPDATE
 40
2452048.5903185531
  9
$TDINDWG
 40
0.0024453009
  9
$TDUSRTIMER
 40
0.0024453009
  9
$USRTIMER
 70
     1
  9
$ANGBASE
 50
0.0
  9
$ANGDIR
 70
     0
  9
$PDMODE
 70
     0
  9
$PDSIZE
 40
0.0
  9
$PLINEWID
 40
0.0
  9
$COORDS
 70
     1
  9
$SPLFRAME
 70
     0
  9
$SPLINETYPE
 70
     6
  9
$SPLINESEGS
 70
     8
  9
$ATTDIA
 70
     0
  9
$ATTREQ
 70
     1
  9
$HANDLING
 70
-16383
  9
$HANDSEED
  5
3C0
  9
$SURFTAB1
 70
     6
  9
$SURFTAB2
 70
     6
  9
$SURFTYPE
 70
     6
  9
$SURFU
 70
     6
  9
$SURFV
 70
     6
  9
$UCSNAME
  2

  9
$UCSORG
 10
0.0
 20
0.0
 30
0.0
  9
$UCSXDIR
 10
1.0
 20
0.0
 30
0.0
  9
$UCSYDIR
 10
0.0
 20
1.0
 30
0.0
  9
$PUCSNAME
  2

  9
$PUCSORG
 10
0.0
 20
0.0
 30
0.0
  9
$PUCSXDIR
 10
1.0
 20
0.0
 30
0.0
  9
$PUCSYDIR
 10
0.0
 20
1.0
 30
0.0
  9
$USERI1
 70
     0
  9
$USERI2
 70
     0
  9
$USERI3
 70
     0
  9
$USERI4
 70
     0
  9
$USERI5
 70
     0
  9
$USERR1
 40
0.0
  9
$USERR2
 40
0.0
  9
$USERR3
 40
0.0
  9
$USERR4
 40
0.0
  9
$USERR5
 40
0.0
  9
$WORLDVIEW
 70
     1
  9
$SHADEDGE
 70
     3
  9
$SHADEDIF
 70
    70
  9
$TILEMODE
 70
     1
  9
$MAXACTVP
 70
    64
  9
$PLIMCHECK
 70
     0
  9
$PEXTMIN
 10
1.0000000000000000E+020
 20
1.0000000000000000E+020
 30
1.0000000000000000E+020
  9
$PEXTMAX
 10
-1.0000000000000000E+020
 20
-1.0000000000000000E+020
 30
-1.0000000000000000E+020
  9
$PLIMMIN
 10
0.0
 20
0.0
  9
$PLIMMAX
 10
420.0
 20
297.0
  9
$UNITMODE
 70
     0
  9
$VISRETAIN
 70
     1
  9
$PLINEGEN
 70
     0
  9
$PSLTSCALE
 70
     1
  0
ENDSEC
  0
SECTION
  2
TABLES
  0
TABLE
  2
VPORT
 70
     7
  0
VPORT
  2
*ACTIVE
 70
     0
 10
0.0
 20
0.0
 11
1.0
 21
1.0
 12
166.35681071652851
 22
20.724196577187389
 13
0.0
 23
0.0
 14
10.0
 24
10.0
 15
10.0
 25
10.0
 16
0.0
 26
0.0
 36
1.0
 17
0.0
 27
0.0
 37
0.0
 40
1136.324781988588
 41
0.8452830188679245
 42
50.0
 43
0.0
 44
0.0
 50
0.0
 51
0.0
 71
     0
 72
   100
 73
     1
 74
     3
 75
     0
 76
     0
 77
     0
 78
     0
  0
ENDTAB
  0
TABLE
  2
LTYPE
 70
     1
  0
LTYPE
  2
CONTINUOUS
 70
     0
  3
Solid line
 72
    65
 73
     0
 40
0.0
  0
ENDTAB
  0
TABLE
  2
LAYER
 70
     2
  0
LAYER
  2
0
 70
     0
 62
     7
  6
CONTINUOUS
  0
LAYER
  2
1外形線
 70
     0
 62
     3
  6
CONTINUOUS
  0
ENDTAB
  0
TABLE
  2
STYLE
 70
     2
  0
STYLE
  2
STANDARD
 70
     0
 40
0.0
 41
1.0
 50
0.0
 71
     0
 42
2.5
  3
txt
  4

  0
STYLE
  2
KANJI
 70
     0
 40
0.0
 41
1.0
 50
0.0
 71
     0
 42
10.0
  3
simplex
  4
bigfont
  0
ENDTAB
  0
TABLE
  2
VIEW
 70
     0
  0
ENDTAB
  0
TABLE
  2
UCS
 70
     0
  0
ENDTAB
  0
TABLE
  2
APPID
 70
     1
  0
APPID
  2
ACAD
 70
     0
  0
ENDTAB
  0
TABLE
  2
DIMSTYLE
 70
     2
  0
DIMSTYLE
  2
ISO-25
 70
     0
  3

  4

  5

  6

  7

 40
1.0
 41
2.5
 42
0.625
 43
3.75
 44
1.25
 45
0.0
 46
0.0
 47
0.0
 48
0.0
140
2.5
141
2.5
142
0.0
143
0.03937007874016
144
1.0
145
0.0
146
1.0
147
0.625
 71
     0
 72
     0
 73
     0
 74
     0
 75
     0
 76
     0
 77
     1
 78
     8
170
     0
171
     3
172
     1
173
     0
174
     0
175
     0
176
     0
177
     0
178
     0
  0
DIMSTYLE
  2
STANDARD
 70
     0
  3

  4

  5

  6
1
  7
1
 40
1.0
 41
1.0
 42
1.0
 43
6.0
 44
1.0
 45
0.0
 46
0.0
 47
0.0
 48
0.0
140
2.5
141
0.0
142
0.0
143
25.399999999999999
144
1.0
145
0.0
146
1.0
147
0.5
 71
     0
 72
     0
 73
     0
 74
     0
 75
     0
 76
     0
 77
     1
 78
     8
170
     0
171
     2
172
     1
173
     1
174
     0
175
     0
176
     0
177
     0
178
     0
  0
ENDTAB
  0
ENDSEC
  0
SECTION
  2
BLOCKS
  0
BLOCK
  8
0
  2
$MODEL_SPACE
 70
     0
 10
0.0
 20
0.0
 30
0.0
  3
$MODEL_SPACE
  1

  0
ENDBLK
  5
21
  8
0
  0
BLOCK
 67
     1
  8
0
  2
$PAPER_SPACE
 70
     0
 10
0.0
 20
0.0
 30
0.0
  3
$PAPER_SPACE
  1

  0
ENDBLK
  5
1D
 67
     1
  8
0
  0
BLOCK
  8
0
  2
1
 70
     0
 10
0.0
 20
0.0
 30
0.0
  3
1
  1

  0
SOLID
  5
2C
  8
0
  6
BYBLOCK
 62
     0
 10
-1.811110924292052
 20
0.4852857095671653
 30
0.0
 11
-1.811110924292052
 21
-0.4852857095673642
 31
0.0
 12
0.0
 22
0.0
 32
0.0
 13
0.0
 23
0.0
 33
0.0
  0
ENDBLK
  5
2E
  8
0
  0
ENDSEC
  0
SECTION
  2
ENTITIES
  0
LINE
  5
363
  8
1外形線
 10
237.91395903317729
 20
124.86416778048481
 30
0.0
 11
173.8189465952895
 21
124.8641677804862
 31
0.0
  0
LINE
  5
364
  8
1外形線
 10
236.91395903317729
 20
22.864167780480891
 30
0.0
 11
135.9139590331732
 21
22.864167780483619
 31
0.0
  0
ARC
  5
365
  8
1外形線
 10
157.41395903317641
 20
103.3641677804839
 30
0.0
 40
14.5
 50
270.0
 51
359.99999999999829
  0
LINE
  5
366
  8
1外形線
 10
108.8638130278938
 20
109.8766056683972
 30
0.0
 11
108.8638130278931
 21
22.864167780482031
 31
0.0
  0
LINE
  5
367
  8
1外形線
 10
35.863813027893677
 20
109.87660566839401
 30
0.0
 11
35.863813027892888
 21
22.864167780482031
 31
0.0
  0
ARC
  5
368
  8
1外形線
 10
72.363813027894025
 20
52.864167780482092
 30
0.0
 40
36.0
 50
0.945991937339256
 51
179.0540080626607
  0
ARC
  5
369
  8
1外形線
 10
72.363813027894025
 20
52.864167780482092
 30
0.0
 40
34.0
 50
0.9459919373400703
 51
179.0540080626599
  0
LINE
  5
36A
  8
1外形線
 10
93.363813027893798
 20
25.364167780483001
 30
0.0
 11
51.363813027894373
 21
25.36416778048169
 31
0.0
  0
LINE
  5
36B
  8
1外形線
 10
35.863813027892888
 20
22.864167780483282
 30
0.0
 11
108.8638130278931
 21
22.864167780480781
 31
0.0
  0
LINE
  5
36C
  8
1外形線
 10
52.863813027894359
 20
27.36416778048271
 30
0.0
 11
91.863813027893897
 21
27.364167780482649
 31
0.0
  0
LINE
  5
36D
  8
1外形線
 10
35.863540394571139
 20
22.864167780482031
 30
0.0
 11
36.36871975883593
 21
53.458525039898518
 31
0.0
  0
LINE
  5
36E
  8
1外形線
 10
37.863813027893912
 20
22.8641677804818
 30
0.0
 11
38.368447162672616
 21
53.42550519215331
 31
0.0
  0
LINE
  5
36F
  8
1外形線
 10
51.363813027894253
 20
26.485488124040039
 30
0.0
 11
41.66381302789398
 21
26.485488124040039
 31
0.0
  0
LINE
  5
370
  8
1外形線
 10
51.363813027894373
 20
24.364167780480329
 30
0.0
 11
37.888581289569508
 21
24.364167780480329
 31
0.0
  0
LINE
  5
371
  8
1外形線
 10
37.99399014069683
 20
30.747872812436128
 30
0.0
 11
40.098797037131128
 21
32.189247734295122
 31
0.0
  0
LINE
  5
372
  8
1外形線
 10
41.66381302789398
 20
25.985488124045499
 30
0.0
 11
41.66381302789398
 21
31.364167780483172
 31
0.0
  0
ARC
  5
373
  8
1外形線
 10
40.663813027893973
 20
31.364167780483172
 30
0.0
 40
1.0
 50
0.0
 51
124.40340174383989
  0
LINE
  5
374
  8
1外形線
 10
51.363813027894018
 20
28.86416778048277
 30
0.0
 11
52.863813027894253
 21
28.86416778048277
 31
0.0
  0
LINE
  5
375
  8
1外形線
 10
51.363813027894253
 20
28.86416778048277
 30
0.0
 11
51.363813027894253
 21
24.364167780480329
 31
0.0
  0
LINE
  5
376
  8
1外形線
 10
52.863813027894253
 20
28.86416778048277
 30
0.0
 11
52.863813027894253
 21
27.36416778048277
 31
0.0
  0
LINE
  5
377
  8
1外形線
 10
93.363813027893798
 20
24.364167780480329
 30
0.0
 11
106.83904476621851
 21
24.364167780480329
 31
0.0
  0
LINE
  5
378
  8
1外形線
 10
93.363813027893798
 20
26.485488124040039
 30
0.0
 11
103.063813027894
 21
26.485488124040039
 31
0.0
  0
LINE
  5
379
  8
1外形線
 10
93.363813027894025
 20
28.86416778048277
 30
0.0
 11
91.863813027893798
 21
28.86416778048277
 31
0.0
  0
LINE
  5
37A
  8
1外形線
 10
91.863813027893798
 20
28.86416778048277
 30
0.0
 11
91.863813027893798
 21
27.36416778048277
 31
0.0
  0
LINE
  5
37B
  8
1外形線
 10
93.363813027893798
 20
28.86416778048277
 30
0.0
 11
93.363813027893798
 21
24.364167780480329
 31
0.0
  0
LINE
  5
37C
  8
1外形線
 10
108.86408566121671
 20
22.864167780482031
 30
0.0
 11
108.3589062969521
 21
53.458525039898518
 31
0.0
  0
LINE
  5
37D
  8
1外形線
 10
106.863813027894
 20
22.8641677804818
 30
0.0
 11
106.3591788931154
 21
53.42550519215331
 31
0.0
  0
LINE
  5
37E
  8
1外形線
 10
106.7336359150911
 20
30.747872812436128
 30
0.0
 11
104.6288290186569
 21
32.189247734295122
 31
0.0
  0
LINE
  5
37F
  8
1外形線
 10
103.063813027894
 20
25.985488124045499
 30
0.0
 11
103.063813027894
 21
31.364167780483172
 31
0.0
  0
ARC
  5
380
  8
1外形線
 10
104.063813027894
 20
31.364167780483172
 30
0.0
 40
1.0
 50
55.596598256160057
 51
180.0
  0
LINE
  5
381
  8
1外形線
 10
135.9139590331732
 20
22.864167780483619
 30
0.0
 11
135.9139590331736
 21
86.959180218371614
 31
0.0
  0
LINE
  5
382
  8
1外形線
 10
150.90152114526001
 20
88.864167780483854
 30
0.0
 11
157.41395903317641
 21
88.864167780483896
 31
0.0
  0
ARC
  5
383
  8
1外形線
 10
150.9015211452618
 20
-11.135832219516139
 30
0.0
 40
100.0
 50
90.0
 51
95.710593137503864
  0
ARC
  5
384
  8
1外形線
 10
136.9139590331736
 20
86.959180218371614
 30
0.0
 40
1.0
 50
95.710593137503864
 51
180.0
  0
LINE
  5
385
  8
1外形線
 10
140.95114924315871
 20
88.367886801482427
 30
0.0
 11
136.8144553141527
 21
87.954217408581655
 31
0.0
  0
LINE
  5
386
  8
1外形線
 10
106.9588254657818
 20
124.86416778048481
 30
0.0
 11
37.768800590006087
 21
124.8641677804867
 31
0.0
  0
LINE
  5
387
  8
1外形線
 10
36.360094006894769
 20
119.8269775704932
 30
0.0
 11
36.773763399796053
 21
123.96367149950581
 31
0.0
  0
ARC
  5
388
  8
1外形線
 10
135.86381302789351
 20
109.8766056683931
 30
0.0
 40
100.0
 50
174.28940686250041
 51
179.99999999999909
  0
ARC
  5
389
  8
1外形線
 10
37.768800590006087
 20
123.86416778048481
 30
0.0
 40
1.0
 50
90.0
 51
174.28940686250041
  0
LINE
  5
38A
  8
1外形線
 10
108.3675320488924
 20
119.8269775705004
 30
0.0
 11
107.9538626559918
 21
123.96367149950581
 31
0.0
  0
ARC
  5
38B
  8
1外形線
 10
8.8638130278937979
 20
109.876605668398
 30
0.0
 40
100.0
 50
359.9999999999992
 51
5.7105931375010188
  0
ARC
  5
38C
  8
1外形線
 10
106.9588254657818
 20
123.86416778048481
 30
0.0
 40
1.0
 50
5.7105931374995622
 51
90.0
  0
LINE
  5
38D
  8
1外形線
 10
172.41024001217789
 20
119.8269775704988
 30
0.0
 11
172.82390940507901
 21
123.9636714995071
 31
0.0
  0
ARC
  5
38E
  8
1外形線
 10
271.91395903317658
 20
109.87660566839661
 30
0.0
 40
100.0
 50
174.2894068624995
 51
179.9999999999967
  0
LINE
  5
38F
  8
1外形線
 10
171.91395903317661
 20
109.87660566840169
 30
0.0
 11
171.91395903317641
 21
103.3641677804829
 31
0.0
  0
ARC
  5
390
  8
1外形線
 10
173.81894659528899
 20
123.8641677804862
 30
0.0
 40
1.0
 50
90.0
 51
174.28940686249729
  0
LINE
  5
391
  8
1外形線
 10
268.05181813227432
 20
109.87660566839401
 30
0.0
 11
268.05181813227352
 21
22.864167780482031
 31
0.0
  0
LINE
  5
392
  8
1外形線
 10
341.05181813227438
 20
109.8766056683972
 30
0.0
 11
341.0518181322737
 21
22.864167780482031
 31
0.0
  0
LINE
  5
393
  8
1外形線
 10
339.05181813227449
 20
124.86416778048491
 30
0.0
 11
339.0518181322737
 21
22.86416778048206
 31
0.0
  0
LINE
  5
394
  8
1外形線
 10
270.05181813227438
 20
124.8641677804867
 30
0.0
 11
270.05181813227352
 21
22.864167780481999
 31
0.0
  0
LINE
  5
395
  8
1外形線
 10
237.91395903317729
 20
23.864167780480901
 30
0.0
 11
237.91395903317729
 21
124.86416778048481
 31
0.0
  0
LINE
  5
396
  8
1外形線
 10
336.75181813227391
 20
69.864167780480983
 30
0.0
 11
336.7518181322738
 21
107.36416778048169
 31
0.0
  0
LINE
  5
397
  8
1外形線
 10
272.35181813227541
 20
69.864167780480983
 30
0.0
 11
272.35181813227553
 21
107.36416778048169
 31
0.0
  0
LINE
  5
398
  8
1外形線
 10
341.05181813227358
 20
22.864167780482031
 30
0.0
 11
268.05181813227341
 21
22.864167780482031
 31
0.0
  0
LINE
  5
399
  8
1外形線
 10
272.35181813227541
 20
76.464167780483052
 30
0.0
 11
270.05181813227381
 21
77.405076871391458
 31
0.0
  0
LINE
  5
39A
  8
1外形線
 10
270.05181813227392
 20
69.864167780480955
 30
0.0
 11
272.35181813227553
 21
69.864167780480983
 31
0.0
  0
ARC
  5
39B
  8
1外形線
 10
236.91395903317729
 20
23.864167780480901
 30
0.0
 40
1.0
 50
270.0
 51
0.0
  0
ARC
  5
39C
  8
1外形線
 10
304.5518181322746
 20
89.764167780489657
 30
0.0
 40
2.1000000000000001
 50
0.0
 51
180.0
  0
ARC
  5
39D
  8
1外形線
 10
304.5518181322746
 20
85.964167780489589
 30
0.0
 40
2.1000000000000001
 50
180.0
 51
0.0
  0
ARC
  5
39E
  8
1外形線
 10
284.5518181322746
 20
89.764167780489657
 30
0.0
 40
2.1000000000000001
 50
0.0
 51
180.0
  0
LINE
  5
39F
  8
1外形線
 10
286.6518181322748
 20
89.764167780489657
 30
0.0
 11
286.6518181322748
 21
85.964167780489589
 31
0.0
  0
LINE
  5
3A0
  8
1外形線
 10
282.4518181322747
 20
89.764167780489544
 30
0.0
 11
282.45181813227452
 21
85.964167780489589
 31
0.0
  0
ARC
  5
3A1
  8
1外形線
 10
284.5518181322746
 20
85.964167780489589
 30
0.0
 40
2.1000000000000001
 50
180.0
 51
0.0
  0
LINE
  5
3A2
  8
1外形線
 10
302.4518181322747
 20
89.764167780489544
 30
0.0
 11
302.45181813227452
 21
85.964167780489589
 31
0.0
  0
LINE
  5
3A3
  8
1外形線
 10
339.05181813227398
 20
69.864167780480955
 30
0.0
 11
336.7518181322738
 21
69.864167780480983
 31
0.0
  0
LINE
  5
3A4
  8
1外形線
 10
336.75181813227391
 20
76.464167780483052
 30
0.0
 11
339.05181813227398
 21
77.405076871390889
 31
0.0
  0
ARC
  5
3A5
  8
1外形線
 10
324.5518181322746
 20
89.764167780489657
 30
0.0
 40
2.1000000000000001
 50
0.0
 51
180.0
  0
ARC
  5
3A6
  8
1外形線
 10
324.5518181322746
 20
85.964167780489589
 30
0.0
 40
2.1000000000000001
 50
180.0
 51
0.0
  0
LINE
  5
3A7
  8
1外形線
 10
306.6518181322748
 20
89.764167780489657
 30
0.0
 11
306.6518181322748
 21
85.964167780489589
 31
0.0
  0
LINE
  5
3A8
  8
1外形線
 10
322.4518181322747
 20
89.764167780489544
 30
0.0
 11
322.45181813227452
 21
85.964167780489589
 31
0.0
  0
LINE
  5
3A9
  8
1外形線
 10
326.65181813227468
 20
89.764167780489657
 30
0.0
 11
326.65181813227468
 21
85.964167780489589
 31
0.0
  0
ARC
  5
3AA
  8
1外形線
 10
339.14683057016248
 20
123.86416778048481
 30
0.0
 40
1.0
 50
5.7105931374995622
 51
90.0
  0
LINE
  5
3AB
  8
1外形線
 10
339.14683057016248
 20
124.86416778048481
 30
0.0
 11
269.95680569438667
 21
124.8641677804867
 31
0.0
  0
LINE
  5
3AC
  8
1外形線
 10
270.05181813227409
 20
108.8641677804883
 30
0.0
 11
283.55181813227478
 21
108.8641677804883
 31
0.0
  0
LINE
  5
3AD
  8
1外形線
 10
270.05181813227409
 20
107.36416778048169
 30
0.0
 11
339.05181813227432
 21
107.36416778048159
 31
0.0
  0
LINE
  5
3AE
  8
1外形線
 10
268.54809911127541
 20
119.8269775704932
 30
0.0
 11
268.96176850417669
 21
123.96367149950581
 31
0.0
  0
ARC
  5
3AF
  8
1外形線
 10
368.05181813227421
 20
109.8766056683931
 30
0.0
 40
100.0
 50
174.28940686250041
 51
179.99999999999909
  0
ARC
  5
3B0
  8
1外形線
 10
269.95680569438667
 20
123.86416778048481
 30
0.0
 40
1.0
 50
90.0
 51
174.28940686250041
  0
LINE
  5
3B1
  8
1外形線
 10
283.55181813227472
 20
109.8641677804837
 30
0.0
 11
325.55181813227449
 21
109.8641677804837
 31
0.0
  0
LINE
  5
3B2
  8
1外形線
 10
283.55181813227478
 20
108.8641677804883
 30
0.0
 11
283.5518181322746
 21
123.8641677804883
 31
0.0
  0
ARC
  5
3B3
  8
1外形線
 10
284.55181813227512
 20
123.8641677804883
 30
0.0
 40
1.0
 50
90.0
 51
180.0
  0
LINE
  5
3B4
  8
1外形線
 10
325.55181813227449
 20
108.8641677804883
 30
0.0
 11
325.5518181322746
 21
123.8641677804883
 31
0.0
  0
LINE
  5
3B5
  8
1外形線
 10
339.05181813227432
 20
108.8641677804883
 30
0.0
 11
325.55181813227432
 21
108.8641677804883
 31
0.0
  0
ARC
  5
3B6
  8
1外形線
 10
324.55181813227421
 20
123.8641677804883
 30
0.0
 40
1.0
 50
0.0
 51
90.0
  0
LINE
  5
3B7
  8
1外形線
 10
340.55553715327312
 20
119.8269775705004
 30
0.0
 11
340.14186776037252
 21
123.96367149950581
 31
0.0
  0
ARC
  5
3B8
  8
1外形線
 10
241.05181813227441
 20
109.876605668398
 30
0.0
 40
100.0
 50
359.9999999999992
 51
5.7105931375010188
  0
ENDSEC
  0
EOF
