  0
SECTION
  2
HEADER
  9
$ACADVER
  1
AC1009
  9
$INSBASE
 10
0.0
 20
0.0
 30
0.0
  9
$EXTMIN
 10
35.739819845913139
 20
-25.750029856048059
 30
-0.0015258207003583
  9
$EXTMAX
 10
410.02066347332948
 20
186.25841171300181
 30
0.0000000349246037
  9
$LIMMIN
 10
0.0
 20
0.0
  9
$LIMMAX
 10
420.0
 20
297.0
  9
$ORTHOMODE
 70
     0
  9
$REGENMODE
 70
     1
  9
$FILLMODE
 70
     1
  9
$QTEXTMODE
 70
     0
  9
$MIRRTEXT
 70
     1
  9
$DRAGMODE
 70
     2
  9
$LTSCALE
 40
1.0
  9
$OSMODE
 70
    37
  9
$ATTMODE
 70
     1
  9
$TEXTSIZE
 40
2.5
  9
$TRACEWID
 40
1.0
  9
$TEXTSTYLE
  7
STANDARD
  9
$CLAYER
  8
0
  9
$CELTYPE
  6
BYLAYER
  9
$CECOLOR
 62
   256
  9
$DIMSCALE
 40
1.0
  9
$DIMASZ
 40
2.5
  9
$DIMEXO
 40
0.625
  9
$DIMDLI
 40
3.75
  9
$DIMRND
 40
0.0
  9
$DIMDLE
 40
0.0
  9
$DIMEXE
 40
1.25
  9
$DIMTP
 40
0.0
  9
$DIMTM
 40
0.0
  9
$DIMTXT
 40
2.5
  9
$DIMCEN
 40
2.5
  9
$DIMTSZ
 40
0.0
  9
$DIMTOL
 70
     0
  9
$DIMLIM
 70
     0
  9
$DIMTIH
 70
     0
  9
$DIMTOH
 70
     0
  9
$DIMSE1
 70
     0
  9
$DIMSE2
 70
     0
  9
$DIMTAD
 70
     1
  9
$DIMZIN
 70
     8
  9
$DIMBLK
  1

  9
$DIMASO
 70
     1
  9
$DIMSHO
 70
     1
  9
$DIMPOST
  1

  9
$DIMAPOST
  1

  9
$DIMALT
 70
     0
  9
$DIMALTD
 70
     3
  9
$DIMALTF
 40
0.03937007874016
  9
$DIMLFAC
 40
1.0
  9
$DIMTOFL
 70
     1
  9
$DIMTVP
 40
0.0
  9
$DIMTIX
 70
     0
  9
$DIMSOXD
 70
     0
  9
$DIMSAH
 70
     0
  9
$DIMBLK1
  1

  9
$DIMBLK2
  1

  9
$DIMSTYLE
  2
ISO-25
  9
$DIMCLRD
 70
     0
  9
$DIMCLRE
 70
     0
  9
$DIMCLRT
 70
     0
  9
$DIMTFAC
 40
1.0
  9
$DIMGAP
 40
0.625
  9
$LUNITS
 70
     2
  9
$LUPREC
 70
     4
  9
$SKETCHINC
 40
1.0
  9
$FILLETRAD
 40
10.0
  9
$AUNITS
 70
     0
  9
$AUPREC
 70
     0
  9
$MENU
  1
.
  9
$ELEVATION
 40
0.0
  9
$PELEVATION
 40
0.0
  9
$THICKNESS
 40
0.0
  9
$LIMCHECK
 70
     0
  9
$BLIPMODE
 70
     0
  9
$CHAMFERA
 40
10.0
  9
$CHAMFERB
 40
10.0
  9
$SKPOLY
 70
     0
  9
$TDCREATE
 40
2452048.587873715
  9
$TDUPDATE
 40
2452048.5929642469
  9
$TDINDWG
 40
0.0050911111
  9
$TDUSRTIMER
 40
0.0050911111
  9
$USRTIMER
 70
     1
  9
$ANGBASE
 50
0.0
  9
$ANGDIR
 70
     0
  9
$PDMODE
 70
     0
  9
$PDSIZE
 40
0.0
  9
$PLINEWID
 40
0.0
  9
$COORDS
 70
     1
  9
$SPLFRAME
 70
     0
  9
$SPLINETYPE
 70
     6
  9
$SPLINESEGS
 70
     8
  9
$ATTDIA
 70
     0
  9
$ATTREQ
 70
     1
  9
$HANDLING
 70
-16383
  9
$HANDSEED
  5
8DB
  9
$SURFTAB1
 70
     6
  9
$SURFTAB2
 70
     6
  9
$SURFTYPE
 70
     6
  9
$SURFU
 70
     6
  9
$SURFV
 70
     6
  9
$UCSNAME
  2

  9
$UCSORG
 10
0.0
 20
0.0
 30
0.0
  9
$UCSXDIR
 10
1.0
 20
0.0
 30
0.0
  9
$UCSYDIR
 10
0.0
 20
1.0
 30
0.0
  9
$PUCSNAME
  2

  9
$PUCSORG
 10
0.0
 20
0.0
 30
0.0
  9
$PUCSXDIR
 10
1.0
 20
0.0
 30
0.0
  9
$PUCSYDIR
 10
0.0
 20
1.0
 30
0.0
  9
$USERI1
 70
     0
  9
$USERI2
 70
     0
  9
$USERI3
 70
     0
  9
$USERI4
 70
     0
  9
$USERI5
 70
     0
  9
$USERR1
 40
0.0
  9
$USERR2
 40
0.0
  9
$USERR3
 40
0.0
  9
$USERR4
 40
0.0
  9
$USERR5
 40
0.0
  9
$WORLDVIEW
 70
     1
  9
$SHADEDGE
 70
     3
  9
$SHADEDIF
 70
    70
  9
$TILEMODE
 70
     1
  9
$MAXACTVP
 70
    64
  9
$PLIMCHECK
 70
     0
  9
$PEXTMIN
 10
1.0000000000000000E+020
 20
1.0000000000000000E+020
 30
1.0000000000000000E+020
  9
$PEXTMAX
 10
-1.0000000000000000E+020
 20
-1.0000000000000000E+020
 30
-1.0000000000000000E+020
  9
$PLIMMIN
 10
0.0
 20
0.0
  9
$PLIMMAX
 10
420.0
 20
297.0
  9
$UNITMODE
 70
     0
  9
$VISRETAIN
 70
     1
  9
$PLINEGEN
 70
     0
  9
$PSLTSCALE
 70
     1
  0
ENDSEC
  0
SECTION
  2
TABLES
  0
TABLE
  2
VPORT
 70
    14
  0
VPORT
  2
*ACTIVE
 70
     0
 10
0.0
 20
0.0
 11
1.0
 21
1.0
 12
166.35681071652851
 22
20.724196577187389
 13
0.0
 23
0.0
 14
10.0
 24
10.0
 15
10.0
 25
10.0
 16
0.0
 26
0.0
 36
1.0
 17
0.0
 27
0.0
 37
0.0
 40
1136.324781988588
 41
0.8452830188679245
 42
50.0
 43
0.0
 44
0.0
 50
0.0
 51
0.0
 71
     0
 72
   100
 73
     1
 74
     3
 75
     0
 76
     0
 77
     0
 78
     0
  0
ENDTAB
  0
TABLE
  2
LTYPE
 70
     1
  0
LTYPE
  2
CONTINUOUS
 70
     0
  3
Solid line
 72
    65
 73
     0
 40
0.0
  0
ENDTAB
  0
TABLE
  2
LAYER
 70
     2
  0
LAYER
  2
0
 70
     0
 62
     7
  6
CONTINUOUS
  0
LAYER
  2
1外形線
 70
     0
 62
     3
  6
CONTINUOUS
  0
ENDTAB
  0
TABLE
  2
STYLE
 70
     2
  0
STYLE
  2
STANDARD
 70
     0
 40
0.0
 41
1.0
 50
0.0
 71
     0
 42
2.5
  3
txt
  4

  0
STYLE
  2
KANJI
 70
     0
 40
0.0
 41
1.0
 50
0.0
 71
     0
 42
10.0
  3
simplex
  4
bigfont
  0
ENDTAB
  0
TABLE
  2
VIEW
 70
     0
  0
ENDTAB
  0
TABLE
  2
UCS
 70
     0
  0
ENDTAB
  0
TABLE
  2
APPID
 70
     1
  0
APPID
  2
ACAD
 70
     0
  0
ENDTAB
  0
TABLE
  2
DIMSTYLE
 70
     2
  0
DIMSTYLE
  2
ISO-25
 70
     0
  3

  4

  5

  6

  7

 40
1.0
 41
2.5
 42
0.625
 43
3.75
 44
1.25
 45
0.0
 46
0.0
 47
0.0
 48
0.0
140
2.5
141
2.5
142
0.0
143
0.03937007874016
144
1.0
145
0.0
146
1.0
147
0.625
 71
     0
 72
     0
 73
     0
 74
     0
 75
     0
 76
     0
 77
     1
 78
     8
170
     0
171
     3
172
     1
173
     0
174
     0
175
     0
176
     0
177
     0
178
     0
  0
DIMSTYLE
  2
STANDARD
 70
     0
  3

  4

  5

  6
1
  7
1
 40
1.0
 41
1.0
 42
1.0
 43
6.0
 44
1.0
 45
0.0
 46
0.0
 47
0.0
 48
0.0
140
2.5
141
0.0
142
0.0
143
25.399999999999999
144
1.0
145
0.0
146
1.0
147
0.5
 71
     0
 72
     0
 73
     0
 74
     0
 75
     0
 76
     0
 77
     1
 78
     8
170
     0
171
     2
172
     1
173
     1
174
     0
175
     0
176
     0
177
     0
178
     0
  0
ENDTAB
  0
ENDSEC
  0
SECTION
  2
BLOCKS
  0
BLOCK
  8
0
  2
$MODEL_SPACE
 70
     0
 10
0.0
 20
0.0
 30
0.0
  3
$MODEL_SPACE
  1

  0
ENDBLK
  5
21
  8
0
  0
BLOCK
 67
     1
  8
0
  2
$PAPER_SPACE
 70
     0
 10
0.0
 20
0.0
 30
0.0
  3
$PAPER_SPACE
  1

  0
ENDBLK
  5
1D
 67
     1
  8
0
  0
BLOCK
  8
0
  2
1
 70
     0
 10
0.0
 20
0.0
 30
0.0
  3
1
  1

  0
SOLID
  5
2C
  8
0
  6
BYBLOCK
 62
     0
 10
-1.811110924292052
 20
0.4852857095671653
 30
0.0
 11
-1.811110924292052
 21
-0.4852857095673642
 31
0.0
 12
0.0
 22
0.0
 32
0.0
 13
0.0
 23
0.0
 33
0.0
  0
ENDBLK
  5
2E
  8
0
  0
ENDSEC
  0
SECTION
  2
ENTITIES
  0
LINE
  5
876
  8
1外形線
 10
104.6522331892854
 20
33.004139280204861
 30
0.0
 11
147.05223318928509
 21
33.004139280203503
 31
0.0
  0
LINE
  5
877
  8
1外形線
 10
150.25223318928491
 20
74.004139280213494
 30
0.0
 11
101.4522331892843
 21
74.00413928021328
 31
0.0
  0
LINE
  5
878
  8
1外形線
 10
87.00277438051728
 20
86.355302698460378
 30
0.0
 11
87.00277438051728
 21
135.15530269846101
 31
0.0
  0
LINE
  5
879
  8
1外形線
 10
82.002774380517508
 20
86.355302698459994
 30
0.0
 11
82.00277438051728
 21
135.1553026984605
 31
0.0
  0
LINE
  5
87A
  8
1外形線
 10
46.002774380508868
 20
131.95530269845941
 30
0.0
 11
46.002774380507503
 21
89.555302698459784
 31
0.0
  0
LINE
  5
87B
  8
1外形線
 10
103.6522331892856
 20
32.004139280203503
 30
0.0
 11
103.6522331892851
 21
25.208752149775929
 31
0.0
  0
LINE
  5
87C
  8
1外形線
 10
101.4522331892825
 20
26.504139280208499
 30
0.0
 11
101.4522331892846
 21
74.00413928021328
 31
0.0
  0
LINE
  5
87D
  8
1外形線
 10
87.002774380516485
 20
25.004139280203269
 30
0.0
 11
87.002774380516485
 21
73.00413928021328
 31
0.0
  0
LINE
  5
87E
  8
1外形線
 10
82.002774380516456
 20
25.004139280203049
 30
0.0
 11
82.002774380517991
 21
74.00413928021328
 31
0.0
  0
LINE
  5
87F
  8
1外形線
 10
82.002774380516485
 20
25.004139280203269
 30
0.0
 11
87.002774380516485
 21
25.004139280203269
 31
0.0
  0
ARC
  5
880
  8
1外形線
 10
103.3664467516609
 20
26.004139280203511
 30
0.0
 40
1.0
 50
225.00000000000111
 51
276.15583727085021
  0
LINE
  5
881
  8
1外形線
 10
101.4522331892875
 20
26.5041392802035
 30
0.0
 11
102.65933997047441
 21
25.297032499016829
 31
0.0
  0
ARC
  5
882
  8
1外形線
 10
103.4522331892851
 20
25.208752149775709
 30
0.0
 40
0.2
 50
276.15583727085271
 51
0.0000000000651378
  0
LINE
  5
883
  8
1外形線
 10
57.00277438051728
 20
90.155302698459437
 30
0.0
 11
70.002774380517494
 21
90.155302698459479
 31
0.0
  0
ARC
  5
884
  8
1外形線
 10
69.002774380517508
 20
75.004139280211206
 30
0.0
 40
1.0
 50
0.0000000000044782
 51
90.000000000004064
  0
LINE
  5
885
  8
1外形線
 10
57.00277438051728
 20
88.955302698459434
 30
0.0
 11
70.002774380517494
 21
88.955302698459491
 31
0.0
  0
LINE
  5
886
  8
1外形線
 10
38.002774380508413
 20
69.004139280212144
 30
0.0
 11
82.002774380517735
 21
69.00413928021328
 31
0.0
  0
LINE
  5
887
  8
1外形線
 10
38.002774380507951
 20
74.004139280212144
 30
0.0
 11
86.002774380516669
 21
74.004139280213394
 31
0.0
  0
LINE
  5
888
  8
1外形線
 10
39.502774380507503
 20
86.355302698461799
 30
0.0
 11
87.00277438051728
 21
86.355302698459766
 31
0.0
  0
LINE
  5
889
  8
1外形線
 10
38.002774380508413
 20
69.004139280212144
 30
0.0
 11
38.002774380507951
 21
74.004139280212144
 31
0.0
  0
LINE
  5
88A
  8
1外形線
 10
45.002774380507503
 20
88.555302698459798
 30
0.0
 11
38.207387250079933
 21
88.555302698459329
 31
0.0
  0
LINE
  5
88B
  8
1外形線
 10
39.502774380507503
 20
86.355302698461756
 30
0.0
 11
38.295667599320829
 21
87.562409479648665
 31
0.0
  0
ARC
  5
88C
  8
1外形線
 10
39.002774380507503
 20
88.269516260835175
 30
0.0
 40
1.0
 50
173.8441627291497
 51
224.99999999999889
  0
ARC
  5
88D
  8
1外形線
 10
38.207387250079698
 20
88.355302698459354
 30
0.0
 40
0.2
 50
89.999999999934857
 51
173.84416272914751
  0
ARC
  5
88E
  8
1外形線
 10
45.002774380507503
 20
89.555302698459741
 30
0.0
 40
1.0
 50
270.00000000000159
 51
359.9999999999979
  0
LINE
  5
88F
  8
1外形線
 10
58.002774380516833
 20
76.004139280210694
 30
0.0
 11
69.002774380517508
 21
76.004139280211675
 31
0.0
  0
ARC
  5
890
  8
1外形線
 10
58.002774380516833
 20
75.004139280210751
 30
0.0
 40
1.0
 50
90.000000000004064
 51
180.00000000000441
  0
LINE
  5
891
  8
1外形線
 10
57.002774380517053
 20
74.004139280210779
 30
0.0
 11
57.002774380516819
 21
75.004139280210779
 31
0.0
  0
LINE
  5
892
  8
1外形線
 10
57.002774380517053
 20
90.155302698459437
 30
0.0
 11
57.002774380517508
 21
88.955302698459477
 31
0.0
  0
LINE
  5
893
  8
1外形線
 10
89.002774380516485
 20
45.004139280213053
 30
0.0
 11
89.002774380516485
 21
56.00413928021328
 31
0.0
  0
ARC
  5
894
  8
1外形線
 10
88.002774380516698
 20
45.00413928021306
 30
0.0
 40
1.0
 50
269.9999999999996
 51
0.0
  0
LINE
  5
895
  8
1外形線
 10
87.002774380516485
 20
44.004139280213053
 30
0.0
 11
88.002774380516485
 21
44.004139280213053
 31
0.0
  0
LINE
  5
896
  8
1外形線
 10
87.002774380516485
 20
57.00413928021328
 30
0.0
 11
88.002774380516598
 21
57.00413928021328
 31
0.0
  0
ARC
  5
897
  8
1外形線
 10
88.002774380516698
 20
56.004139280213288
 30
0.0
 40
1.0
 50
0.0
 51
89.999999999999588
  0
LINE
  5
898
  8
1外形線
 10
105.25223318928521
 20
44.00413928021328
 30
0.0
 11
105.25223318928521
 21
57.004139280213508
 31
0.0
  0
LINE
  5
899
  8
1外形線
 10
104.0522331892852
 20
44.00413928021328
 30
0.0
 11
104.0522331892852
 21
57.004139280213508
 31
0.0
  0
ARC
  5
89A
  8
1外形線
 10
104.6522331892855
 20
32.004139280204882
 30
0.0
 40
1.0
 50
89.999999999997968
 51
179.9999999999998
  0
LINE
  5
89B
  8
1外形線
 10
105.25223318928521
 20
44.004139280213053
 30
0.0
 11
104.0522331892852
 21
44.00413928021328
 31
0.0
  0
LINE
  5
89C
  8
1外形線
 10
105.25223318928521
 20
57.004139280213508
 30
0.0
 11
104.0522331892852
 21
57.00413928021328
 31
0.0
  0
LINE
  5
89D
  8
1外形線
 10
70.002774380517494
 20
74.004139280211234
 30
0.0
 11
70.002774380517494
 21
75.004139280211234
 31
0.0
  0
ARC
  5
89E
  8
1外形線
 10
86.002774380516712
 20
73.00413928021328
 30
0.0
 40
1.0
 50
0.0
 51
90.0
  0
LINE
  5
89F
  8
1外形線
 10
70.002774380517494
 20
90.155302698459479
 30
0.0
 11
70.00277438051728
 21
88.955302698459491
 31
0.0
  0
LINE
  5
8A0
  8
1外形線
 10
89.002774380517295
 20
90.155302698460332
 30
0.0
 11
89.002774380517295
 21
88.955302698460883
 31
0.0
  0
LINE
  5
8A1
  8
1外形線
 10
89.002774380517295
 20
90.155302698460787
 30
0.0
 11
87.00277438051728
 21
90.155302698460332
 31
0.0
  0
LINE
  5
8A2
  8
1外形線
 10
89.002774380517295
 20
88.955302698460883
 30
0.0
 11
87.002774380517565
 21
88.955302698460287
 31
0.0
  0
LINE
  5
8A3
  8
1外形線
 10
105.2522331892859
 20
76.004139280213522
 30
0.0
 11
105.25223318928541
 21
74.004139280213522
 31
0.0
  0
LINE
  5
8A4
  8
1外形線
 10
104.052233189286
 20
76.004139280213522
 30
0.0
 11
104.0522331892854
 21
74.004139280213806
 31
0.0
  0
LINE
  5
8A5
  8
1外形線
 10
105.25223318928541
 20
76.004139280213522
 30
0.0
 11
104.052233189286
 21
76.004139280213522
 31
0.0
  0
LINE
  5
8A6
  8
1外形線
 10
57.00277438051728
 20
131.35530269845961
 30
0.0
 11
70.002774380517494
 21
131.35530269845961
 31
0.0
  0
LINE
  5
8A7
  8
1外形線
 10
57.00277438051728
 20
132.5553026984596
 30
0.0
 11
70.002774380517494
 21
132.5553026984596
 31
0.0
  0
LINE
  5
8A8
  8
1外形線
 10
39.502774380512498
 20
135.15530269846241
 30
0.0
 11
87.00277438051728
 21
135.1553026984603
 31
0.0
  0
LINE
  5
8A9
  8
1外形線
 10
67.852264123291093
 20
111.2553026984595
 30
0.0
 11
80.502774380517735
 21
111.2553026984595
 31
0.0
  0
LINE
  5
8AA
  8
1外形線
 10
67.852264123291093
 20
110.2553026984595
 30
0.0
 11
80.502774380517735
 21
110.2553026984595
 31
0.0
  0
LINE
  5
8AB
  8
1外形線
 10
47.50277438050545
 20
110.2553026984596
 30
0.0
 11
59.153284637724603
 21
110.25530269846
 31
0.0
  0
LINE
  5
8AC
  8
1外形線
 10
47.50277438050545
 20
111.2553026984591
 30
0.0
 11
59.153284637724603
 21
111.2553026984591
 31
0.0
  0
ARC
  5
8AD
  8
1外形線
 10
47.50277438050545
 20
110.7553026984595
 30
0.0
 40
0.4999999999999006
 50
90.000000000003254
 51
270.0
  0
LINE
  5
8AE
  8
1外形線
 10
65.402774380507822
 20
113.2553026984597
 30
0.0
 11
61.602774380507867
 21
113.2553026984597
 31
0.0
  0
LINE
  5
8AF
  8
1外形線
 10
61.602774380507867
 20
108.2553026984596
 30
0.0
 11
65.402774380507822
 21
108.2553026984596
 31
0.0
  0
ARC
  5
8B0
  8
1外形線
 10
61.602774380507867
 20
110.7553026984595
 30
0.0
 40
2.5
 50
90.0
 51
270.0
  0
ARC
  5
8B1
  8
1外形線
 10
65.402774380507822
 20
110.7553026984595
 30
0.0
 40
2.5
 50
270.0
 51
90.0
  0
LINE
  5
8B2
  8
1外形線
 10
45.002774380507503
 20
132.95530269845929
 30
0.0
 11
38.207387250079933
 21
132.95530269845969
 31
0.0
  0
ARC
  5
8B3
  8
1外形線
 10
38.207387250079698
 20
133.15530269845971
 30
0.0
 40
0.2
 50
186.1558372708524
 51
270.00000000006509
  0
ARC
  5
8B4
  8
1外形線
 10
39.002774380507503
 20
133.2410891360839
 30
0.0
 40
1.0
 50
135.00000000000099
 51
186.15583727084999
  0
LINE
  5
8B5
  8
1外形線
 10
39.502774380507503
 20
135.15530269845729
 30
0.0
 11
38.295667599320829
 21
133.9481959172704
 31
0.0
  0
ARC
  5
8B6
  8
1外形線
 10
45.002774380507503
 20
131.95530269845929
 30
0.0
 40
1.0
 50
0.0000000000020356
 51
89.999999999998366
  0
LINE
  5
8B7
  8
1外形線
 10
57.002774380517053
 20
131.35530269845961
 30
0.0
 11
57.002774380517508
 21
132.5553026984596
 31
0.0
  0
ARC
  5
8B8
  8
1外形線
 10
80.502774380517735
 20
110.7553026984595
 30
0.0
 40
0.4999999999999006
 50
270.0
 51
89.999999999996746
  0
LINE
  5
8B9
  8
1外形線
 10
70.002774380517494
 20
131.35530269845961
 30
0.0
 11
70.00277438051728
 21
132.5553026984596
 31
0.0
  0
LINE
  5
8BA
  8
1外形線
 10
89.002774380517295
 20
132.55530269846039
 30
0.0
 11
87.002774380517565
 21
132.55530269846099
 31
0.0
  0
LINE
  5
8BB
  8
1外形線
 10
89.002774380517295
 20
131.355302698461
 30
0.0
 11
89.002774380517295
 21
132.55530269846039
 31
0.0
  0
LINE
  5
8BC
  8
1外形線
 10
89.002774380517295
 20
131.3553026984606
 30
0.0
 11
87.00277438051728
 21
131.355302698461
 31
0.0
  0
LINE
  5
8BD
  8
1外形線
 10
148.05223318928509
 20
32.004139280203503
 30
0.0
 11
148.05223318928549
 21
25.208752149775929
 31
0.0
  0
LINE
  5
8BE
  8
1外形線
 10
150.25223318928821
 20
26.504139280208499
 30
0.0
 11
150.2522331892861
 21
74.00413928021328
 31
0.0
  0
LINE
  5
8BF
  8
1外形線
 10
150.25223318928309
 20
26.5041392802035
 30
0.0
 11
149.04512640809619
 21
25.297032499016829
 31
0.0
  0
ARC
  5
8C0
  8
1外形線
 10
148.2522331892855
 20
25.208752149775709
 30
0.0
 40
0.2
 50
179.9999999999348
 51
263.84416272914717
  0
ARC
  5
8C1
  8
1外形線
 10
148.3380196269097
 20
26.004139280203511
 30
0.0
 40
1.0
 50
263.84416272914979
 51
314.99999999999869
  0
LINE
  5
8C2
  8
1外形線
 10
125.3522331892853
 20
54.853629022987093
 30
0.0
 11
125.3522331892853
 21
72.504139280213735
 31
0.0
  0
LINE
  5
8C3
  8
1外形線
 10
126.3522331892853
 20
54.853629022987093
 30
0.0
 11
126.3522331892853
 21
72.504139280213735
 31
0.0
  0
ARC
  5
8C4
  8
1外形線
 10
125.8522331892853
 20
48.604139280203881
 30
0.0
 40
2.5
 50
180.0
 51
0.0
  0
LINE
  5
8C5
  8
1外形線
 10
125.3522331892858
 20
34.50413928020145
 30
0.0
 11
125.3522331892858
 21
46.154649537420589
 31
0.0
  0
LINE
  5
8C6
  8
1外形線
 10
126.3522331892853
 20
34.50413928020145
 30
0.0
 11
126.3522331892849
 21
46.154649537420589
 31
0.0
  0
ARC
  5
8C7
  8
1外形線
 10
125.8522331892854
 20
34.504139280201471
 30
0.0
 40
0.4999999999999006
 50
180.00000000000321
 51
0.0
  0
ARC
  5
8C8
  8
1外形線
 10
125.8522331892853
 20
52.404139280203843
 30
0.0
 40
2.5
 50
0.0
 51
180.0
  0
LINE
  5
8C9
  8
1外形線
 10
123.3522331892851
 20
52.404139280203822
 30
0.0
 11
123.3522331892852
 21
48.604139280203867
 31
0.0
  0
LINE
  5
8CA
  8
1外形線
 10
128.35223318928519
 20
48.604139280203867
 30
0.0
 11
128.35223318928519
 21
52.404139280203822
 31
0.0
  0
LINE
  5
8CB
  8
1外形線
 10
146.45223318928541
 20
44.00413928021328
 30
0.0
 11
146.45223318928541
 21
57.004139280213508
 31
0.0
  0
LINE
  5
8CC
  8
1外形線
 10
147.6522331892854
 20
44.00413928021328
 30
0.0
 11
147.6522331892854
 21
57.004139280213508
 31
0.0
  0
ARC
  5
8CD
  8
1外形線
 10
147.05223318928509
 20
32.004139280203511
 30
0.0
 40
1.0
 50
0.0000000000016284
 51
89.999999999997968
  0
LINE
  5
8CE
  8
1外形線
 10
146.45223318928541
 20
44.004139280213053
 30
0.0
 11
147.6522331892854
 21
44.00413928021328
 31
0.0
  0
LINE
  5
8CF
  8
1外形線
 10
146.45223318928541
 20
57.004139280213508
 30
0.0
 11
147.6522331892854
 21
57.00413928021328
 31
0.0
  0
ARC
  5
8D0
  8
1外形線
 10
125.8522331892854
 20
72.504139280213749
 30
0.0
 40
0.4999999999999006
 50
0.0
 51
179.9999999999967
  0
LINE
  5
8D1
  8
1外形線
 10
146.45223318928609
 20
76.004139280213494
 30
0.0
 11
147.6522331892856
 21
76.004139280213494
 31
0.0
  0
LINE
  5
8D2
  8
1外形線
 10
146.45223318928569
 20
76.004139280213494
 30
0.0
 11
146.45223318928609
 21
74.004139280213494
 31
0.0
  0
LINE
  5
8D3
  8
1外形線
 10
147.6522331892856
 20
76.004139280213494
 30
0.0
 11
147.65223318928619
 21
74.004139280213792
 31
0.0
  0
ENDSEC
  0
EOF
