  0
SECTION
  2
HEADER
  9
$ACADVER
  1
AC1009
  9
$INSBASE
 10
0.0
 20
0.0
 30
0.0
  9
$EXTMIN
 10
31.408536177217449
 20
33.862969676973528
 30
0.0
  9
$EXTMAX
 10
2141.0760636308651
 20
157.72793661635211
 30
0.0
  9
$LIMMIN
 10
0.0
 20
0.0
  9
$LIMMAX
 10
420.0
 20
297.0
  9
$ORTHOMODE
 70
     0
  9
$REGENMODE
 70
     1
  9
$FILLMODE
 70
     1
  9
$QTEXTMODE
 70
     0
  9
$MIRRTEXT
 70
     1
  9
$DRAGMODE
 70
     2
  9
$LTSCALE
 40
1.0
  9
$OSMODE
 70
    37
  9
$ATTMODE
 70
     1
  9
$TEXTSIZE
 40
2.5
  9
$TRACEWID
 40
1.0
  9
$TEXTSTYLE
  7
STANDARD
  9
$CLAYER
  8
0
  9
$CELTYPE
  6
BYLAYER
  9
$CECOLOR
 62
   256
  9
$DIMSCALE
 40
1.0
  9
$DIMASZ
 40
2.5
  9
$DIMEXO
 40
0.625
  9
$DIMDLI
 40
3.75
  9
$DIMRND
 40
0.0
  9
$DIMDLE
 40
0.0
  9
$DIMEXE
 40
1.25
  9
$DIMTP
 40
0.0
  9
$DIMTM
 40
0.0
  9
$DIMTXT
 40
2.5
  9
$DIMCEN
 40
2.5
  9
$DIMTSZ
 40
0.0
  9
$DIMTOL
 70
     0
  9
$DIMLIM
 70
     0
  9
$DIMTIH
 70
     0
  9
$DIMTOH
 70
     0
  9
$DIMSE1
 70
     0
  9
$DIMSE2
 70
     0
  9
$DIMTAD
 70
     1
  9
$DIMZIN
 70
     8
  9
$DIMBLK
  1

  9
$DIMASO
 70
     1
  9
$DIMSHO
 70
     1
  9
$DIMPOST
  1

  9
$DIMAPOST
  1

  9
$DIMALT
 70
     0
  9
$DIMALTD
 70
     3
  9
$DIMALTF
 40
0.03937007874016
  9
$DIMLFAC
 40
1.0
  9
$DIMTOFL
 70
     1
  9
$DIMTVP
 40
0.0
  9
$DIMTIX
 70
     0
  9
$DIMSOXD
 70
     0
  9
$DIMSAH
 70
     0
  9
$DIMBLK1
  1

  9
$DIMBLK2
  1

  9
$DIMSTYLE
  2
ISO-25
  9
$DIMCLRD
 70
     0
  9
$DIMCLRE
 70
     0
  9
$DIMCLRT
 70
     0
  9
$DIMTFAC
 40
1.0
  9
$DIMGAP
 40
0.625
  9
$LUNITS
 70
     2
  9
$LUPREC
 70
     4
  9
$SKETCHINC
 40
1.0
  9
$FILLETRAD
 40
10.0
  9
$AUNITS
 70
     0
  9
$AUPREC
 70
     0
  9
$MENU
  1
.
  9
$ELEVATION
 40
0.0
  9
$PELEVATION
 40
0.0
  9
$THICKNESS
 40
0.0
  9
$LIMCHECK
 70
     0
  9
$BLIPMODE
 70
     0
  9
$CHAMFERA
 40
10.0
  9
$CHAMFERB
 40
10.0
  9
$SKPOLY
 70
     0
  9
$TDCREATE
 40
2452048.5551931588
  9
$TDUPDATE
 40
2452048.5560936448
  9
$TDINDWG
 40
0.0009012963
  9
$TDUSRTIMER
 40
0.0009011806
  9
$USRTIMER
 70
     1
  9
$ANGBASE
 50
0.0
  9
$ANGDIR
 70
     0
  9
$PDMODE
 70
     0
  9
$PDSIZE
 40
0.0
  9
$PLINEWID
 40
0.0
  9
$COORDS
 70
     1
  9
$SPLFRAME
 70
     0
  9
$SPLINETYPE
 70
     6
  9
$SPLINESEGS
 70
     8
  9
$ATTDIA
 70
     0
  9
$ATTREQ
 70
     1
  9
$HANDLING
 70
-16383
  9
$HANDSEED
  5
102
  9
$SURFTAB1
 70
     6
  9
$SURFTAB2
 70
     6
  9
$SURFTYPE
 70
     6
  9
$SURFU
 70
     6
  9
$SURFV
 70
     6
  9
$UCSNAME
  2

  9
$UCSORG
 10
0.0
 20
0.0
 30
0.0
  9
$UCSXDIR
 10
1.0
 20
0.0
 30
0.0
  9
$UCSYDIR
 10
0.0
 20
1.0
 30
0.0
  9
$PUCSNAME
  2

  9
$PUCSORG
 10
0.0
 20
0.0
 30
0.0
  9
$PUCSXDIR
 10
1.0
 20
0.0
 30
0.0
  9
$PUCSYDIR
 10
0.0
 20
1.0
 30
0.0
  9
$USERI1
 70
     0
  9
$USERI2
 70
     0
  9
$USERI3
 70
     0
  9
$USERI4
 70
     0
  9
$USERI5
 70
     0
  9
$USERR1
 40
0.0
  9
$USERR2
 40
0.0
  9
$USERR3
 40
0.0
  9
$USERR4
 40
0.0
  9
$USERR5
 40
0.0
  9
$WORLDVIEW
 70
     1
  9
$SHADEDGE
 70
     3
  9
$SHADEDIF
 70
    70
  9
$TILEMODE
 70
     1
  9
$MAXACTVP
 70
    64
  9
$PLIMCHECK
 70
     0
  9
$PEXTMIN
 10
1.0000000000000000E+020
 20
1.0000000000000000E+020
 30
1.0000000000000000E+020
  9
$PEXTMAX
 10
-1.0000000000000000E+020
 20
-1.0000000000000000E+020
 30
-1.0000000000000000E+020
  9
$PLIMMIN
 10
0.0
 20
0.0
  9
$PLIMMAX
 10
420.0
 20
297.0
  9
$UNITMODE
 70
     0
  9
$VISRETAIN
 70
     1
  9
$PLINEGEN
 70
     0
  9
$PSLTSCALE
 70
     1
  0
ENDSEC
  0
SECTION
  2
TABLES
  0
TABLE
  2
VPORT
 70
     3
  0
VPORT
  2
*ACTIVE
 70
     0
 10
0.0
 20
0.0
 11
1.0
 21
1.0
 12
280.5
 22
148.5
 13
0.0
 23
0.0
 14
10.0
 24
10.0
 15
10.0
 25
10.0
 16
0.0
 26
0.0
 36
1.0
 17
0.0
 27
0.0
 37
0.0
 40
297.0
 41
1.888888888888888
 42
50.0
 43
0.0
 44
0.0
 50
0.0
 51
0.0
 71
     0
 72
   100
 73
     1
 74
     3
 75
     0
 76
     0
 77
     0
 78
     0
  0
ENDTAB
  0
TABLE
  2
LTYPE
 70
     1
  0
LTYPE
  2
CONTINUOUS
 70
     0
  3
Solid line
 72
    65
 73
     0
 40
0.0
  0
ENDTAB
  0
TABLE
  2
LAYER
 70
     2
  0
LAYER
  2
0
 70
     0
 62
     7
  6
CONTINUOUS
  0
LAYER
  2
1外形線
 70
     0
 62
     3
  6
CONTINUOUS
  0
ENDTAB
  0
TABLE
  2
STYLE
 70
     2
  0
STYLE
  2
STANDARD
 70
     0
 40
0.0
 41
1.0
 50
0.0
 71
     0
 42
2.5
  3
txt
  4

  0
STYLE
  2
KANJI
 70
     0
 40
0.0
 41
1.0
 50
0.0
 71
     0
 42
8.0
  3
simplex
  4
bigfont
  0
ENDTAB
  0
TABLE
  2
VIEW
 70
     0
  0
ENDTAB
  0
TABLE
  2
UCS
 70
     0
  0
ENDTAB
  0
TABLE
  2
APPID
 70
     1
  0
APPID
  2
ACAD
 70
     0
  0
ENDTAB
  0
TABLE
  2
DIMSTYLE
 70
     2
  0
DIMSTYLE
  2
ISO-25
 70
     0
  3

  4

  5

  6

  7

 40
1.0
 41
2.5
 42
0.625
 43
3.75
 44
1.25
 45
0.0
 46
0.0
 47
0.0
 48
0.0
140
2.5
141
2.5
142
0.0
143
0.03937007874016
144
1.0
145
0.0
146
1.0
147
0.625
 71
     0
 72
     0
 73
     0
 74
     0
 75
     0
 76
     0
 77
     1
 78
     8
170
     0
171
     3
172
     1
173
     0
174
     0
175
     0
176
     0
177
     0
178
     0
  0
DIMSTYLE
  2
STANDARD
 70
     0
  3

  4

  5

  6
1
  7
1
 40
1.0
 41
1.0
 42
1.0
 43
6.0
 44
1.0
 45
0.0
 46
0.0
 47
0.0
 48
0.0
140
2.5
141
0.0
142
0.0
143
25.399999999999999
144
1.0
145
0.0
146
1.0
147
0.5
 71
     0
 72
     0
 73
     0
 74
     0
 75
     0
 76
     0
 77
     1
 78
     8
170
     0
171
     2
172
     1
173
     1
174
     0
175
     0
176
     0
177
     0
178
     0
  0
ENDTAB
  0
ENDSEC
  0
SECTION
  2
BLOCKS
  0
BLOCK
  8
0
  2
$MODEL_SPACE
 70
     0
 10
0.0
 20
0.0
 30
0.0
  3
$MODEL_SPACE
  1

  0
ENDBLK
  5
21
  8
0
  0
BLOCK
 67
     1
  8
0
  2
$PAPER_SPACE
 70
     0
 10
0.0
 20
0.0
 30
0.0
  3
$PAPER_SPACE
  1

  0
ENDBLK
  5
1D
 67
     1
  8
0
  0
BLOCK
  8
0
  2
1
 70
     0
 10
0.0
 20
0.0
 30
0.0
  3
1
  1

  0
SOLID
  5
2C
  8
0
  6
BYBLOCK
 62
     0
 10
-1.811110924292052
 20
0.4852857095671653
 30
0.0
 11
-1.811110924292052
 21
-0.4852857095673642
 31
0.0
 12
0.0
 22
0.0
 32
0.0
 13
0.0
 23
0.0
 33
0.0
  0
ENDBLK
  5
2E
  8
0
  0
ENDSEC
  0
SECTION
  2
ENTITIES
  0
LINE
  5
99
  8
1外形線
 10
2141.0760636308651
 20
71.862969676973293
 30
0.0
 11
141.07606363086481
 21
71.862969676973293
 31
0.0
  0
LINE
  5
9A
  8
1外形線
 10
2141.0760636308642
 20
33.862969676973528
 30
0.0
 11
141.07606363086481
 21
33.862969676973528
 31
0.0
  0
LINE
  5
9B
  8
1外形線
 10
2141.0760636308651
 20
68.862969676973421
 30
0.0
 11
141.07606363086481
 21
68.862969676973421
 31
0.0
  0
LINE
  5
9C
  8
1外形線
 10
2141.0760636308651
 20
36.862969676971503
 30
0.0
 11
141.07606363086481
 21
36.862969676973478
 31
0.0
  0
LINE
  5
9D
  8
1外形線
 10
2141.0760636308651
 20
157.727936616352
 30
0.0
 11
141.07606363086481
 21
157.727936616352
 31
0.0
  0
LINE
  5
9E
  8
1外形線
 10
2141.0760636308651
 20
121.2279366163521
 30
0.0
 11
141.07606363086481
 21
121.2279366163521
 31
0.0
  0
LINE
  5
9F
  8
1外形線
 10
141.07606363086481
 20
157.727936616352
 30
0.0
 11
141.07606363086481
 21
121.2279366163521
 31
0.0
  0
ARC
  5
A0
  8
1外形線
 10
50.40853617721848
 20
138.727936616352
 30
0.0
 40
19.0
 50
0.0000000000081422
 51
179.99999999999261
  0
ARC
  5
A1
  8
1外形線
 10
50.40853617721848
 20
138.727936616352
 30
0.0
 40
16.0
 50
0.0000000000081422
 51
179.99999999999261
  0
LINE
  5
A2
  8
1外形線
 10
199.5017523809239
 20
68.862969676973421
 30
0.0
 11
141.07606363086481
 21
68.862969676973421
 31
0.0
  0
LINE
  5
A3
  8
1外形線
 10
141.07606363086481
 20
71.862969676973293
 30
0.0
 11
141.07606363086481
 21
33.862969676973528
 31
0.0
  0
ARC
  5
A4
  8
1外形線
 10
32.90853617721848
 20
122.7279366163521
 30
0.0
 40
1.5
 50
270.0
 51
0.0
  0
LINE
  5
A5
  8
1外形線
 10
31.408536177217449
 20
121.2279366163521
 30
0.0
 11
31.40853617721973
 21
138.7279366163545
 31
0.0
  0
LINE
  5
A6
  8
1外形線
 10
32.90853617721848
 20
121.2279366163521
 30
0.0
 11
31.408536177217449
 21
121.2279366163521
 31
0.0
  0
LINE
  5
A7
  8
1外形線
 10
64.783536177218593
 20
128.10010540000081
 30
0.0
 11
66.40853617721848
 21
127.1619112125678
 31
0.0
  0
LINE
  5
A8
  8
1外形線
 10
36.03353617721848
 20
128.10010540000081
 30
0.0
 11
34.40853617721848
 21
127.1619112125678
 31
0.0
  0
LINE
  5
A9
  8
1外形線
 10
38.375990952002091
 20
127.5778265337604
 30
0.0
 11
35.101139263898062
 21
130.92090429870021
 31
0.0
  0
LINE
  5
AA
  8
1外形線
 10
69.408536177219503
 20
121.2279366163521
 30
0.0
 11
69.408536177217115
 21
138.72793661635461
 31
0.0
  0
LINE
  5
AB
  8
1外形線
 10
62.423179292922782
 20
127.5595514636335
 30
0.0
 11
65.715933090538897
 21
130.92090429870021
 31
0.0
  0
LINE
  5
AC
  8
1外形線
 10
60.444177595843371
 20
127.6828518944872
 30
0.0
 11
64.29809411197391
 21
131.6170583380372
 31
0.0
  0
LINE
  5
AD
  8
1外形線
 10
40.372894758593588
 20
127.6828518944872
 30
0.0
 11
36.518978242463042
 21
131.6170583380372
 31
0.0
  0
LINE
  5
AE
  8
1外形線
 10
34.40853617721848
 20
121.2279366163521
 30
0.0
 11
66.40853617721848
 21
121.2279366163521
 31
0.0
  0
LINE
  5
AF
  8
1外形線
 10
64.40853617721848
 20
123.1279366163521
 30
0.0
 11
36.40853617721848
 21
123.1279366163522
 31
0.0
  0
LINE
  5
B0
  8
1外形線
 10
40.65853617721848
 20
126.9830720596708
 30
0.0
 11
40.65853617721848
 21
125.8279366163521
 31
0.0
  0
LINE
  5
B1
  8
1外形線
 10
40.65853617721848
 20
125.8279366163521
 30
0.0
 11
40.158536177218473
 21
125.3279366163521
 31
0.0
  0
ARC
  5
B2
  8
1外形線
 10
39.658536177218473
 20
126.9830720596708
 30
0.0
 40
1.0
 50
0.0
 51
44.409342785351868
  0
LINE
  5
B3
  8
1外形線
 10
35.40853617721848
 20
126.7279366163521
 30
0.0
 11
38.03253767423837
 21
126.7279366163521
 31
0.0
  0
LINE
  5
B4
  8
1外形線
 10
34.40853617721848
 20
121.2279366163522
 30
0.0
 11
34.40853617721848
 21
127.1619112125678
 31
0.0
  0
ARC
  5
B5
  8
1外形線
 10
35.40853617721848
 20
125.72793661635249
 30
0.0
 40
1.0
 50
90.0
 51
180.0
  0
LINE
  5
B6
  8
1外形線
 10
36.40853617721848
 20
123.1279366163522
 30
0.0
 11
36.40853617721848
 21
125.27793661635221
 31
0.0
  0
LINE
  5
B7
  8
1外形線
 10
36.40853617721848
 20
125.3279366163521
 30
0.0
 11
40.158536177218473
 21
125.3279366163521
 31
0.0
  0
ARC
  5
B8
  8
1外形線
 10
38.018811661314771
 20
127.22793661635249
 30
0.0
 40
0.5
 50
270.0
 51
44.409342785350717
  0
ARC
  5
B9
  8
1外形線
 10
67.908536177218451
 20
122.7279366163521
 30
0.0
 40
1.5
 50
180.0
 51
270.0
  0
LINE
  5
BA
  8
1外形線
 10
64.40853617721848
 20
123.1279366163521
 30
0.0
 11
64.40853617721848
 21
125.3279366163521
 31
0.0
  0
LINE
  5
BB
  8
1外形線
 10
66.408536177218451
 20
121.2279366163521
 30
0.0
 11
66.40853617721848
 21
127.1619112125678
 31
0.0
  0
LINE
  5
BC
  8
1外形線
 10
65.40853617721848
 20
126.7279366163521
 30
0.0
 11
62.78453468019859
 21
126.7279366163521
 31
0.0
  0
ARC
  5
BD
  8
1外形線
 10
62.798260693122423
 20
127.22793661635249
 30
0.0
 40
0.5
 50
135.5906572146464
 51
270.0
  0
ARC
  5
BE
  8
1外形線
 10
65.408536177218707
 20
125.72793661635239
 30
0.0
 40
1.0
 50
0.0
 51
90.0
  0
LINE
  5
BF
  8
1外形線
 10
67.908536177218451
 20
121.2279366163521
 30
0.0
 11
69.408536177219503
 21
121.2279366163521
 31
0.0
  0
LINE
  5
C0
  8
1外形線
 10
60.15853617721848
 20
126.9830720596708
 30
0.0
 11
60.15853617721848
 21
125.8279366163521
 31
0.0
  0
LINE
  5
C1
  8
1外形線
 10
60.15853617721848
 20
125.8279366163521
 30
0.0
 11
60.65853617721848
 21
125.3279366163521
 31
0.0
  0
ARC
  5
C2
  8
1外形線
 10
61.15853617721848
 20
126.9830720596708
 30
0.0
 40
1.0
 50
135.5906572146481
 51
180.0
  0
LINE
  5
C3
  8
1外形線
 10
64.40853617721848
 20
125.3279366163521
 30
0.0
 11
60.65853617721848
 21
125.3279366163521
 31
0.0
  0
ARC
  5
C4
  8
1外形線
 10
36.719196348998018
 20
132.8779366163526
 30
0.0
 40
0.75
 50
315.0
 51
135.0
  0
LINE
  5
C5
  8
1外形線
 10
35.108390772861519
 20
132.3277912119957
 30
0.0
 11
36.188866263108018
 21
133.4082667022422
 31
0.0
  0
ARC
  5
C6
  8
1外形線
 10
35.815497554048193
 20
131.6206844308094
 30
0.0
 40
1.0
 50
134.9999999999994
 51
224.40934278535411
  0
LINE
  5
C7
  8
1外形線
 10
35.283536177218473
 20
129.39914350567739
 30
0.0
 11
34.40853617721848
 21
128.8939620201364
 31
0.0
  0
LINE
  5
C8
  8
1外形線
 10
36.518978242463042
 20
131.6170583380372
 30
0.0
 11
37.249526434888018
 21
132.3476065304622
 31
0.0
  0
LINE
  5
C9
  8
1外形線
 10
34.40853617721848
 20
128.8939620201364
 30
0.0
 11
34.40853617721973
 21
138.7279366163541
 31
0.0
  0
ARC
  5
CA
  8
1外形線
 10
35.65853617721848
 20
128.74962445283941
 30
0.0
 40
0.75
 50
299.99999999999989
 51
120.0000000000048
  0
ARC
  5
CB
  8
1外形線
 10
64.097876005439161
 20
132.87793661635251
 30
0.0
 40
0.75
 50
45.0
 51
225.0
  0
LINE
  5
CC
  8
1外形線
 10
65.708681581575433
 20
132.3277912119957
 30
0.0
 11
64.628206091328934
 21
133.4082667022422
 31
0.0
  0
LINE
  5
CD
  8
1外形線
 10
64.29809411197391
 20
131.6170583380372
 30
0.0
 11
63.567545919548927
 21
132.3476065304622
 31
0.0
  0
ARC
  5
CE
  8
1外形線
 10
65.001574800388994
 20
131.62068443080929
 30
0.0
 40
1.0
 50
315.59065721464577
 51
45.0
  0
LINE
  5
CF
  8
1外形線
 10
65.533536177218593
 20
129.39914350567739
 30
0.0
 11
66.40853617721848
 21
128.8939620201364
 31
0.0
  0
LINE
  5
D0
  8
1外形線
 10
66.40853617721848
 20
128.8939620201364
 30
0.0
 11
66.408536177217115
 21
138.7279366163541
 31
0.0
  0
ARC
  5
D1
  8
1外形線
 10
65.158536177218707
 20
128.7496244528393
 30
0.0
 40
0.75
 50
59.999999999997307
 51
240.0000000000027
  0
CIRCLE
  5
D2
  8
1外形線
 10
191.07606363086481
 20
52.862969676973357
 30
0.0
 40
2.1000000000000001
  0
CIRCLE
  5
D3
  8
1外形線
 10
291.07606363086478
 20
52.862969676973357
 30
0.0
 40
2.1000000000000001
  0
CIRCLE
  5
D4
  8
1外形線
 10
291.07606363086478
 20
52.862969676973357
 30
0.0
 40
2.1000000000000001
  0
CIRCLE
  5
D5
  8
1外形線
 10
391.07606363086478
 20
52.862969676973357
 30
0.0
 40
2.1000000000000001
  0
CIRCLE
  5
D6
  8
1外形線
 10
391.07606363086478
 20
52.862969676973357
 30
0.0
 40
2.1000000000000001
  0
CIRCLE
  5
D7
  8
1外形線
 10
491.07606363086478
 20
52.862969676973357
 30
0.0
 40
2.1000000000000001
  0
CIRCLE
  5
D8
  8
1外形線
 10
491.07606363086478
 20
52.862969676973357
 30
0.0
 40
2.1000000000000001
  0
CIRCLE
  5
D9
  8
1外形線
 10
591.07606363086484
 20
52.862969676973357
 30
0.0
 40
2.1000000000000001
  0
CIRCLE
  5
DA
  8
1外形線
 10
591.07606363086484
 20
52.862969676973357
 30
0.0
 40
2.1000000000000001
  0
CIRCLE
  5
DB
  8
1外形線
 10
691.07606363086484
 20
52.862969676973357
 30
0.0
 40
2.1000000000000001
  0
CIRCLE
  5
DC
  8
1外形線
 10
691.07606363086484
 20
52.862969676973357
 30
0.0
 40
2.1000000000000001
  0
CIRCLE
  5
DD
  8
1外形線
 10
791.07606363086484
 20
52.862969676973357
 30
0.0
 40
2.1000000000000001
  0
CIRCLE
  5
DE
  8
1外形線
 10
791.07606363086484
 20
52.862969676973357
 30
0.0
 40
2.1000000000000001
  0
CIRCLE
  5
DF
  8
1外形線
 10
891.07606363086484
 20
52.862969676973357
 30
0.0
 40
2.1000000000000001
  0
CIRCLE
  5
E0
  8
1外形線
 10
891.07606363086484
 20
52.862969676973357
 30
0.0
 40
2.1000000000000001
  0
CIRCLE
  5
E1
  8
1外形線
 10
991.07606363086484
 20
52.862969676973357
 30
0.0
 40
2.1000000000000001
  0
CIRCLE
  5
E2
  8
1外形線
 10
991.07606363086484
 20
52.862969676973357
 30
0.0
 40
2.1000000000000001
  0
CIRCLE
  5
E3
  8
1外形線
 10
1091.0760636308639
 20
52.862969676973357
 30
0.0
 40
2.1000000000000001
  0
CIRCLE
  5
E4
  8
1外形線
 10
1091.0760636308639
 20
52.862969676973357
 30
0.0
 40
2.1000000000000001
  0
CIRCLE
  5
E5
  8
1外形線
 10
1191.0760636308639
 20
52.862969676973357
 30
0.0
 40
2.1000000000000001
  0
CIRCLE
  5
E6
  8
1外形線
 10
1191.0760636308639
 20
52.862969676973357
 30
0.0
 40
2.1000000000000001
  0
CIRCLE
  5
E7
  8
1外形線
 10
1291.0760636308639
 20
52.862969676973357
 30
0.0
 40
2.1000000000000001
  0
CIRCLE
  5
E8
  8
1外形線
 10
1291.0760636308639
 20
52.862969676973357
 30
0.0
 40
2.1000000000000001
  0
CIRCLE
  5
E9
  8
1外形線
 10
1391.0760636308651
 20
52.862969676973357
 30
0.0
 40
2.1000000000000001
  0
CIRCLE
  5
EA
  8
1外形線
 10
1391.0760636308651
 20
52.862969676973357
 30
0.0
 40
2.1000000000000001
  0
CIRCLE
  5
EB
  8
1外形線
 10
1491.0760636308639
 20
52.862969676973357
 30
0.0
 40
2.1000000000000001
  0
CIRCLE
  5
EC
  8
1外形線
 10
1491.0760636308639
 20
52.862969676973357
 30
0.0
 40
2.1000000000000001
  0
CIRCLE
  5
ED
  8
1外形線
 10
1591.0760636308651
 20
52.862969676973357
 30
0.0
 40
2.1000000000000001
  0
CIRCLE
  5
EE
  8
1外形線
 10
1591.0760636308651
 20
52.862969676973357
 30
0.0
 40
2.1000000000000001
  0
CIRCLE
  5
EF
  8
1外形線
 10
1691.0760636308639
 20
52.862969676973357
 30
0.0
 40
2.1000000000000001
  0
CIRCLE
  5
F0
  8
1外形線
 10
1691.0760636308639
 20
52.862969676973357
 30
0.0
 40
2.1000000000000001
  0
CIRCLE
  5
F1
  8
1外形線
 10
1791.0760636308639
 20
52.862969676973357
 30
0.0
 40
2.1000000000000001
  0
CIRCLE
  5
F2
  8
1外形線
 10
1791.0760636308639
 20
52.862969676973357
 30
0.0
 40
2.1000000000000001
  0
LINE
  5
F3
  8
1外形線
 10
2141.0760636308651
 20
157.727936616352
 30
0.0
 11
2141.0760636308651
 21
121.2279366163521
 31
0.0
  0
CIRCLE
  5
F4
  8
1外形線
 10
1891.0760636308651
 20
52.862969676973357
 30
0.0
 40
2.1000000000000001
  0
CIRCLE
  5
F5
  8
1外形線
 10
1891.0760636308651
 20
52.862969676973357
 30
0.0
 40
2.1000000000000001
  0
CIRCLE
  5
F6
  8
1外形線
 10
1991.0760636308639
 20
52.862969676973357
 30
0.0
 40
2.1000000000000001
  0
CIRCLE
  5
F7
  8
1外形線
 10
1991.0760636308639
 20
52.862969676973357
 30
0.0
 40
2.1000000000000001
  0
LINE
  5
F8
  8
1外形線
 10
2141.0760636308651
 20
71.862969676973293
 30
0.0
 11
2141.0760636308651
 21
33.862969676973528
 31
0.0
  0
CIRCLE
  5
F9
  8
1外形線
 10
2091.0760636308651
 20
52.862969676973357
 30
0.0
 40
2.1000000000000001
  0
CIRCLE
  5
FA
  8
1外形線
 10
2091.0760636308651
 20
52.862969676973357
 30
0.0
 40
2.1000000000000001
  0
ENDSEC
  0
EOF
