  0
SECTION
  2
HEADER
  9
$ACADVER
  1
AC1009
  9
$INSBASE
 10
0.0
 20
0.0
 30
0.0
  9
$EXTMIN
 10
34.792253640906623
 20
32.799758668318638
 30
0.0
  9
$EXTMAX
 10
2148.3948099370969
 20
166.5997544502425
 30
0.0
  9
$LIMMIN
 10
0.0
 20
0.0
  9
$LIMMAX
 10
420.0
 20
297.0
  9
$ORTHOMODE
 70
     0
  9
$REGENMODE
 70
     1
  9
$FILLMODE
 70
     1
  9
$QTEXTMODE
 70
     0
  9
$MIRRTEXT
 70
     1
  9
$DRAGMODE
 70
     2
  9
$LTSCALE
 40
1.0
  9
$OSMODE
 70
    37
  9
$ATTMODE
 70
     1
  9
$TEXTSIZE
 40
2.5
  9
$TRACEWID
 40
1.0
  9
$TEXTSTYLE
  7
STANDARD
  9
$CLAYER
  8
0
  9
$CELTYPE
  6
BYLAYER
  9
$CECOLOR
 62
   256
  9
$DIMSCALE
 40
1.0
  9
$DIMASZ
 40
2.5
  9
$DIMEXO
 40
0.625
  9
$DIMDLI
 40
3.75
  9
$DIMRND
 40
0.0
  9
$DIMDLE
 40
0.0
  9
$DIMEXE
 40
1.25
  9
$DIMTP
 40
0.0
  9
$DIMTM
 40
0.0
  9
$DIMTXT
 40
2.5
  9
$DIMCEN
 40
2.5
  9
$DIMTSZ
 40
0.0
  9
$DIMTOL
 70
     0
  9
$DIMLIM
 70
     0
  9
$DIMTIH
 70
     0
  9
$DIMTOH
 70
     0
  9
$DIMSE1
 70
     0
  9
$DIMSE2
 70
     0
  9
$DIMTAD
 70
     1
  9
$DIMZIN
 70
     8
  9
$DIMBLK
  1

  9
$DIMASO
 70
     1
  9
$DIMSHO
 70
     1
  9
$DIMPOST
  1

  9
$DIMAPOST
  1

  9
$DIMALT
 70
     0
  9
$DIMALTD
 70
     3
  9
$DIMALTF
 40
0.03937007874016
  9
$DIMLFAC
 40
1.0
  9
$DIMTOFL
 70
     1
  9
$DIMTVP
 40
0.0
  9
$DIMTIX
 70
     0
  9
$DIMSOXD
 70
     0
  9
$DIMSAH
 70
     0
  9
$DIMBLK1
  1

  9
$DIMBLK2
  1

  9
$DIMSTYLE
  2
ISO-25
  9
$DIMCLRD
 70
     0
  9
$DIMCLRE
 70
     0
  9
$DIMCLRT
 70
     0
  9
$DIMTFAC
 40
1.0
  9
$DIMGAP
 40
0.625
  9
$LUNITS
 70
     2
  9
$LUPREC
 70
     4
  9
$SKETCHINC
 40
1.0
  9
$FILLETRAD
 40
10.0
  9
$AUNITS
 70
     0
  9
$AUPREC
 70
     0
  9
$MENU
  1
.
  9
$ELEVATION
 40
0.0
  9
$PELEVATION
 40
0.0
  9
$THICKNESS
 40
0.0
  9
$LIMCHECK
 70
     0
  9
$BLIPMODE
 70
     0
  9
$CHAMFERA
 40
10.0
  9
$CHAMFERB
 40
10.0
  9
$SKPOLY
 70
     0
  9
$TDCREATE
 40
2452048.5566102429
  9
$TDUPDATE
 40
2452048.5572869089
  9
$TDINDWG
 40
0.0006797917
  9
$TDUSRTIMER
 40
0.0006796759
  9
$USRTIMER
 70
     1
  9
$ANGBASE
 50
0.0
  9
$ANGDIR
 70
     0
  9
$PDMODE
 70
     0
  9
$PDSIZE
 40
0.0
  9
$PLINEWID
 40
0.0
  9
$COORDS
 70
     1
  9
$SPLFRAME
 70
     0
  9
$SPLINETYPE
 70
     6
  9
$SPLINESEGS
 70
     8
  9
$ATTDIA
 70
     0
  9
$ATTREQ
 70
     1
  9
$HANDLING
 70
-16383
  9
$HANDSEED
  5
102
  9
$SURFTAB1
 70
     6
  9
$SURFTAB2
 70
     6
  9
$SURFTYPE
 70
     6
  9
$SURFU
 70
     6
  9
$SURFV
 70
     6
  9
$UCSNAME
  2

  9
$UCSORG
 10
0.0
 20
0.0
 30
0.0
  9
$UCSXDIR
 10
1.0
 20
0.0
 30
0.0
  9
$UCSYDIR
 10
0.0
 20
1.0
 30
0.0
  9
$PUCSNAME
  2

  9
$PUCSORG
 10
0.0
 20
0.0
 30
0.0
  9
$PUCSXDIR
 10
1.0
 20
0.0
 30
0.0
  9
$PUCSYDIR
 10
0.0
 20
1.0
 30
0.0
  9
$USERI1
 70
     0
  9
$USERI2
 70
     0
  9
$USERI3
 70
     0
  9
$USERI4
 70
     0
  9
$USERI5
 70
     0
  9
$USERR1
 40
0.0
  9
$USERR2
 40
0.0
  9
$USERR3
 40
0.0
  9
$USERR4
 40
0.0
  9
$USERR5
 40
0.0
  9
$WORLDVIEW
 70
     1
  9
$SHADEDGE
 70
     3
  9
$SHADEDIF
 70
    70
  9
$TILEMODE
 70
     1
  9
$MAXACTVP
 70
    64
  9
$PLIMCHECK
 70
     0
  9
$PEXTMIN
 10
1.0000000000000000E+020
 20
1.0000000000000000E+020
 30
1.0000000000000000E+020
  9
$PEXTMAX
 10
-1.0000000000000000E+020
 20
-1.0000000000000000E+020
 30
-1.0000000000000000E+020
  9
$PLIMMIN
 10
0.0
 20
0.0
  9
$PLIMMAX
 10
420.0
 20
297.0
  9
$UNITMODE
 70
     0
  9
$VISRETAIN
 70
     1
  9
$PLINEGEN
 70
     0
  9
$PSLTSCALE
 70
     1
  0
ENDSEC
  0
SECTION
  2
TABLES
  0
TABLE
  2
VPORT
 70
     3
  0
VPORT
  2
*ACTIVE
 70
     0
 10
0.0
 20
0.0
 11
1.0
 21
1.0
 12
301.69708029197079
 22
148.5
 13
0.0
 23
0.0
 14
10.0
 24
10.0
 15
10.0
 25
10.0
 16
0.0
 26
0.0
 36
1.0
 17
0.0
 27
0.0
 37
0.0
 40
297.0
 41
2.0316301703163009
 42
50.0
 43
0.0
 44
0.0
 50
0.0
 51
0.0
 71
     0
 72
   100
 73
     1
 74
     3
 75
     0
 76
     0
 77
     0
 78
     0
  0
ENDTAB
  0
TABLE
  2
LTYPE
 70
     1
  0
LTYPE
  2
CONTINUOUS
 70
     0
  3
Solid line
 72
    65
 73
     0
 40
0.0
  0
ENDTAB
  0
TABLE
  2
LAYER
 70
     2
  0
LAYER
  2
0
 70
     0
 62
     7
  6
CONTINUOUS
  0
LAYER
  2
1外形線
 70
     0
 62
     3
  6
CONTINUOUS
  0
ENDTAB
  0
TABLE
  2
STYLE
 70
     2
  0
STYLE
  2
STANDARD
 70
     0
 40
0.0
 41
1.0
 50
0.0
 71
     0
 42
2.5
  3
txt
  4

  0
STYLE
  2
KANJI
 70
     0
 40
0.0
 41
1.0
 50
0.0
 71
     0
 42
8.0
  3
simplex
  4
bigfont
  0
ENDTAB
  0
TABLE
  2
VIEW
 70
     0
  0
ENDTAB
  0
TABLE
  2
UCS
 70
     0
  0
ENDTAB
  0
TABLE
  2
APPID
 70
     1
  0
APPID
  2
ACAD
 70
     0
  0
ENDTAB
  0
TABLE
  2
DIMSTYLE
 70
     2
  0
DIMSTYLE
  2
ISO-25
 70
     0
  3

  4

  5

  6

  7

 40
1.0
 41
2.5
 42
0.625
 43
3.75
 44
1.25
 45
0.0
 46
0.0
 47
0.0
 48
0.0
140
2.5
141
2.5
142
0.0
143
0.03937007874016
144
1.0
145
0.0
146
1.0
147
0.625
 71
     0
 72
     0
 73
     0
 74
     0
 75
     0
 76
     0
 77
     1
 78
     8
170
     0
171
     3
172
     1
173
     0
174
     0
175
     0
176
     0
177
     0
178
     0
  0
DIMSTYLE
  2
STANDARD
 70
     0
  3

  4

  5

  6
1
  7
1
 40
1.0
 41
1.0
 42
1.0
 43
6.0
 44
1.0
 45
0.0
 46
0.0
 47
0.0
 48
0.0
140
2.5
141
0.0
142
0.0
143
25.399999999999999
144
1.0
145
0.0
146
1.0
147
0.5
 71
     0
 72
     0
 73
     0
 74
     0
 75
     0
 76
     0
 77
     1
 78
     8
170
     0
171
     2
172
     1
173
     1
174
     0
175
     0
176
     0
177
     0
178
     0
  0
ENDTAB
  0
ENDSEC
  0
SECTION
  2
BLOCKS
  0
BLOCK
  8
0
  2
$MODEL_SPACE
 70
     0
 10
0.0
 20
0.0
 30
0.0
  3
$MODEL_SPACE
  1

  0
ENDBLK
  5
21
  8
0
  0
BLOCK
 67
     1
  8
0
  2
$PAPER_SPACE
 70
     0
 10
0.0
 20
0.0
 30
0.0
  3
$PAPER_SPACE
  1

  0
ENDBLK
  5
1D
 67
     1
  8
0
  0
BLOCK
  8
0
  2
1
 70
     0
 10
0.0
 20
0.0
 30
0.0
  3
1
  1

  0
SOLID
  5
2C
  8
0
  6
BYBLOCK
 62
     0
 10
-1.811110924292052
 20
0.4852857095671653
 30
0.0
 11
-1.811110924292052
 21
-0.4852857095673642
 31
0.0
 12
0.0
 22
0.0
 32
0.0
 13
0.0
 23
0.0
 33
0.0
  0
ENDBLK
  5
2E
  8
0
  0
ENDSEC
  0
SECTION
  2
ENTITIES
  0
LINE
  5
99
  8
1外形線
 10
148.3948099370964
 20
32.799758668318638
 30
0.0
 11
2148.3948099370969
 21
32.79975866832762
 31
0.0
  0
LINE
  5
9A
  8
1外形線
 10
148.39480993709651
 20
35.799758668319669
 30
0.0
 11
2148.3948099370959
 21
35.799758668319612
 31
0.0
  0
LINE
  5
9B
  8
1外形線
 10
148.39480993709651
 20
73.799758668319669
 30
0.0
 11
2148.3948099370959
 21
73.799758668315292
 31
0.0
  0
LINE
  5
9C
  8
1外形線
 10
148.3948099370964
 20
76.799758668320663
 30
0.0
 11
2148.3948099370969
 21
76.799758668316173
 31
0.0
  0
LINE
  5
9D
  8
1外形線
 10
2148.3948099370959
 20
165.66472560769881
 30
0.0
 11
148.39480993709651
 21
165.66472560769839
 31
0.0
  0
LINE
  5
9E
  8
1外形線
 10
2148.3948099370969
 20
123.164725607698
 30
0.0
 11
148.39480993709651
 21
123.1647256076984
 31
0.0
  0
ARC
  5
9F
  8
1外形線
 10
57.727282483450267
 20
143.66472560769839
 30
0.0
 40
19.0
 50
90.0
 51
179.99999999999341
  0
ARC
  5
A0
  8
1外形線
 10
57.727282483450267
 20
143.66472560769839
 30
0.0
 40
22.0
 50
0.0000000000065138
 51
179.99999999999341
  0
ARC
  5
A1
  8
1外形線
 10
57.727282483450267
 20
143.66472560769839
 30
0.0
 40
19.0
 50
0.0000000000065138
 51
90.0
  0
LINE
  5
A2
  8
1外形線
 10
148.39480993709651
 20
165.66472560769839
 30
0.0
 11
148.39480993709651
 21
123.1647256076984
 31
0.0
  0
LINE
  5
A3
  8
1外形線
 10
148.39480993709651
 20
76.799758668320635
 30
0.0
 11
148.39480993709651
 21
32.799758668318638
 31
0.0
  0
LINE
  5
A4
  8
1外形線
 10
39.72728248345026
 20
128.6647256076985
 30
0.0
 11
42.351283980470157
 21
128.6647256076985
 31
0.0
  0
LINE
  5
A5
  8
1外形線
 10
40.72728248345026
 20
127.2647256076984
 30
0.0
 11
44.47728248345026
 21
127.2647256076984
 31
0.0
  0
LINE
  5
A6
  8
1外形線
 10
42.694737258233879
 20
129.51461552510671
 30
0.0
 11
39.41988557012985
 21
132.8576932900466
 31
0.0
  0
LINE
  5
A7
  8
1外形線
 10
40.837724548694837
 20
133.55384732938359
 30
0.0
 11
41.568272741119813
 21
134.28439552180859
 31
0.0
  0
ARC
  5
A8
  8
1外形線
 10
41.037942655229813
 20
134.81472560769879
 30
0.0
 40
0.75
 50
315.0
 51
135.0
  0
LINE
  5
A9
  8
1外形線
 10
44.691641064825369
 20
129.61964088583349
 30
0.0
 11
40.837724548694837
 21
133.55384732938359
 31
0.0
  0
LINE
  5
AA
  8
1外形線
 10
38.72728248345026
 20
123.1647256076985
 30
0.0
 11
76.727282483450225
 21
123.1647256076984
 31
0.0
  0
LINE
  5
AB
  8
1外形線
 10
74.727282483450267
 20
125.06472560769831
 30
0.0
 11
40.72728248345026
 21
125.06472560769851
 31
0.0
  0
LINE
  5
AC
  8
1外形線
 10
40.72728248345026
 20
125.06472560769851
 30
0.0
 11
40.72728248345026
 21
127.2147256076984
 31
0.0
  0
LINE
  5
AD
  8
1外形線
 10
38.72728248345026
 20
123.1647256076985
 30
0.0
 11
38.72728248345026
 21
129.09870020391409
 31
0.0
  0
LINE
  5
AE
  8
1外形線
 10
35.727282483449351
 20
123.1647256076984
 30
0.0
 11
35.727282483451972
 21
143.66472560770131
 31
0.0
  0
LINE
  5
AF
  8
1外形線
 10
37.227282483450381
 20
123.1647256076984
 30
0.0
 11
35.727282483449351
 21
123.1647256076984
 31
0.0
  0
ARC
  5
B0
  8
1外形線
 10
37.22728248345026
 20
124.6647256076984
 30
0.0
 40
1.5
 50
270.0000000000008
 51
0.0
  0
ARC
  5
B1
  8
1外形線
 10
39.72728248345026
 20
127.6647256076987
 30
0.0
 40
1.0
 50
90.0
 51
180.0
  0
ARC
  5
B2
  8
1外形線
 10
39.977282483450033
 20
130.6864134441856
 30
0.0
 40
0.75
 50
299.9999999999967
 51
120.0000000000028
  0
ARC
  5
B3
  8
1外形線
 10
40.13424386027998
 20
133.5574734221556
 30
0.0
 40
1.0
 50
134.9999999999994
 51
224.40934278535471
  0
LINE
  5
B4
  8
1外形線
 10
39.602282483450153
 20
131.33593249702369
 30
0.0
 11
38.72728248345026
 21
130.8307510114827
 31
0.0
  0
LINE
  5
B5
  8
1外形線
 10
39.427137079093313
 20
134.26458020334209
 30
0.0
 11
40.507612569339813
 21
135.34505569358859
 31
0.0
  0
LINE
  5
B6
  8
1外形線
 10
38.72728248345026
 20
130.8307510114827
 30
0.0
 11
38.727282483451972
 21
143.66472560770109
 31
0.0
  0
LINE
  5
B7
  8
1外形線
 10
40.352282483450153
 20
130.03689439134709
 30
0.0
 11
38.72728248345026
 21
129.09870020391409
 31
0.0
  0
LINE
  5
B8
  8
1外形線
 10
74.727282483450267
 20
125.06472560769831
 30
0.0
 11
74.727282483450267
 21
127.2647256076984
 31
0.0
  0
LINE
  5
B9
  8
1外形線
 10
76.727282483450225
 20
123.1647256076984
 30
0.0
 11
76.727282483450225
 21
129.09870020391409
 31
0.0
  0
LINE
  5
BA
  8
1外形線
 10
79.727282483451233
 20
123.1647256076984
 30
0.0
 11
79.727282483448533
 21
143.6647256077014
 31
0.0
  0
LINE
  5
BB
  8
1外形線
 10
78.227282483450239
 20
123.1647256076984
 30
0.0
 11
79.727282483451233
 21
123.1647256076984
 31
0.0
  0
ARC
  5
BC
  8
1外形線
 10
78.227282483450253
 20
124.6647256076984
 30
0.0
 40
1.5
 50
180.0
 51
269.9999999999992
  0
LINE
  5
BD
  8
1外形線
 10
44.97728248345026
 20
127.7647256076984
 30
0.0
 11
44.47728248345026
 21
127.2647256076984
 31
0.0
  0
LINE
  5
BE
  8
1外形線
 10
44.97728248345026
 20
128.91986105101699
 30
0.0
 11
44.97728248345026
 21
127.7647256076984
 31
0.0
  0
ARC
  5
BF
  8
1外形線
 10
42.337557967546559
 20
129.1647256076987
 30
0.0
 40
0.5
 50
270.0
 51
44.409342785350717
  0
ARC
  5
C0
  8
1外形線
 10
43.977282483450267
 20
128.91986105101699
 30
0.0
 40
1.0
 50
0.0
 51
44.409342785351292
  0
ARC
  5
C1
  8
1外形線
 10
75.727282483450495
 20
127.6647256076986
 30
0.0
 40
1.0
 50
0.0
 51
90.0
  0
LINE
  5
C2
  8
1外形線
 10
70.477282483450267
 20
127.7647256076984
 30
0.0
 11
70.977282483450267
 21
127.2647256076984
 31
0.0
  0
LINE
  5
C3
  8
1外形線
 10
70.477282483450267
 20
128.91986105101699
 30
0.0
 11
70.477282483450267
 21
127.7647256076984
 31
0.0
  0
LINE
  5
C4
  8
1外形線
 10
75.727282483450239
 20
128.66472560769839
 30
0.0
 11
73.103280986430363
 21
128.66472560769839
 31
0.0
  0
LINE
  5
C5
  8
1外形線
 10
74.727282483450267
 20
127.2647256076984
 30
0.0
 11
70.977282483450267
 21
127.2647256076984
 31
0.0
  0
ARC
  5
C6
  8
1外形線
 10
75.477282483450495
 20
130.6864134441856
 30
0.0
 40
0.75
 50
59.999999999997137
 51
240.00000000000321
  0
ARC
  5
C7
  8
1外形線
 10
75.320321106620781
 20
133.55747342215551
 30
0.0
 40
1.0
 50
315.5906572146452
 51
45.0
  0
LINE
  5
C8
  8
1外形線
 10
75.852282483450352
 20
131.33593249702369
 30
0.0
 11
76.727282483450225
 21
130.8307510114827
 31
0.0
  0
LINE
  5
C9
  8
1外形線
 10
76.027427887807193
 20
134.26458020334189
 30
0.0
 11
74.946952397560693
 21
135.34505569358851
 31
0.0
  0
LINE
  5
CA
  8
1外形線
 10
72.74192559915457
 20
129.4963404549797
 30
0.0
 11
76.034679396770656
 21
132.85769329004651
 31
0.0
  0
LINE
  5
CB
  8
1外形線
 10
70.762923902075158
 20
129.61964088583329
 30
0.0
 11
74.616840418205697
 21
133.5538473293835
 31
0.0
  0
ARC
  5
CC
  8
1外形線
 10
74.416622311670949
 20
134.8147256076987
 30
0.0
 40
0.75
 50
45.0
 51
225.0
  0
LINE
  5
CD
  8
1外形線
 10
74.616840418205697
 20
133.5538473293835
 30
0.0
 11
73.886292225780721
 21
134.28439552180851
 31
0.0
  0
LINE
  5
CE
  8
1外形線
 10
76.727282483450225
 20
130.8307510114827
 30
0.0
 11
76.727282483448505
 21
143.664725607701
 31
0.0
  0
ARC
  5
CF
  8
1外形線
 10
73.117006999354203
 20
129.16472560769861
 30
0.0
 40
0.5
 50
135.5906572146452
 51
270.0
  0
ARC
  5
D0
  8
1外形線
 10
71.477282483450267
 20
128.91986105101699
 30
0.0
 40
1.0
 50
135.5906572146487
 51
180.0
  0
LINE
  5
D1
  8
1外形線
 10
75.102282483450352
 20
130.03689439134709
 30
0.0
 11
76.727282483450225
 21
129.09870020391409
 31
0.0
  0
CIRCLE
  5
D2
  8
1外形線
 10
198.3948099370966
 20
54.799758668319612
 30
0.0
 40
2.1000000000000001
  0
CIRCLE
  5
D3
  8
1外形線
 10
298.39480993709662
 20
54.799758668319612
 30
0.0
 40
2.1000000000000001
  0
CIRCLE
  5
D4
  8
1外形線
 10
298.39480993709662
 20
54.799758668319612
 30
0.0
 40
2.1000000000000001
  0
CIRCLE
  5
D5
  8
1外形線
 10
398.39480993709662
 20
54.799758668319612
 30
0.0
 40
2.1000000000000001
  0
CIRCLE
  5
D6
  8
1外形線
 10
398.39480993709662
 20
54.799758668319612
 30
0.0
 40
2.1000000000000001
  0
CIRCLE
  5
D7
  8
1外形線
 10
498.39480993709662
 20
54.799758668319612
 30
0.0
 40
2.1000000000000001
  0
CIRCLE
  5
D8
  8
1外形線
 10
498.39480993709662
 20
54.799758668319612
 30
0.0
 40
2.1000000000000001
  0
CIRCLE
  5
D9
  8
1外形線
 10
598.39480993709662
 20
54.799758668319612
 30
0.0
 40
2.1000000000000001
  0
CIRCLE
  5
DA
  8
1外形線
 10
598.39480993709662
 20
54.799758668319612
 30
0.0
 40
2.1000000000000001
  0
CIRCLE
  5
DB
  8
1外形線
 10
698.39480993709662
 20
54.799758668319612
 30
0.0
 40
2.1000000000000001
  0
CIRCLE
  5
DC
  8
1外形線
 10
698.39480993709662
 20
54.799758668319612
 30
0.0
 40
2.1000000000000001
  0
CIRCLE
  5
DD
  8
1外形線
 10
798.39480993709662
 20
54.799758668319612
 30
0.0
 40
2.1000000000000001
  0
CIRCLE
  5
DE
  8
1外形線
 10
798.39480993709662
 20
54.799758668319612
 30
0.0
 40
2.1000000000000001
  0
CIRCLE
  5
DF
  8
1外形線
 10
898.39480993709662
 20
54.799758668319612
 30
0.0
 40
2.1000000000000001
  0
CIRCLE
  5
E0
  8
1外形線
 10
898.39480993709662
 20
54.799758668319612
 30
0.0
 40
2.1000000000000001
  0
CIRCLE
  5
E1
  8
1外形線
 10
998.39480993709662
 20
54.799758668319612
 30
0.0
 40
2.1000000000000001
  0
CIRCLE
  5
E2
  8
1外形線
 10
998.39480993709662
 20
54.799758668319612
 30
0.0
 40
2.1000000000000001
  0
CIRCLE
  5
E3
  8
1外形線
 10
1098.3948099370959
 20
54.799758668319612
 30
0.0
 40
2.1000000000000001
  0
CIRCLE
  5
E4
  8
1外形線
 10
1098.3948099370959
 20
54.799758668319612
 30
0.0
 40
2.1000000000000001
  0
LINE
  5
E5
  8
1外形線
 10
2148.3948099370959
 20
165.66472560769839
 30
0.0
 11
2148.3948099370959
 21
123.1647256076984
 31
0.0
  0
CIRCLE
  5
E6
  8
1外形線
 10
1198.3948099370959
 20
54.799758668319612
 30
0.0
 40
2.1000000000000001
  0
CIRCLE
  5
E7
  8
1外形線
 10
1198.3948099370959
 20
54.799758668319612
 30
0.0
 40
2.1000000000000001
  0
CIRCLE
  5
E8
  8
1外形線
 10
1298.3948099370959
 20
54.799758668319612
 30
0.0
 40
2.1000000000000001
  0
CIRCLE
  5
E9
  8
1外形線
 10
1298.3948099370959
 20
54.799758668319612
 30
0.0
 40
2.1000000000000001
  0
CIRCLE
  5
EA
  8
1外形線
 10
1398.3948099370959
 20
54.799758668319612
 30
0.0
 40
2.1000000000000001
  0
CIRCLE
  5
EB
  8
1外形線
 10
1398.3948099370959
 20
54.799758668319612
 30
0.0
 40
2.1000000000000001
  0
CIRCLE
  5
EC
  8
1外形線
 10
1498.3948099370959
 20
54.799758668319612
 30
0.0
 40
2.1000000000000001
  0
CIRCLE
  5
ED
  8
1外形線
 10
1498.3948099370959
 20
54.799758668319612
 30
0.0
 40
2.1000000000000001
  0
CIRCLE
  5
EE
  8
1外形線
 10
1598.3948099370959
 20
54.799758668319612
 30
0.0
 40
2.1000000000000001
  0
CIRCLE
  5
EF
  8
1外形線
 10
1598.3948099370959
 20
54.799758668319612
 30
0.0
 40
2.1000000000000001
  0
CIRCLE
  5
F0
  8
1外形線
 10
1698.3948099370959
 20
54.799758668319612
 30
0.0
 40
2.1000000000000001
  0
CIRCLE
  5
F1
  8
1外形線
 10
1698.3948099370959
 20
54.799758668319612
 30
0.0
 40
2.1000000000000001
  0
CIRCLE
  5
F2
  8
1外形線
 10
1798.3948099370959
 20
54.799758668319612
 30
0.0
 40
2.1000000000000001
  0
CIRCLE
  5
F3
  8
1外形線
 10
1798.3948099370959
 20
54.799758668319612
 30
0.0
 40
2.1000000000000001
  0
CIRCLE
  5
F4
  8
1外形線
 10
1898.3948099370959
 20
54.799758668319612
 30
0.0
 40
2.1000000000000001
  0
CIRCLE
  5
F5
  8
1外形線
 10
1898.3948099370959
 20
54.799758668319612
 30
0.0
 40
2.1000000000000001
  0
CIRCLE
  5
F6
  8
1外形線
 10
1998.3948099370959
 20
54.799758668319612
 30
0.0
 40
2.1000000000000001
  0
CIRCLE
  5
F7
  8
1外形線
 10
1998.3948099370959
 20
54.799758668319612
 30
0.0
 40
2.1000000000000001
  0
LINE
  5
F8
  8
1外形線
 10
2148.3948099370959
 20
76.799758668320635
 30
0.0
 11
2148.3948099370959
 21
32.799758668318638
 31
0.0
  0
CIRCLE
  5
F9
  8
1外形線
 10
2098.3948099370959
 20
54.799758668319612
 30
0.0
 40
2.1000000000000001
  0
CIRCLE
  5
FA
  8
1外形線
 10
2098.3948099370959
 20
54.799758668319612
 30
0.0
 40
2.1000000000000001
  0
ENDSEC
  0
EOF
