  0
SECTION
  2
HEADER
  9
$ACADVER
  1
AC1009
  9
$INSBASE
 10
0.0
 20
0.0
 30
0.0
  9
$EXTMIN
 10
44.857456305951352
 20
47.213313032292149
 30
0.0
  9
$EXTMAX
 10
2170.0249837595979
 20
214.07827997167149
 30
0.0
  9
$LIMMIN
 10
0.0
 20
0.0
  9
$LIMMAX
 10
420.0
 20
297.0
  9
$ORTHOMODE
 70
     0
  9
$REGENMODE
 70
     1
  9
$FILLMODE
 70
     1
  9
$QTEXTMODE
 70
     0
  9
$MIRRTEXT
 70
     1
  9
$DRAGMODE
 70
     2
  9
$LTSCALE
 40
1.0
  9
$OSMODE
 70
    37
  9
$ATTMODE
 70
     1
  9
$TEXTSIZE
 40
2.5
  9
$TRACEWID
 40
1.0
  9
$TEXTSTYLE
  7
STANDARD
  9
$CLAYER
  8
0
  9
$CELTYPE
  6
BYLAYER
  9
$CECOLOR
 62
   256
  9
$DIMSCALE
 40
1.0
  9
$DIMASZ
 40
2.5
  9
$DIMEXO
 40
0.625
  9
$DIMDLI
 40
3.75
  9
$DIMRND
 40
0.0
  9
$DIMDLE
 40
0.0
  9
$DIMEXE
 40
1.25
  9
$DIMTP
 40
0.0
  9
$DIMTM
 40
0.0
  9
$DIMTXT
 40
2.5
  9
$DIMCEN
 40
2.5
  9
$DIMTSZ
 40
0.0
  9
$DIMTOL
 70
     0
  9
$DIMLIM
 70
     0
  9
$DIMTIH
 70
     0
  9
$DIMTOH
 70
     0
  9
$DIMSE1
 70
     0
  9
$DIMSE2
 70
     0
  9
$DIMTAD
 70
     1
  9
$DIMZIN
 70
     8
  9
$DIMBLK
  1

  9
$DIMASO
 70
     1
  9
$DIMSHO
 70
     1
  9
$DIMPOST
  1

  9
$DIMAPOST
  1

  9
$DIMALT
 70
     0
  9
$DIMALTD
 70
     3
  9
$DIMALTF
 40
0.03937007874016
  9
$DIMLFAC
 40
1.0
  9
$DIMTOFL
 70
     1
  9
$DIMTVP
 40
0.0
  9
$DIMTIX
 70
     0
  9
$DIMSOXD
 70
     0
  9
$DIMSAH
 70
     0
  9
$DIMBLK1
  1

  9
$DIMBLK2
  1

  9
$DIMSTYLE
  2
ISO-25
  9
$DIMCLRD
 70
     0
  9
$DIMCLRE
 70
     0
  9
$DIMCLRT
 70
     0
  9
$DIMTFAC
 40
1.0
  9
$DIMGAP
 40
0.625
  9
$LUNITS
 70
     2
  9
$LUPREC
 70
     4
  9
$SKETCHINC
 40
1.0
  9
$FILLETRAD
 40
10.0
  9
$AUNITS
 70
     0
  9
$AUPREC
 70
     0
  9
$MENU
  1
.
  9
$ELEVATION
 40
0.0
  9
$PELEVATION
 40
0.0
  9
$THICKNESS
 40
0.0
  9
$LIMCHECK
 70
     0
  9
$BLIPMODE
 70
     0
  9
$CHAMFERA
 40
10.0
  9
$CHAMFERB
 40
10.0
  9
$SKPOLY
 70
     0
  9
$TDCREATE
 40
2452048.5574793168
  9
$TDUPDATE
 40
2452048.5576660419
  9
$TDINDWG
 40
0.0001873032
  9
$TDUSRTIMER
 40
0.0001871875
  9
$USRTIMER
 70
     1
  9
$ANGBASE
 50
0.0
  9
$ANGDIR
 70
     0
  9
$PDMODE
 70
     0
  9
$PDSIZE
 40
0.0
  9
$PLINEWID
 40
0.0
  9
$COORDS
 70
     1
  9
$SPLFRAME
 70
     0
  9
$SPLINETYPE
 70
     6
  9
$SPLINESEGS
 70
     8
  9
$ATTDIA
 70
     0
  9
$ATTREQ
 70
     1
  9
$HANDLING
 70
-16383
  9
$HANDSEED
  5
110
  9
$SURFTAB1
 70
     6
  9
$SURFTAB2
 70
     6
  9
$SURFTYPE
 70
     6
  9
$SURFU
 70
     6
  9
$SURFV
 70
     6
  9
$UCSNAME
  2

  9
$UCSORG
 10
0.0
 20
0.0
 30
0.0
  9
$UCSXDIR
 10
1.0
 20
0.0
 30
0.0
  9
$UCSYDIR
 10
0.0
 20
1.0
 30
0.0
  9
$PUCSNAME
  2

  9
$PUCSORG
 10
0.0
 20
0.0
 30
0.0
  9
$PUCSXDIR
 10
1.0
 20
0.0
 30
0.0
  9
$PUCSYDIR
 10
0.0
 20
1.0
 30
0.0
  9
$USERI1
 70
     0
  9
$USERI2
 70
     0
  9
$USERI3
 70
     0
  9
$USERI4
 70
     0
  9
$USERI5
 70
     0
  9
$USERR1
 40
0.0
  9
$USERR2
 40
0.0
  9
$USERR3
 40
0.0
  9
$USERR4
 40
0.0
  9
$USERR5
 40
0.0
  9
$WORLDVIEW
 70
     1
  9
$SHADEDGE
 70
     3
  9
$SHADEDIF
 70
    70
  9
$TILEMODE
 70
     1
  9
$MAXACTVP
 70
    64
  9
$PLIMCHECK
 70
     0
  9
$PEXTMIN
 10
1.0000000000000000E+020
 20
1.0000000000000000E+020
 30
1.0000000000000000E+020
  9
$PEXTMAX
 10
-1.0000000000000000E+020
 20
-1.0000000000000000E+020
 30
-1.0000000000000000E+020
  9
$PLIMMIN
 10
0.0
 20
0.0
  9
$PLIMMAX
 10
420.0
 20
297.0
  9
$UNITMODE
 70
     0
  9
$VISRETAIN
 70
     1
  9
$PLINEGEN
 70
     0
  9
$PSLTSCALE
 70
     1
  0
ENDSEC
  0
SECTION
  2
TABLES
  0
TABLE
  2
VPORT
 70
     3
  0
VPORT
  2
*ACTIVE
 70
     0
 10
0.0
 20
0.0
 11
1.0
 21
1.0
 12
320.0640326975477
 22
148.5
 13
0.0
 23
0.0
 14
10.0
 24
10.0
 15
10.0
 25
10.0
 16
0.0
 26
0.0
 36
1.0
 17
0.0
 27
0.0
 37
0.0
 40
297.0
 41
2.1553133514986369
 42
50.0
 43
0.0
 44
0.0
 50
0.0
 51
0.0
 71
     0
 72
   100
 73
     1
 74
     3
 75
     0
 76
     0
 77
     0
 78
     0
  0
ENDTAB
  0
TABLE
  2
LTYPE
 70
     1
  0
LTYPE
  2
CONTINUOUS
 70
     0
  3
Solid line
 72
    65
 73
     0
 40
0.0
  0
ENDTAB
  0
TABLE
  2
LAYER
 70
     2
  0
LAYER
  2
0
 70
     0
 62
     7
  6
CONTINUOUS
  0
LAYER
  2
1外形線
 70
     0
 62
     3
  6
CONTINUOUS
  0
ENDTAB
  0
TABLE
  2
STYLE
 70
     2
  0
STYLE
  2
STANDARD
 70
     0
 40
0.0
 41
1.0
 50
0.0
 71
     0
 42
2.5
  3
txt
  4

  0
STYLE
  2
KANJI
 70
     0
 40
0.0
 41
1.0
 50
0.0
 71
     0
 42
8.0
  3
simplex
  4
bigfont
  0
ENDTAB
  0
TABLE
  2
VIEW
 70
     0
  0
ENDTAB
  0
TABLE
  2
UCS
 70
     0
  0
ENDTAB
  0
TABLE
  2
APPID
 70
     1
  0
APPID
  2
ACAD
 70
     0
  0
ENDTAB
  0
TABLE
  2
DIMSTYLE
 70
     2
  0
DIMSTYLE
  2
ISO-25
 70
     0
  3

  4

  5

  6

  7

 40
1.0
 41
2.5
 42
0.625
 43
3.75
 44
1.25
 45
0.0
 46
0.0
 47
0.0
 48
0.0
140
2.5
141
2.5
142
0.0
143
0.03937007874016
144
1.0
145
0.0
146
1.0
147
0.625
 71
     0
 72
     0
 73
     0
 74
     0
 75
     0
 76
     0
 77
     1
 78
     8
170
     0
171
     3
172
     1
173
     0
174
     0
175
     0
176
     0
177
     0
178
     0
  0
DIMSTYLE
  2
STANDARD
 70
     0
  3

  4

  5

  6
1
  7
1
 40
1.0
 41
1.0
 42
1.0
 43
6.0
 44
1.0
 45
0.0
 46
0.0
 47
0.0
 48
0.0
140
2.5
141
0.0
142
0.0
143
25.399999999999999
144
1.0
145
0.0
146
1.0
147
0.5
 71
     0
 72
     0
 73
     0
 74
     0
 75
     0
 76
     0
 77
     1
 78
     8
170
     0
171
     2
172
     1
173
     1
174
     0
175
     0
176
     0
177
     0
178
     0
  0
ENDTAB
  0
ENDSEC
  0
SECTION
  2
BLOCKS
  0
BLOCK
  8
0
  2
$MODEL_SPACE
 70
     0
 10
0.0
 20
0.0
 30
0.0
  3
$MODEL_SPACE
  1

  0
ENDBLK
  5
21
  8
0
  0
BLOCK
 67
     1
  8
0
  2
$PAPER_SPACE
 70
     0
 10
0.0
 20
0.0
 30
0.0
  3
$PAPER_SPACE
  1

  0
ENDBLK
  5
1D
 67
     1
  8
0
  0
BLOCK
  8
0
  2
1
 70
     0
 10
0.0
 20
0.0
 30
0.0
  3
1
  1

  0
SOLID
  5
2C
  8
0
  6
BYBLOCK
 62
     0
 10
-1.811110924292052
 20
0.4852857095671653
 30
0.0
 11
-1.811110924292052
 21
-0.4852857095673642
 31
0.0
 12
0.0
 22
0.0
 32
0.0
 13
0.0
 23
0.0
 33
0.0
  0
ENDBLK
  5
2E
  8
0
  0
ENDSEC
  0
SECTION
  2
ENTITIES
  0
LINE
  5
A0
  8
1外形線
 10
170.0249837595976
 20
47.213313032292369
 30
0.0
 11
2170.0249837595979
 21
47.213313032296917
 31
0.0
  0
LINE
  5
A1
  8
1外形線
 10
170.0249837595976
 20
50.713313032292369
 30
0.0
 11
2170.024983759597
 21
50.71331303229681
 31
0.0
  0
LINE
  5
A2
  8
1外形線
 10
2170.024983759597
 20
214.07827997167149
 30
0.0
 11
170.0249837595976
 21
214.07827997167101
 31
0.0
  0
LINE
  5
A3
  8
1外形線
 10
2170.0249837595979
 20
150.07827997167061
 30
0.0
 11
170.0249837595976
 21
150.07827997167109
 31
0.0
  0
LINE
  5
A4
  8
1外形線
 10
170.0249837595976
 20
112.71331303229231
 30
0.0
 11
2170.024983759597
 21
112.7133130322879
 31
0.0
  0
LINE
  5
A5
  8
1外形線
 10
170.0249837595976
 20
116.21331303229231
 30
0.0
 11
2170.0249837595979
 21
116.2133130322878
 31
0.0
  0
ARC
  5
A6
  8
1外形線
 10
79.357456305951345
 20
180.07827997167109
 30
0.0
 40
31.0
 50
0.0
 51
180.0
  0
ARC
  5
A7
  8
1外形線
 10
79.357456305951345
 20
180.07827997167109
 30
0.0
 40
34.0
 50
0.9459919373416983
 51
179.05400806265831
  0
LINE
  5
A8
  8
1外形線
 10
170.0249837595976
 20
214.0782799716709
 30
0.0
 11
170.0249837595976
 21
150.07827997167109
 31
0.0
  0
LINE
  5
A9
  8
1外形線
 10
170.0249837595976
 20
116.21331303229231
 30
0.0
 11
170.02498375959749
 21
47.213313032292149
 31
0.0
  0
ARC
  5
AA
  8
1外形線
 10
109.8574563059513
 20
155.92357943329191
 30
0.0
 40
0.5
 50
0.0
 51
60.000000000001329
  0
ARC
  5
AB
  8
1外形線
 10
109.3574563059515
 20
154.87827997167139
 30
0.0
 40
1.0
 50
0.0
 51
89.999999999999588
  0
ARC
  5
AC
  8
1外形線
 10
109.8574563059513
 20
159.0499678081583
 30
0.0
 40
0.5
 50
270.0
 51
0.0
  0
LINE
  5
AD
  8
1外形線
 10
48.357456305951359
 20
150.07827997167121
 30
0.0
 11
110.3574563059513
 21
150.07827997167121
 31
0.0
  0
LINE
  5
AE
  8
1外形線
 10
108.3574563059513
 20
152.07827997167121
 30
0.0
 11
50.357456305951359
 21
152.07827997167121
 31
0.0
  0
LINE
  5
AF
  8
1外形線
 10
50.471980003849133
 20
160.6674016933562
 30
0.0
 11
51.202528196274102
 21
161.3979498857812
 31
0.0
  0
ARC
  5
B0
  8
1外形線
 10
49.768499315434042
 20
160.67102778612829
 30
0.0
 40
1.0
 50
134.99999999999969
 51
224.4093427853544
  0
LINE
  5
B1
  8
1外形線
 10
48.357456305951359
 20
180.07827997167109
 30
0.0
 11
48.357456305951359
 21
159.0499678081583
 31
0.0
  0
LINE
  5
B2
  8
1外形線
 10
44.857456305951352
 20
150.07827997167121
 30
0.0
 11
45.362090440730007
 21
180.63961738334231
 31
0.0
  0
ARC
  5
B3
  8
1外形線
 10
56.718038173575451
 20
158.57827997167121
 30
0.0
 40
3.0
 50
224.40934278535349
 51
270.0
  0
ARC
  5
B4
  8
1外形線
 10
57.357456305951359
 20
154.82827997167121
 30
0.0
 40
0.7500000000000029
 50
270.0
 51
90.0
  0
LINE
  5
B5
  8
1外形線
 10
56.718038173575451
 20
155.57827997167121
 30
0.0
 11
57.357456305951359
 21
155.57827997167121
 31
0.0
  0
LINE
  5
B6
  8
1外形線
 10
50.357456305951359
 20
152.07827997167121
 30
0.0
 11
50.357456305951359
 21
154.07827997167121
 31
0.0
  0
LINE
  5
B7
  8
1外形線
 10
49.357456305951352
 20
155.87827997167091
 30
0.0
 11
51.873854239027189
 21
155.87827997167091
 31
0.0
  0
ARC
  5
B8
  8
1外形線
 10
49.357456305951132
 20
154.87827997167139
 30
0.0
 40
1.0
 50
90.000000000000398
 51
180.0
  0
ARC
  5
B9
  8
1外形線
 10
51.873854239027189
 20
156.37827997167091
 30
0.0
 40
0.5
 50
270.0
 51
44.409342785353019
  0
LINE
  5
BA
  8
1外形線
 10
49.982456305951352
 20
157.1504487553197
 30
0.0
 11
48.607456305951359
 21
156.3565921351842
 31
0.0
  0
ARC
  5
BB
  8
1外形線
 10
48.857456305951359
 20
155.92357943329191
 30
0.0
 40
0.5
 50
119.99999999999859
 51
180.0
  0
LINE
  5
BC
  8
1外形線
 10
48.357456305951359
 20
155.92357943329191
 30
0.0
 11
48.357456305951359
 21
150.07827997167121
 31
0.0
  0
ARC
  5
BD
  8
1外形線
 10
47.857456305951359
 20
153.22966779053689
 30
0.0
 40
0.5
 50
326.30993247402102
 51
0.0
  0
LINE
  5
BE
  8
1外形線
 10
49.607456305951132
 20
158.54996780815819
 30
0.0
 11
48.857456305951359
 21
158.54996780815819
 31
0.0
  0
ARC
  5
BF
  8
1外形線
 10
48.857456305951359
 20
159.0499678081583
 30
0.0
 40
0.5
 50
180.0
 51
270.0
  0
ARC
  5
C0
  8
1外形線
 10
49.607456305951132
 20
157.79996780815819
 30
0.0
 40
0.75
 50
299.99999999999858
 51
90.0
  0
LINE
  5
C1
  8
1外形線
 10
52.231033529714857
 20
156.7281698890792
 30
0.0
 11
49.054140734058933
 21
159.97124795131171
 31
0.0
  0
LINE
  5
C2
  8
1外形線
 10
46.089864426707379
 20
150.07827997167121
 30
0.0
 11
44.857456305951352
 21
150.07827997167121
 31
0.0
  0
ARC
  5
C3
  8
1外形線
 10
46.089864426707379
 20
150.57827997167121
 30
0.0
 40
0.5
 50
270.0
 51
326.30993247402102
  0
LINE
  5
C4
  8
1外形線
 10
46.505889573876281
 20
150.30092987355849
 30
0.0
 11
48.273481453120269
 21
152.9523176924244
 31
0.0
  0
LINE
  5
C5
  8
1外形線
 10
50.357456305951359
 20
154.07827997167121
 30
0.0
 11
57.357456305951359
 21
154.07827997167121
 31
0.0
  0
LINE
  5
C6
  8
1外形線
 10
54.574962429450011
 20
156.47894046722189
 30
0.0
 11
50.471980003849133
 21
160.6674016933562
 31
0.0
  0
ARC
  5
C7
  8
1外形線
 10
50.672198110383881
 20
161.92827997167149
 30
0.0
 40
0.75
 50
314.99999999999972
 51
134.99999999999969
  0
LINE
  5
C8
  8
1外形線
 10
49.061392534247602
 20
161.3781345673147
 30
0.0
 11
50.141868024494102
 21
162.4586100575612
 31
0.0
  0
LINE
  5
C9
  8
1外形線
 10
108.24293260805359
 20
160.6674016933562
 30
0.0
 11
107.5123844156286
 21
161.3979498857812
 31
0.0
  0
ARC
  5
CA
  8
1外形線
 10
108.94641329646861
 20
160.67102778612829
 30
0.0
 40
1.0
 50
315.59065721464549
 51
45.000000000000291
  0
LINE
  5
CB
  8
1外形線
 10
108.3574563059513
 20
152.07827997167121
 30
0.0
 11
108.3574563059513
 21
154.07827997167121
 31
0.0
  0
LINE
  5
CC
  8
1外形線
 10
109.3574563059513
 20
155.87827997167091
 30
0.0
 11
106.84105837287549
 21
155.87827997167091
 31
0.0
  0
ARC
  5
CD
  8
1外形線
 10
106.84105837287549
 20
156.37827997167091
 30
0.0
 40
0.5
 50
135.59065721464691
 51
270.0
  0
LINE
  5
CE
  8
1外形線
 10
109.1074563059516
 20
158.54996780815819
 30
0.0
 11
109.8574563059513
 21
158.54996780815819
 31
0.0
  0
ARC
  5
CF
  8
1外形線
 10
109.1074563059516
 20
157.79996780815819
 30
0.0
 40
0.75
 50
90.0
 51
240.00000000000131
  0
LINE
  5
D0
  8
1外形線
 10
108.7324563059513
 20
157.1504487553197
 30
0.0
 11
110.1074563059513
 21
156.3565921351842
 31
0.0
  0
LINE
  5
D1
  8
1外形線
 10
104.13995018245269
 20
156.47894046722189
 30
0.0
 11
108.24293260805359
 21
160.6674016933562
 31
0.0
  0
LINE
  5
D2
  8
1外形線
 10
106.4838790821878
 20
156.7281698890792
 30
0.0
 11
109.6607718778437
 21
159.97124795131171
 31
0.0
  0
ARC
  5
D3
  8
1外形線
 10
101.3574563059513
 20
154.82827997167121
 30
0.0
 40
0.7500000000000029
 50
90.0
 51
270.0
  0
LINE
  5
D4
  8
1外形線
 10
101.9968744383272
 20
155.57827997167121
 30
0.0
 11
101.3574563059513
 21
155.57827997167121
 31
0.0
  0
LINE
  5
D5
  8
1外形線
 10
108.3574563059513
 20
154.07827997167121
 30
0.0
 11
101.3574563059513
 21
154.07827997167121
 31
0.0
  0
ARC
  5
D6
  8
1外形線
 10
101.9968744383272
 20
158.57827997167121
 30
0.0
 40
3.0
 50
270.0
 51
315.59065721464628
  0
LINE
  5
D7
  8
1外形線
 10
109.6535200776551
 20
161.3781345673147
 30
0.0
 11
108.5730445874086
 21
162.4586100575612
 31
0.0
  0
ARC
  5
D8
  8
1外形線
 10
108.0427145015188
 20
161.92827997167149
 30
0.0
 40
0.75
 50
45.000000000000291
 51
225.00000000000031
  0
LINE
  5
D9
  8
1外形線
 10
110.3574563059513
 20
180.07827997167109
 30
0.0
 11
110.3574563059513
 21
159.0499678081583
 31
0.0
  0
LINE
  5
DA
  8
1外形線
 10
113.8574563059513
 20
150.07827997167121
 30
0.0
 11
113.3528221711727
 21
180.63961738334231
 31
0.0
  0
LINE
  5
DB
  8
1外形線
 10
110.3574563059513
 20
155.92357943329191
 30
0.0
 11
110.3574563059513
 21
150.07827997167121
 31
0.0
  0
ARC
  5
DC
  8
1外形線
 10
110.8574563059513
 20
153.22966779053689
 30
0.0
 40
0.5
 50
180.0
 51
213.69006752597861
  0
LINE
  5
DD
  8
1外形線
 10
112.6250481851953
 20
150.07827997167121
 30
0.0
 11
113.8574563059513
 21
150.07827997167121
 31
0.0
  0
ARC
  5
DE
  8
1外形線
 10
112.6250481851953
 20
150.57827997167121
 30
0.0
 40
0.5
 50
213.69006752597861
 51
270.0
  0
LINE
  5
DF
  8
1外形線
 10
112.2090230380264
 20
150.30092987355849
 30
0.0
 11
110.44143115878239
 21
152.9523176924244
 31
0.0
  0
CIRCLE
  5
E0
  8
1外形線
 10
220.02498375959769
 20
81.713313032292263
 30
0.0
 40
2.1000000000000001
  0
CIRCLE
  5
E1
  8
1外形線
 10
320.02498375959772
 20
81.713313032292263
 30
0.0
 40
2.1000000000000001
  0
CIRCLE
  5
E2
  8
1外形線
 10
320.02498375959772
 20
81.713313032292263
 30
0.0
 40
2.1000000000000001
  0
CIRCLE
  5
E3
  8
1外形線
 10
420.0249837595976
 20
81.713313032292263
 30
0.0
 40
2.1000000000000001
  0
CIRCLE
  5
E4
  8
1外形線
 10
420.0249837595976
 20
81.713313032292263
 30
0.0
 40
2.1000000000000001
  0
CIRCLE
  5
E5
  8
1外形線
 10
520.0249837595976
 20
81.713313032292263
 30
0.0
 40
2.1000000000000001
  0
CIRCLE
  5
E6
  8
1外形線
 10
520.0249837595976
 20
81.713313032292263
 30
0.0
 40
2.1000000000000001
  0
CIRCLE
  5
E7
  8
1外形線
 10
620.0249837595976
 20
81.713313032292263
 30
0.0
 40
2.1000000000000001
  0
CIRCLE
  5
E8
  8
1外形線
 10
620.0249837595976
 20
81.713313032292263
 30
0.0
 40
2.1000000000000001
  0
CIRCLE
  5
E9
  8
1外形線
 10
720.0249837595976
 20
81.713313032292263
 30
0.0
 40
2.1000000000000001
  0
CIRCLE
  5
EA
  8
1外形線
 10
720.0249837595976
 20
81.713313032292263
 30
0.0
 40
2.1000000000000001
  0
CIRCLE
  5
EB
  8
1外形線
 10
820.02498375959772
 20
81.713313032292263
 30
0.0
 40
2.1000000000000001
  0
CIRCLE
  5
EC
  8
1外形線
 10
820.02498375959772
 20
81.713313032292263
 30
0.0
 40
2.1000000000000001
  0
CIRCLE
  5
ED
  8
1外形線
 10
920.02498375959772
 20
81.713313032292263
 30
0.0
 40
2.1000000000000001
  0
CIRCLE
  5
EE
  8
1外形線
 10
920.02498375959772
 20
81.713313032292263
 30
0.0
 40
2.1000000000000001
  0
CIRCLE
  5
EF
  8
1外形線
 10
1020.024983759597
 20
81.713313032292263
 30
0.0
 40
2.1000000000000001
  0
CIRCLE
  5
F0
  8
1外形線
 10
1020.024983759597
 20
81.713313032292263
 30
0.0
 40
2.1000000000000001
  0
CIRCLE
  5
F1
  8
1外形線
 10
1120.024983759597
 20
81.713313032292263
 30
0.0
 40
2.1000000000000001
  0
CIRCLE
  5
F2
  8
1外形線
 10
1120.024983759597
 20
81.713313032292263
 30
0.0
 40
2.1000000000000001
  0
CIRCLE
  5
F3
  8
1外形線
 10
1220.024983759597
 20
81.713313032292263
 30
0.0
 40
2.1000000000000001
  0
CIRCLE
  5
F4
  8
1外形線
 10
1220.024983759597
 20
81.713313032292263
 30
0.0
 40
2.1000000000000001
  0
CIRCLE
  5
F5
  8
1外形線
 10
1320.024983759597
 20
81.713313032292263
 30
0.0
 40
2.1000000000000001
  0
CIRCLE
  5
F6
  8
1外形線
 10
1320.024983759597
 20
81.713313032292263
 30
0.0
 40
2.1000000000000001
  0
CIRCLE
  5
F7
  8
1外形線
 10
1420.024983759597
 20
81.713313032292263
 30
0.0
 40
2.1000000000000001
  0
CIRCLE
  5
F8
  8
1外形線
 10
1420.024983759597
 20
81.713313032292263
 30
0.0
 40
2.1000000000000001
  0
CIRCLE
  5
F9
  8
1外形線
 10
1520.024983759597
 20
81.713313032292263
 30
0.0
 40
2.1000000000000001
  0
CIRCLE
  5
FA
  8
1外形線
 10
1520.024983759597
 20
81.713313032292263
 30
0.0
 40
2.1000000000000001
  0
CIRCLE
  5
FB
  8
1外形線
 10
1620.024983759597
 20
81.713313032292263
 30
0.0
 40
2.1000000000000001
  0
CIRCLE
  5
FC
  8
1外形線
 10
1620.024983759597
 20
81.713313032292263
 30
0.0
 40
2.1000000000000001
  0
CIRCLE
  5
FD
  8
1外形線
 10
1720.024983759597
 20
81.713313032292263
 30
0.0
 40
2.1000000000000001
  0
CIRCLE
  5
FE
  8
1外形線
 10
1720.024983759597
 20
81.713313032292263
 30
0.0
 40
2.1000000000000001
  0
CIRCLE
  5
FF
  8
1外形線
 10
1820.024983759597
 20
81.713313032292263
 30
0.0
 40
2.1000000000000001
  0
CIRCLE
  5
100
  8
1外形線
 10
1820.024983759597
 20
81.713313032292263
 30
0.0
 40
2.1000000000000001
  0
LINE
  5
101
  8
1外形線
 10
2170.024983759597
 20
214.07827997167149
 30
0.0
 11
2170.024983759597
 21
150.07827997167109
 31
0.0
  0
CIRCLE
  5
102
  8
1外形線
 10
1920.024983759597
 20
81.713313032292263
 30
0.0
 40
2.1000000000000001
  0
CIRCLE
  5
103
  8
1外形線
 10
1920.024983759597
 20
81.713313032292263
 30
0.0
 40
2.1000000000000001
  0
CIRCLE
  5
104
  8
1外形線
 10
2020.024983759597
 20
81.713313032292263
 30
0.0
 40
2.1000000000000001
  0
CIRCLE
  5
105
  8
1外形線
 10
2020.024983759597
 20
81.713313032292263
 30
0.0
 40
2.1000000000000001
  0
LINE
  5
106
  8
1外形線
 10
2170.024983759597
 20
116.2133130322879
 30
0.0
 11
2170.024983759597
 21
47.21331303229681
 31
0.0
  0
CIRCLE
  5
107
  8
1外形線
 10
2120.024983759597
 20
81.713313032292263
 30
0.0
 40
2.1000000000000001
  0
CIRCLE
  5
108
  8
1外形線
 10
2120.024983759597
 20
81.713313032292263
 30
0.0
 40
2.1000000000000001
  0
ENDSEC
  0
EOF
