  0
SECTION
  2
HEADER
  9
$ACADVER
  1
AC1009
  9
$INSBASE
 10
0.0
 20
0.0
 30
0.0
  9
$EXTMIN
 10
60.53405819737668
 20
60.515220494388217
 30
0.0
  9
$EXTMAX
 10
115.36127997498529
 20
113.2662671598471
 30
0.0
  9
$LIMMIN
 10
0.0
 20
0.0
  9
$LIMMAX
 10
420.0
 20
297.0
  9
$ORTHOMODE
 70
     0
  9
$REGENMODE
 70
     1
  9
$FILLMODE
 70
     1
  9
$QTEXTMODE
 70
     0
  9
$MIRRTEXT
 70
     1
  9
$DRAGMODE
 70
     2
  9
$LTSCALE
 40
1.0
  9
$OSMODE
 70
    37
  9
$ATTMODE
 70
     1
  9
$TEXTSIZE
 40
2.5
  9
$TRACEWID
 40
1.0
  9
$TEXTSTYLE
  7
STANDARD
  9
$CLAYER
  8
0
  9
$CELTYPE
  6
BYLAYER
  9
$CECOLOR
 62
   256
  9
$DIMSCALE
 40
1.0
  9
$DIMASZ
 40
2.5
  9
$DIMEXO
 40
0.625
  9
$DIMDLI
 40
3.75
  9
$DIMRND
 40
0.0
  9
$DIMDLE
 40
0.0
  9
$DIMEXE
 40
1.25
  9
$DIMTP
 40
0.0
  9
$DIMTM
 40
0.0
  9
$DIMTXT
 40
2.5
  9
$DIMCEN
 40
2.5
  9
$DIMTSZ
 40
0.0
  9
$DIMTOL
 70
     0
  9
$DIMLIM
 70
     0
  9
$DIMTIH
 70
     0
  9
$DIMTOH
 70
     0
  9
$DIMSE1
 70
     0
  9
$DIMSE2
 70
     0
  9
$DIMTAD
 70
     1
  9
$DIMZIN
 70
     8
  9
$DIMBLK
  1

  9
$DIMASO
 70
     1
  9
$DIMSHO
 70
     1
  9
$DIMPOST
  1

  9
$DIMAPOST
  1

  9
$DIMALT
 70
     0
  9
$DIMALTD
 70
     3
  9
$DIMALTF
 40
0.03937007874016
  9
$DIMLFAC
 40
1.0
  9
$DIMTOFL
 70
     1
  9
$DIMTVP
 40
0.0
  9
$DIMTIX
 70
     0
  9
$DIMSOXD
 70
     0
  9
$DIMSAH
 70
     0
  9
$DIMBLK1
  1

  9
$DIMBLK2
  1

  9
$DIMSTYLE
  2
ISO-25
  9
$DIMCLRD
 70
     0
  9
$DIMCLRE
 70
     0
  9
$DIMCLRT
 70
     0
  9
$DIMTFAC
 40
1.0
  9
$DIMGAP
 40
0.625
  9
$LUNITS
 70
     2
  9
$LUPREC
 70
     4
  9
$SKETCHINC
 40
1.0
  9
$FILLETRAD
 40
10.0
  9
$AUNITS
 70
     0
  9
$AUPREC
 70
     0
  9
$MENU
  1
.
  9
$ELEVATION
 40
0.0
  9
$PELEVATION
 40
0.0
  9
$THICKNESS
 40
0.0
  9
$LIMCHECK
 70
     0
  9
$BLIPMODE
 70
     0
  9
$CHAMFERA
 40
10.0
  9
$CHAMFERB
 40
10.0
  9
$SKPOLY
 70
     0
  9
$TDCREATE
 40
2452451.59046133
  9
$TDUPDATE
 40
2452451.5907869209
  9
$TDINDWG
 40
0.000325706
  9
$TDUSRTIMER
 40
0.000325706
  9
$USRTIMER
 70
     1
  9
$ANGBASE
 50
0.0
  9
$ANGDIR
 70
     0
  9
$PDMODE
 70
     0
  9
$PDSIZE
 40
0.0
  9
$PLINEWID
 40
0.0
  9
$COORDS
 70
     1
  9
$SPLFRAME
 70
     0
  9
$SPLINETYPE
 70
     6
  9
$SPLINESEGS
 70
     8
  9
$ATTDIA
 70
     0
  9
$ATTREQ
 70
     1
  9
$HANDLING
 70
-16383
  9
$HANDSEED
  5
C1
  9
$SURFTAB1
 70
     6
  9
$SURFTAB2
 70
     6
  9
$SURFTYPE
 70
     6
  9
$SURFU
 70
     6
  9
$SURFV
 70
     6
  9
$UCSNAME
  2

  9
$UCSORG
 10
0.0
 20
0.0
 30
0.0
  9
$UCSXDIR
 10
1.0
 20
0.0
 30
0.0
  9
$UCSYDIR
 10
0.0
 20
1.0
 30
0.0
  9
$PUCSNAME
  2

  9
$PUCSORG
 10
0.0
 20
0.0
 30
0.0
  9
$PUCSXDIR
 10
1.0
 20
0.0
 30
0.0
  9
$PUCSYDIR
 10
0.0
 20
1.0
 30
0.0
  9
$USERI1
 70
     0
  9
$USERI2
 70
     0
  9
$USERI3
 70
     0
  9
$USERI4
 70
     0
  9
$USERI5
 70
     0
  9
$USERR1
 40
0.0
  9
$USERR2
 40
0.0
  9
$USERR3
 40
0.0
  9
$USERR4
 40
0.0
  9
$USERR5
 40
0.0
  9
$WORLDVIEW
 70
     1
  9
$SHADEDGE
 70
     3
  9
$SHADEDIF
 70
    70
  9
$TILEMODE
 70
     1
  9
$MAXACTVP
 70
    64
  9
$PLIMCHECK
 70
     0
  9
$PEXTMIN
 10
1.0000000000000000E+020
 20
1.0000000000000000E+020
 30
1.0000000000000000E+020
  9
$PEXTMAX
 10
-1.0000000000000000E+020
 20
-1.0000000000000000E+020
 30
-1.0000000000000000E+020
  9
$PLIMMIN
 10
0.0
 20
0.0
  9
$PLIMMAX
 10
420.0
 20
297.0
  9
$UNITMODE
 70
     0
  9
$VISRETAIN
 70
     1
  9
$PLINEGEN
 70
     0
  9
$PSLTSCALE
 70
     1
  0
ENDSEC
  0
SECTION
  2
TABLES
  0
TABLE
  2
VPORT
 70
     3
  0
VPORT
  2
*ACTIVE
 70
     0
 10
0.0
 20
0.0
 11
1.0
 21
1.0
 12
209.99999999999989
 22
159.7959183673469
 13
0.0
 23
0.0
 14
10.0
 24
10.0
 15
10.0
 25
10.0
 16
0.0
 26
0.0
 36
1.0
 17
0.0
 27
0.0
 37
0.0
 40
319.5918367346938
 41
1.3141762452107271
 42
50.0
 43
0.0
 44
0.0
 50
0.0
 51
0.0
 71
     0
 72
   100
 73
     1
 74
     3
 75
     0
 76
     0
 77
     0
 78
     0
  0
ENDTAB
  0
TABLE
  2
LTYPE
 70
     2
  0
LTYPE
  2
CONTINUOUS
 70
     0
  3
Solid line
 72
    65
 73
     0
 40
0.0
  0
LTYPE
  2
CENTER
 70
     0
  3
____ _ ____ _ ____ _ ____ _ ____ _ ____ _ ____ 
 72
    65
 73
     4
 40
2.0
 49
1.25
 49
-0.25
 49
0.25
 49
-0.25
  0
ENDTAB
  0
TABLE
  2
LAYER
 70
     2
  0
LAYER
  2
0
 70
     0
 62
     7
  6
CONTINUOUS
  0
LAYER
  2
1外形線
 70
     0
 62
     3
  6
CONTINUOUS
  0
ENDTAB
  0
TABLE
  2
STYLE
 70
     2
  0
STYLE
  2
STANDARD
 70
     0
 40
0.0
 41
1.0
 50
0.0
 71
     0
 42
2.5
  3
txt
  4

  0
STYLE
  2
KANJI
 70
     0
 40
0.0
 41
1.0
 50
0.0
 71
     0
 42
2.0
  3
simplex
  4
bigfont
  0
ENDTAB
  0
TABLE
  2
VIEW
 70
     0
  0
ENDTAB
  0
TABLE
  2
UCS
 70
     0
  0
ENDTAB
  0
TABLE
  2
APPID
 70
     1
  0
APPID
  2
ACAD
 70
     0
  0
ENDTAB
  0
TABLE
  2
DIMSTYLE
 70
     2
  0
DIMSTYLE
  2
ISO-25
 70
     0
  3

  4

  5

  6

  7

 40
1.0
 41
2.5
 42
0.625
 43
3.75
 44
1.25
 45
0.0
 46
0.0
 47
0.0
 48
0.0
140
2.5
141
2.5
142
0.0
143
0.03937007874016
144
1.0
145
0.0
146
1.0
147
0.625
 71
     0
 72
     0
 73
     0
 74
     0
 75
     0
 76
     0
 77
     1
 78
     8
170
     0
171
     3
172
     1
173
     0
174
     0
175
     0
176
     0
177
     0
178
     0
  0
DIMSTYLE
  2
STANDARD
 70
     0
  3

  4

  5

  6
1
  7
1
 40
1.0
 41
1.0
 42
1.0
 43
6.0
 44
1.0
 45
0.0
 46
0.0
 47
0.0
 48
0.0
140
2.5
141
0.0
142
0.0
143
25.399999999999999
144
1.0
145
0.0
146
1.0
147
0.5
 71
     0
 72
     0
 73
     0
 74
     0
 75
     0
 76
     0
 77
     1
 78
     8
170
     0
171
     2
172
     1
173
     1
174
     0
175
     0
176
     0
177
     0
178
     0
  0
ENDTAB
  0
ENDSEC
  0
SECTION
  2
BLOCKS
  0
BLOCK
  8
0
  2
$MODEL_SPACE
 70
     0
 10
0.0
 20
0.0
 30
0.0
  3
$MODEL_SPACE
  1

  0
ENDBLK
  5
21
  8
0
  0
BLOCK
 67
     1
  8
0
  2
$PAPER_SPACE
 70
     0
 10
0.0
 20
0.0
 30
0.0
  3
$PAPER_SPACE
  1

  0
ENDBLK
  5
1D
 67
     1
  8
0
  0
BLOCK
  8
0
  2
1
 70
     0
 10
0.0
 20
0.0
 30
0.0
  3
1
  1

  0
SOLID
  5
2C
  8
0
  6
BYBLOCK
 62
     0
 10
-1.811110924292052
 20
0.4852857095671653
 30
0.0
 11
-1.811110924292052
 21
-0.4852857095673642
 31
0.0
 12
0.0
 22
0.0
 32
0.0
 13
0.0
 23
0.0
 33
0.0
  0
ENDBLK
  5
2E
  8
0
  0
ENDSEC
  0
SECTION
  2
ENTITIES
  0
LINE
  5
79
  8
1外形線
 10
115.36127997498529
 20
112.4020796891793
 30
0.0
 11
115.361279974985
 21
89.659160378660559
 31
0.0
  0
LINE
  5
7A
  8
1外形線
 10
102.36127997498539
 20
112.4020796891793
 30
0.0
 11
102.36127997498549
 21
89.659160378660545
 31
0.0
  0
LINE
  5
7B
  8
1外形線
 10
110.86127997498529
 20
112.05916037866049
 30
0.0
 11
110.86127997498529
 21
95.45916037866067
 31
0.0
  0
LINE
  5
7C
  8
1外形線
 10
106.86127997498519
 20
112.05916037866049
 30
0.0
 11
106.86127997498529
 21
95.45916037866067
 31
0.0
  0
ARC
  5
7D
  8
1外形線
 10
75.176698884496204
 20
104.4591603786604
 30
0.0
 40
9.0
 50
306.86989764584558
 51
41.409622109270963
  0
ARC
  5
7E
  8
1外形線
 10
75.176698884496204
 20
104.4591603786604
 30
0.0
 40
12.5
 50
309.02280256523397
 51
41.409622109270963
  0
ARC
  5
7F
  8
1外形線
 10
75.176698884496204
 20
104.4591603786604
 30
0.0
 40
11.5
 50
312.84364304359741
 51
41.393778530980597
  0
ARC
  5
80
  8
1外形線
 10
76.176698884496204
 20
104.4591603786604
 30
0.0
 40
11.5
 50
138.60622146901929
 51
227.1563569564025
  0
ARC
  5
81
  8
1外形線
 10
76.176698884496204
 20
104.4591603786604
 30
0.0
 40
12.5
 50
138.590377890729
 51
230.9771974347662
  0
ARC
  5
82
  8
1外形線
 10
76.176698884496204
 20
104.4591603786604
 30
0.0
 40
9.0
 50
138.590377890729
 51
233.1301023541543
  0
LINE
  5
83
  8
1外形線
 10
61.776698884495893
 20
67.757861181508872
 30
0.0
 11
61.776698884497357
 21
74.257861181507621
 31
0.0
  0
ARC
  5
84
  8
1外形線
 10
83.576698884495826
 20
68.757861181507621
 30
0.0
 40
6.0
 50
0.0
 51
90.000000000000398
  0
LINE
  5
85
  8
1外形線
  6
CONTINUOUS
 10
89.076698884497304
 20
61.757861181507671
 30
0.0
 11
67.776698884496028
 21
61.757861181507501
 31
0.0
  0
ARC
  5
86
  8
1外形線
 10
67.776698884495971
 20
67.757861181507508
 30
0.0
 40
6.0
 50
180.0
 51
270.0
  0
CIRCLE
  5
87
  8
1外形線
 10
75.676698884495977
 20
68.257861181507508
 30
0.0
 40
2.1000000000000001
  0
LINE
  5
88
  8
1外形線
 10
89.576698884497318
 20
62.257861181507792
 30
0.0
 11
89.576698884495855
 21
68.757861181507621
 31
0.0
  0
ARC
  5
89
  8
1外形線
 10
89.076698884497304
 20
62.257861181507678
 30
0.0
 40
0.5
 50
270.0000000000004
 51
0.0000000000130276
  0
LINE
  5
8A
  8
1外形線
 10
71.676698884495977
 20
91.659160378660545
 30
0.0
 11
79.676698884495977
 21
91.659160378660545
 31
0.0
  0
LINE
  5
8B
  8
1外形線
  6
CONTINUOUS
 10
83.676698884495806
 20
74.757861181507621
 30
0.0
 11
62.276698884497357
 21
74.757861181507494
 31
0.0
  0
LINE
  5
8C
  8
1外形線
 10
89.576698884495954
 20
89.659160378660616
 30
0.0
 11
61.776698884495957
 21
89.65916037866053
 31
0.0
  0
ARC
  5
8D
  8
1外形線
 10
62.276698884497357
 20
74.257861181507494
 30
0.0
 40
0.5
 50
90.0
 51
179.9999999999869
  0
ARC
  5
8E
  8
1外形線
 10
67.676698884495949
 20
93.971071896959145
 30
0.0
 40
1.0
 50
0.0
 51
50.977197434766808
  0
ARC
  5
8F
  8
1外形線
 10
67.676698884495977
 20
92.659160378660474
 30
0.0
 40
1.0
 50
269.99999999999869
 51
0.0
  0
ARC
  5
90
  8
1外形線
 10
67.676698884495977
 20
95.294008988748999
 30
0.0
 40
1.0
 50
0.0
 51
47.156356956401929
  0
LINE
  5
91
  8
1外形線
 10
66.176698884496005
 20
96.959160378660783
 30
0.0
 11
66.176698884495863
 21
91.659160378660545
 31
0.0
  0
LINE
  5
92
  8
1外形線
 10
67.676698884495977
 20
91.659160378660545
 30
0.0
 11
62.276698884495943
 21
91.659160378660545
 31
0.0
  0
LINE
  5
93
  8
1外形線
 10
61.776698884495971
 20
89.65916037866053
 30
0.0
 11
61.776698884495943
 21
91.159160378660545
 31
0.0
  0
ARC
  5
94
  8
1外形線
 10
62.276698884495943
 20
91.159160378660545
 30
0.0
 40
0.5
 50
90.0
 51
180.0000000000008
  0
LINE
  5
95
  8
1外形線
 10
68.676698884495977
 20
95.294008988748999
 30
0.0
 11
68.676698884495977
 21
92.659160378660474
 31
0.0
  0
LINE
  5
96
  8
1外形線
 10
71.176698884495977
 20
96.45916037866067
 30
0.0
 11
71.176698884495977
 21
92.159160378660545
 31
0.0
  0
ARC
  5
97
  8
1外形線
 10
71.676698884495977
 20
92.159160378660545
 30
0.0
 40
0.5
 50
180.0
 51
270.0
  0
ARC
  5
98
  8
1外形線
 10
70.176698884495977
 20
96.45916037866067
 30
0.0
 40
1.0
 50
0.0
 51
53.130102354153777
  0
LINE
  5
99
  8
1外形線
 10
85.176698884496403
 20
96.959160378660783
 30
0.0
 11
85.176698884496545
 21
91.659160378660545
 31
0.0
  0
LINE
  5
9A
  8
1外形線
 10
80.176698884496446
 20
96.45916037866067
 30
0.0
 11
80.176698884496446
 21
92.159160378660545
 31
0.0
  0
ARC
  5
9B
  8
1外形線
 10
83.676698884496403
 20
93.971071896959145
 30
0.0
 40
1.0
 50
129.02280256523309
 51
180.0
  0
LINE
  5
9C
  8
1外形線
 10
82.676698884496446
 20
95.294008988748999
 30
0.0
 11
82.676698884496446
 21
92.659160378660474
 31
0.0
  0
LINE
  5
9D
  8
1外形線
 10
83.676698884496446
 20
91.659160378660488
 30
0.0
 11
89.076698884495954
 21
91.659160378660658
 31
0.0
  0
ARC
  5
9E
  8
1外形線
 10
79.676698884496432
 20
92.159160378660545
 30
0.0
 40
0.5
 50
270.0
 51
0.0
  0
ARC
  5
9F
  8
1外形線
 10
83.676698884496432
 20
92.659160378660474
 30
0.0
 40
1.0
 50
180.0
 51
270.0000000000008
  0
LINE
  5
A0
  8
1外形線
 10
89.576698884495954
 20
89.659160378660616
 30
0.0
 11
89.576698884495954
 21
91.159160378660602
 31
0.0
  0
ARC
  5
A1
  8
1外形線
 10
89.076698884495954
 20
91.159160378660602
 30
0.0
 40
0.5
 50
359.9999999999996
 51
90.000000000000398
  0
ARC
  5
A2
  8
1外形線
 10
83.676698884496432
 20
95.294008988748999
 30
0.0
 40
1.0
 50
132.84364304359801
 51
180.0
  0
ARC
  5
A3
  8
1外形線
 10
81.176698884496432
 20
96.45916037866067
 30
0.0
 40
1.0
 50
126.86989764584619
 51
180.0
  0
LINE
  5
A4
  8
1外形線
 10
102.36127997498561
 20
91.659143098469542
 30
0.0
 11
115.3612799749851
 21
91.659143098469315
 31
0.0
  0
LINE
  5
A5
  8
1外形線
 10
110.86127997498519
 20
95.741362491579423
 30
0.0
 11
115.3612799749851
 21
95.741362491579366
 31
0.0
  0
LINE
  5
A6
  8
1外形線
 10
115.361279974985
 20
89.659160378660559
 30
0.0
 11
102.36127997498549
 21
89.659160378660545
 31
0.0
  0
LINE
  5
A7
  8
1外形線
 10
109.86127997498529
 20
95.959160378660783
 30
0.0
 11
109.86127997498519
 21
91.676615443588844
 31
0.0
  0
ARC
  5
A8
  8
1外形線
  6
CENTER
 10
107.86127997498529
 20
95.45916037866067
 30
0.0
 40
1.0
 50
180.0
 51
269.9999999999992
  0
LINE
  5
A9
  8
1外形線
 10
107.86127997498519
 20
95.95916037866084
 30
0.0
 11
107.8612799749851
 21
91.676615443588844
 31
0.0
  0
ARC
  5
AA
  8
1外形線
  6
CENTER
 10
109.86127997498529
 20
95.45916037866067
 30
0.0
 40
1.0
 50
269.9999999999992
 51
0.0
  0
LINE
  5
AB
  8
1外形線
 10
102.36127997498549
 20
95.741362491579366
 30
0.0
 11
106.86127997498519
 21
95.741362491579423
 31
0.0
  0
ARC
  5
AC
  8
1外形線
 10
108.86127997498529
 20
95.959160378660783
 30
0.0
 40
1.0
 50
0.0
 51
179.99999999999869
  0
LINE
  5
AD
  8
1外形線
 10
69.333770399305536
 20
111.8273669022946
 30
0.0
 11
68.20301145237633
 21
112.81298862463321
 31
0.0
  0
ARC
  5
AE
  8
1外形線
 10
68.299778709223091
 20
111.4020796891793
 30
0.0
 40
1.0
 50
48.923089557956139
 51
138.60622146901991
  0
ARC
  5
AF
  8
1外形線
 10
67.54593993756697
 20
112.05916037866049
 30
0.0
 40
1.0
 50
48.923089557957582
 51
138.63377546121879
  0
ARC
  5
B0
  8
1外形線
 10
68.676698884496204
 20
111.073538656322
 30
0.0
 40
1.0
 50
318.59037789072897
 51
48.923089557957582
  0
ARC
  5
B1
  8
1外形線
 10
83.053619059769318
 20
111.4020796891793
 30
0.0
 40
1.0
 50
41.393778530980022
 51
131.07691044204381
  0
LINE
  5
B2
  8
1外形線
 10
82.019627369686859
 20
111.8273669022946
 30
0.0
 11
83.150386316616064
 21
112.81298862463321
 31
0.0
  0
ARC
  5
B3
  8
1外形線
 10
82.676698884496204
 20
111.073538656322
 30
0.0
 40
1.0
 50
131.07691044204239
 51
221.40962210927091
  0
ARC
  5
B4
  8
1外形線
 10
83.807457831425424
 20
112.05916037866049
 30
0.0
 40
1.0
 50
41.366224538781168
 51
131.07691044204239
  0
LINE
  5
B5
  8
1外形線
 10
110.8006448383229
 20
112.4020796891793
 30
0.0
 11
115.36127997498529
 21
112.4020796891793
 31
0.0
  0
LINE
  5
B6
  8
1外形線
 10
102.36127997498539
 20
112.4020796891793
 30
0.0
 11
106.92191511164771
 21
112.4020796891793
 31
0.0
  0
ARC
  5
B7
  8
1外形線
  6
CENTER
 10
107.86127997498529
 20
112.05916037866049
 30
0.0
 40
1.0
 50
90.000000000000398
 51
180.0
  0
LINE
  5
B8
  8
1外形線
 10
109.86127997498529
 20
113.05916037866049
 30
0.0
 11
107.86127997498529
 21
113.05916037866049
 31
0.0
  0
ARC
  5
B9
  8
1外形線
  6
CENTER
 10
109.86127997498529
 20
112.05916037866049
 30
0.0
 40
1.0
 50
0.0
 51
90.000000000000398
  0
ENDSEC
  0
EOF
