  0
SECTION
  2
HEADER
  9
$ACADVER
  1
AC1009
  9
$INSBASE
 10
0.0
 20
0.0
 30
0.0
  9
$EXTMIN
 10
34.83829093508092
 20
36.050090669371173
 30
0.0
  9
$EXTMAX
 10
100.5402948037966
 20
94.338185455084854
 30
0.0
  9
$LIMMIN
 10
0.0
 20
0.0
  9
$LIMMAX
 10
420.0
 20
297.0
  9
$ORTHOMODE
 70
     0
  9
$REGENMODE
 70
     1
  9
$FILLMODE
 70
     1
  9
$QTEXTMODE
 70
     0
  9
$MIRRTEXT
 70
     1
  9
$DRAGMODE
 70
     2
  9
$LTSCALE
 40
1.0
  9
$OSMODE
 70
    37
  9
$ATTMODE
 70
     1
  9
$TEXTSIZE
 40
2.5
  9
$TRACEWID
 40
1.0
  9
$TEXTSTYLE
  7
STANDARD
  9
$CLAYER
  8
0
  9
$CELTYPE
  6
BYLAYER
  9
$CECOLOR
 62
   256
  9
$DIMSCALE
 40
1.0
  9
$DIMASZ
 40
2.5
  9
$DIMEXO
 40
0.625
  9
$DIMDLI
 40
3.75
  9
$DIMRND
 40
0.0
  9
$DIMDLE
 40
0.0
  9
$DIMEXE
 40
1.25
  9
$DIMTP
 40
0.0
  9
$DIMTM
 40
0.0
  9
$DIMTXT
 40
2.5
  9
$DIMCEN
 40
2.5
  9
$DIMTSZ
 40
0.0
  9
$DIMTOL
 70
     0
  9
$DIMLIM
 70
     0
  9
$DIMTIH
 70
     0
  9
$DIMTOH
 70
     0
  9
$DIMSE1
 70
     0
  9
$DIMSE2
 70
     0
  9
$DIMTAD
 70
     1
  9
$DIMZIN
 70
     8
  9
$DIMBLK
  1

  9
$DIMASO
 70
     1
  9
$DIMSHO
 70
     1
  9
$DIMPOST
  1

  9
$DIMAPOST
  1

  9
$DIMALT
 70
     0
  9
$DIMALTD
 70
     3
  9
$DIMALTF
 40
0.03937007874016
  9
$DIMLFAC
 40
1.0
  9
$DIMTOFL
 70
     1
  9
$DIMTVP
 40
0.0
  9
$DIMTIX
 70
     0
  9
$DIMSOXD
 70
     0
  9
$DIMSAH
 70
     0
  9
$DIMBLK1
  1

  9
$DIMBLK2
  1

  9
$DIMSTYLE
  2
ISO-25
  9
$DIMCLRD
 70
     0
  9
$DIMCLRE
 70
     0
  9
$DIMCLRT
 70
     0
  9
$DIMTFAC
 40
1.0
  9
$DIMGAP
 40
0.625
  9
$LUNITS
 70
     2
  9
$LUPREC
 70
     4
  9
$SKETCHINC
 40
1.0
  9
$FILLETRAD
 40
10.0
  9
$AUNITS
 70
     0
  9
$AUPREC
 70
     0
  9
$MENU
  1
.
  9
$ELEVATION
 40
0.0
  9
$PELEVATION
 40
0.0
  9
$THICKNESS
 40
0.0
  9
$LIMCHECK
 70
     0
  9
$BLIPMODE
 70
     0
  9
$CHAMFERA
 40
10.0
  9
$CHAMFERB
 40
10.0
  9
$SKPOLY
 70
     0
  9
$TDCREATE
 40
2452451.5908892588
  9
$TDUPDATE
 40
2452451.591065092
  9
$TDINDWG
 40
0.0001759491
  9
$TDUSRTIMER
 40
0.0001759491
  9
$USRTIMER
 70
     1
  9
$ANGBASE
 50
0.0
  9
$ANGDIR
 70
     0
  9
$PDMODE
 70
     0
  9
$PDSIZE
 40
0.0
  9
$PLINEWID
 40
0.0
  9
$COORDS
 70
     1
  9
$SPLFRAME
 70
     0
  9
$SPLINETYPE
 70
     6
  9
$SPLINESEGS
 70
     8
  9
$ATTDIA
 70
     0
  9
$ATTREQ
 70
     1
  9
$HANDLING
 70
-16383
  9
$HANDSEED
  5
C1
  9
$SURFTAB1
 70
     6
  9
$SURFTAB2
 70
     6
  9
$SURFTYPE
 70
     6
  9
$SURFU
 70
     6
  9
$SURFV
 70
     6
  9
$UCSNAME
  2

  9
$UCSORG
 10
0.0
 20
0.0
 30
0.0
  9
$UCSXDIR
 10
1.0
 20
0.0
 30
0.0
  9
$UCSYDIR
 10
0.0
 20
1.0
 30
0.0
  9
$PUCSNAME
  2

  9
$PUCSORG
 10
0.0
 20
0.0
 30
0.0
  9
$PUCSXDIR
 10
1.0
 20
0.0
 30
0.0
  9
$PUCSYDIR
 10
0.0
 20
1.0
 30
0.0
  9
$USERI1
 70
     0
  9
$USERI2
 70
     0
  9
$USERI3
 70
     0
  9
$USERI4
 70
     0
  9
$USERI5
 70
     0
  9
$USERR1
 40
0.0
  9
$USERR2
 40
0.0
  9
$USERR3
 40
0.0
  9
$USERR4
 40
0.0
  9
$USERR5
 40
0.0
  9
$WORLDVIEW
 70
     1
  9
$SHADEDGE
 70
     3
  9
$SHADEDIF
 70
    70
  9
$TILEMODE
 70
     1
  9
$MAXACTVP
 70
    64
  9
$PLIMCHECK
 70
     0
  9
$PEXTMIN
 10
1.0000000000000000E+020
 20
1.0000000000000000E+020
 30
1.0000000000000000E+020
  9
$PEXTMAX
 10
-1.0000000000000000E+020
 20
-1.0000000000000000E+020
 30
-1.0000000000000000E+020
  9
$PLIMMIN
 10
0.0
 20
0.0
  9
$PLIMMAX
 10
420.0
 20
297.0
  9
$UNITMODE
 70
     0
  9
$VISRETAIN
 70
     1
  9
$PLINEGEN
 70
     0
  9
$PSLTSCALE
 70
     1
  0
ENDSEC
  0
SECTION
  2
TABLES
  0
TABLE
  2
VPORT
 70
     3
  0
VPORT
  2
*ACTIVE
 70
     0
 10
0.0
 20
0.0
 11
1.0
 21
1.0
 12
209.99999999999989
 22
159.7959183673469
 13
0.0
 23
0.0
 14
10.0
 24
10.0
 15
10.0
 25
10.0
 16
0.0
 26
0.0
 36
1.0
 17
0.0
 27
0.0
 37
0.0
 40
319.5918367346938
 41
1.3141762452107271
 42
50.0
 43
0.0
 44
0.0
 50
0.0
 51
0.0
 71
     0
 72
   100
 73
     1
 74
     3
 75
     0
 76
     0
 77
     0
 78
     0
  0
ENDTAB
  0
TABLE
  2
LTYPE
 70
     2
  0
LTYPE
  2
CONTINUOUS
 70
     0
  3
Solid line
 72
    65
 73
     0
 40
0.0
  0
LTYPE
  2
CENTER
 70
     0
  3
____ _ ____ _ ____ _ ____ _ ____ _ ____ _ ____ 
 72
    65
 73
     4
 40
2.0
 49
1.25
 49
-0.25
 49
0.25
 49
-0.25
  0
ENDTAB
  0
TABLE
  2
LAYER
 70
     2
  0
LAYER
  2
0
 70
     0
 62
     7
  6
CONTINUOUS
  0
LAYER
  2
1外形線
 70
     0
 62
     3
  6
CONTINUOUS
  0
ENDTAB
  0
TABLE
  2
STYLE
 70
     2
  0
STYLE
  2
STANDARD
 70
     0
 40
0.0
 41
1.0
 50
0.0
 71
     0
 42
2.5
  3
txt
  4

  0
STYLE
  2
KANJI
 70
     0
 40
0.0
 41
1.0
 50
0.0
 71
     0
 42
2.0
  3
simplex
  4
bigfont
  0
ENDTAB
  0
TABLE
  2
VIEW
 70
     0
  0
ENDTAB
  0
TABLE
  2
UCS
 70
     0
  0
ENDTAB
  0
TABLE
  2
APPID
 70
     1
  0
APPID
  2
ACAD
 70
     0
  0
ENDTAB
  0
TABLE
  2
DIMSTYLE
 70
     2
  0
DIMSTYLE
  2
ISO-25
 70
     0
  3

  4

  5

  6

  7

 40
1.0
 41
2.5
 42
0.625
 43
3.75
 44
1.25
 45
0.0
 46
0.0
 47
0.0
 48
0.0
140
2.5
141
2.5
142
0.0
143
0.03937007874016
144
1.0
145
0.0
146
1.0
147
0.625
 71
     0
 72
     0
 73
     0
 74
     0
 75
     0
 76
     0
 77
     1
 78
     8
170
     0
171
     3
172
     1
173
     0
174
     0
175
     0
176
     0
177
     0
178
     0
  0
DIMSTYLE
  2
STANDARD
 70
     0
  3

  4

  5

  6
1
  7
1
 40
1.0
 41
1.0
 42
1.0
 43
6.0
 44
1.0
 45
0.0
 46
0.0
 47
0.0
 48
0.0
140
2.5
141
0.0
142
0.0
143
25.399999999999999
144
1.0
145
0.0
146
1.0
147
0.5
 71
     0
 72
     0
 73
     0
 74
     0
 75
     0
 76
     0
 77
     1
 78
     8
170
     0
171
     2
172
     1
173
     1
174
     0
175
     0
176
     0
177
     0
178
     0
  0
ENDTAB
  0
ENDSEC
  0
SECTION
  2
BLOCKS
  0
BLOCK
  8
0
  2
$MODEL_SPACE
 70
     0
 10
0.0
 20
0.0
 30
0.0
  3
$MODEL_SPACE
  1

  0
ENDBLK
  5
21
  8
0
  0
BLOCK
 67
     1
  8
0
  2
$PAPER_SPACE
 70
     0
 10
0.0
 20
0.0
 30
0.0
  3
$PAPER_SPACE
  1

  0
ENDBLK
  5
1D
 67
     1
  8
0
  0
BLOCK
  8
0
  2
1
 70
     0
 10
0.0
 20
0.0
 30
0.0
  3
1
  1

  0
SOLID
  5
2C
  8
0
  6
BYBLOCK
 62
     0
 10
-1.811110924292052
 20
0.4852857095671653
 30
0.0
 11
-1.811110924292052
 21
-0.4852857095673642
 31
0.0
 12
0.0
 22
0.0
 32
0.0
 13
0.0
 23
0.0
 33
0.0
  0
ENDBLK
  5
2E
  8
0
  0
ENDSEC
  0
SECTION
  2
ENTITIES
  0
LINE
  5
79
  8
1外形線
 10
84.540294803796428
 20
93.444779407218846
 30
0.0
 11
84.540294803796428
 21
66.831078673898233
 31
0.0
  0
LINE
  5
7A
  8
1外形線
 10
100.5402948037962
 20
93.444779407218675
 30
0.0
 11
100.5402948037966
 21
66.831078673898276
 31
0.0
  0
LINE
  5
7B
  8
1外形線
 10
94.540294803796428
 20
93.131078673898287
 30
0.0
 11
94.540294803796314
 21
72.537692051452154
 31
0.0
  0
LINE
  5
7C
  8
1外形線
 10
90.540294803796314
 20
93.131078673898287
 30
0.0
 11
90.540294803796542
 21
72.537692051452154
 31
0.0
  0
ARC
  5
7D
  8
1外形線
 10
53.895145184574289
 20
83.631078673898173
 30
0.0
 40
11.0
 50
135.09947203931111
 51
237.20283170417511
  0
ARC
  5
7E
  8
1外形線
 10
53.895145184574289
 20
83.631078673898173
 30
0.0
 40
14.5
 50
135.2750868450652
 51
234.50406734974749
  0
ARC
  5
7F
  8
1外形線
 10
53.895145184574289
 20
83.631078673898173
 30
0.0
 40
13.5
 50
135.16269499378021
 51
231.6334857440539
  0
ARC
  5
80
  8
1外形線
 10
52.895145184574289
 20
83.631078673898173
 30
0.0
 40
14.5
 50
305.49593265025248
 51
44.724913154934697
  0
ARC
  5
81
  8
1外形線
 10
52.895145184574289
 20
83.631078673898173
 30
0.0
 40
13.5
 50
308.3665142559459
 51
44.8373050062198
  0
ARC
  5
82
  8
1外形線
 10
52.895145184574289
 20
83.631078673898173
 30
0.0
 40
11.0
 50
302.7971682958248
 51
44.900527960688891
  0
LINE
  5
83
  8
1外形線
 10
36.495145184573282
 20
53.206944918863492
 30
0.0
 11
36.495145184573282
 21
45.706944918863591
 31
0.0
  0
ARC
  5
84
  8
1外形線
 10
62.295145184574842
 20
45.706944918863769
 30
0.0
 40
8.0
 50
0.0000000000004071
 51
90.0
  0
CIRCLE
  5
85
  8
1外形線
 10
53.395145184574062
 20
45.706944918863648
 30
0.0
 40
2.1000000000000001
  0
LINE
  5
86
  8
1外形線
  6
CONTINUOUS
 10
69.795145184574835
 20
37.706944918863819
 30
0.0
 11
44.495145184573403
 21
37.706944918863648
 31
0.0
  0
ARC
  5
87
  8
1外形線
 10
44.495145184573289
 20
45.706944918863542
 30
0.0
 40
8.0
 50
180.0000000000004
 51
270.0
  0
LINE
  5
88
  8
1外形線
 10
70.295145184574835
 20
38.206944918863819
 30
0.0
 11
70.295145184574835
 21
45.706944918863712
 31
0.0
  0
ARC
  5
89
  8
1外形線
 10
69.795145184574835
 20
38.206944918863819
 30
0.0
 40
0.5
 50
270.0
 51
0.0
  0
LINE
  5
8A
  8
1外形線
 10
48.895145184574062
 20
68.831078673898162
 30
0.0
 11
57.89514518457451
 21
68.831078673898162
 31
0.0
  0
LINE
  5
8B
  8
1外形線
  6
CONTINUOUS
 10
62.295145184574721
 20
53.706944918863769
 30
0.0
 11
36.995145184573289
 21
53.706944918863648
 31
0.0
  0
LINE
  5
8C
  8
1外形線
 10
70.295145184574295
 20
66.831078673898276
 30
0.0
 11
36.495145184574312
 21
66.831078673898205
 31
0.0
  0
ARC
  5
8D
  8
1外形線
 10
36.995145184573289
 20
53.206944918863492
 30
0.0
 40
0.5
 50
90.00000000000081
 51
180.0
  0
LINE
  5
8E
  8
1外形線
 10
44.895145184574062
 20
68.831078673898219
 30
0.0
 11
36.995145184574312
 21
68.831078673898162
 31
0.0
  0
LINE
  5
8F
  8
1外形線
 10
41.395145184574289
 20
76.282609445548587
 30
0.0
 11
41.395145184574169
 21
68.831078673898162
 31
0.0
  0
LINE
  5
90
  8
1外形線
 10
36.495145184574312
 20
66.831078673898205
 30
0.0
 11
36.495145184574312
 21
68.331078673898162
 31
0.0
  0
ARC
  5
91
  8
1外形線
 10
36.995145184574312
 20
68.331078673898162
 30
0.0
 40
0.5
 50
90.0
 51
180.0000000000004
  0
LINE
  5
92
  8
1外形線
 10
48.395145184574062
 20
73.543958172982286
 30
0.0
 11
48.395145184574062
 21
69.331078673898162
 31
0.0
  0
ARC
  5
93
  8
1外形線
 10
44.895145184574062
 20
72.262261672996317
 30
0.0
 40
1.0
 50
0.0
 51
51.633485744051967
  0
ARC
  5
94
  8
1外形線
 10
44.895145184574062
 20
69.831078673898034
 30
0.0
 40
1.0
 50
269.9999999999992
 51
0.0
  0
LINE
  5
95
  8
1外形線
 10
45.895145184574062
 20
69.831078673898034
 30
0.0
 11
45.895145184574062
 21
72.262261672996317
 31
0.0
  0
ARC
  5
96
  8
1外形線
 10
44.895145184574062
 20
71.011649209774419
 30
0.0
 40
1.0
 50
0.0
 51
54.50406734974456
  0
ARC
  5
97
  8
1外形線
 10
48.895145184574062
 20
69.331078673898162
 30
0.0
 40
0.5
 50
180.0
 51
270.0
  0
ARC
  5
98
  8
1外形線
 10
47.395145184574062
 20
73.543958172982286
 30
0.0
 40
1.0
 50
0.0
 51
57.202831704172212
  0
LINE
  5
99
  8
1外形線
 10
61.895145184574517
 20
68.831078673898048
 30
0.0
 11
69.79514518457438
 21
68.831078673898219
 31
0.0
  0
ARC
  5
9A
  8
1外形線
 10
61.895145184574517
 20
72.262261672996317
 30
0.0
 40
1.0
 50
128.366514255948
 51
180.0
  0
LINE
  5
9B
  8
1外形線
 10
58.395145184574517
 20
73.543958172982286
 30
0.0
 11
58.395145184574517
 21
69.331078673898162
 31
0.0
  0
ARC
  5
9C
  8
1外形線
 10
61.895145184574517
 20
71.011649209774419
 30
0.0
 40
1.0
 50
125.4959326502554
 51
180.0
  0
ARC
  5
9D
  8
1外形線
 10
61.895145184574517
 20
69.831078673898034
 30
0.0
 40
1.0
 50
180.0
 51
270.0000000000008
  0
LINE
  5
9E
  8
1外形線
 10
60.895145184574517
 20
69.831078673898034
 30
0.0
 11
60.895145184574517
 21
72.262261672996317
 31
0.0
  0
ARC
  5
9F
  8
1外形線
 10
57.89514518457451
 20
69.331078673898162
 30
0.0
 40
0.5
 50
270.0
 51
0.0
  0
ARC
  5
A0
  8
1外形線
 10
59.395145184574517
 20
73.543958172982286
 30
0.0
 40
1.0
 50
122.7971682958278
 51
180.0
  0
LINE
  5
A1
  8
1外形線
 10
65.395145184574403
 20
76.282609445548758
 30
0.0
 11
65.395145184574403
 21
68.831078673898162
 31
0.0
  0
LINE
  5
A2
  8
1外形線
 10
70.295145184574295
 20
66.831078673898276
 30
0.0
 11
70.29514518457438
 21
68.331078673898219
 31
0.0
  0
ARC
  5
A3
  8
1外形線
 10
69.79514518457438
 20
68.331078673898219
 30
0.0
 40
0.5
 50
359.9999999999996
 51
90.00000000000081
  0
LINE
  5
A4
  8
1外形線
 10
100.5402948037965
 20
68.831078673898219
 30
0.0
 11
84.540294803796428
 21
68.831078673898219
 31
0.0
  0
LINE
  5
A5
  8
1外形線
 10
100.5402948037964
 20
72.756797088434212
 30
0.0
 11
94.540294803796428
 21
72.756797088434212
 31
0.0
  0
LINE
  5
A6
  8
1外形線
 10
100.5402948037966
 20
66.831078673898276
 30
0.0
 11
84.540294803796428
 21
66.831078673898233
 31
0.0
  0
LINE
  5
A7
  8
1外形線
 10
90.540294803796428
 20
72.756797088434212
 30
0.0
 11
84.540294803796428
 21
72.756797088434212
 31
0.0
  0
LINE
  5
A8
  8
1外形線
 10
91.540294803796314
 20
75.282609445548815
 30
0.0
 11
91.540294803796087
 21
68.831078673898219
 31
0.0
  0
LINE
  5
A9
  8
1外形線
 10
93.540294803796655
 20
75.282609445548758
 30
0.0
 11
93.540294803796414
 21
68.831078673898219
 31
0.0
  0
ARC
  5
AA
  8
1外形線
  6
CENTER
 10
91.540294803796428
 20
72.537692051452154
 30
0.0
 40
1.0
 50
180.0
 51
269.9999999999992
  0
ARC
  5
AB
  8
1外形線
  6
CENTER
 10
93.540294803796414
 20
72.537692051452154
 30
0.0
 40
1.0
 50
269.9999999999992
 51
0.0
  0
ARC
  5
AC
  8
1外形線
 10
92.540294803796414
 20
75.282609445548758
 30
0.0
 40
1.0
 50
0.0
 51
179.99999999999869
  0
ARC
  5
AD
  8
1外形線
 10
44.303482137948997
 20
93.131078673898287
 30
0.0
 40
1.0
 50
46.679668863302958
 51
135.2750868450629
  0
ARC
  5
AE
  8
1外形線
 10
45.031247656767157
 20
92.444779407218675
 30
0.0
 40
1.0
 50
46.679668863302958
 51
135.1626949937793
  0
LINE
  5
AF
  8
1外形線
 10
44.989558694418633
 20
93.858608026339084
 30
0.0
 11
46.081221741043919
 21
92.829145199387597
 31
0.0
  0
ARC
  5
B0
  8
1外形線
 10
45.395145184574289
 20
92.101615846946856
 30
0.0
 40
1.0
 50
315.0994720393096
 51
46.679668863300662
  0
ARC
  5
B1
  8
1外形線
 10
62.486808231199582
 20
93.131078673898287
 30
0.0
 40
1.0
 50
44.724913154937013
 51
133.32033113669701
  0
LINE
  5
B2
  8
1外形線
 10
61.800731674729938
 20
93.858608026339084
 30
0.0
 11
60.70906862810466
 21
92.829145199387597
 31
0.0
  0
ARC
  5
B3
  8
1外形線
 10
61.395145184574289
 20
92.101615846946856
 30
0.0
 40
1.0
 50
133.32033113669931
 51
224.90052796069031
  0
ARC
  5
B4
  8
1外形線
 10
61.759042712381422
 20
92.444779407218675
 30
0.0
 40
1.0
 50
44.83730500622066
 51
133.32033113669701
  0
LINE
  5
B5
  8
1外形線
 10
94.503004333197055
 20
93.444779407218732
 30
0.0
 11
100.5402948037964
 21
93.444779407218675
 31
0.0
  0
LINE
  5
B6
  8
1外形線
 10
90.577585274395787
 20
93.444779407218732
 30
0.0
 11
84.540294803796428
 21
93.444779407218675
 31
0.0
  0
LINE
  5
B7
  8
1外形線
 10
93.540294803796414
 20
94.131078673898287
 30
0.0
 11
91.540294803796428
 21
94.131078673898287
 31
0.0
  0
ARC
  5
B8
  8
1外形線
  6
CENTER
 10
91.540294803796428
 20
93.131078673898287
 30
0.0
 40
1.0
 50
90.00000000000081
 51
180.0
  0
ARC
  5
B9
  8
1外形線
  6
CENTER
 10
93.540294803796414
 20
93.131078673898287
 30
0.0
 40
1.0
 50
0.0
 51
90.00000000000081
  0
ENDSEC
  0
EOF
