  0
SECTION
  2
HEADER
  9
$ACADVER
  1
AC1009
  9
$INSBASE
 10
0.0
 20
0.0
 30
0.0
  9
$EXTMIN
 10
25.66031039513625
 20
37.065911904759488
 30
0.0
  9
$EXTMAX
 10
101.41364144250321
 20
103.84604518341391
 30
0.0
  9
$LIMMIN
 10
0.0
 20
0.0
  9
$LIMMAX
 10
420.0
 20
297.0
  9
$ORTHOMODE
 70
     0
  9
$REGENMODE
 70
     1
  9
$FILLMODE
 70
     1
  9
$QTEXTMODE
 70
     0
  9
$MIRRTEXT
 70
     1
  9
$DRAGMODE
 70
     2
  9
$LTSCALE
 40
1.0
  9
$OSMODE
 70
    37
  9
$ATTMODE
 70
     1
  9
$TEXTSIZE
 40
2.5
  9
$TRACEWID
 40
1.0
  9
$TEXTSTYLE
  7
STANDARD
  9
$CLAYER
  8
0
  9
$CELTYPE
  6
BYLAYER
  9
$CECOLOR
 62
   256
  9
$DIMSCALE
 40
1.0
  9
$DIMASZ
 40
2.5
  9
$DIMEXO
 40
0.625
  9
$DIMDLI
 40
3.75
  9
$DIMRND
 40
0.0
  9
$DIMDLE
 40
0.0
  9
$DIMEXE
 40
1.25
  9
$DIMTP
 40
0.0
  9
$DIMTM
 40
0.0
  9
$DIMTXT
 40
2.5
  9
$DIMCEN
 40
2.5
  9
$DIMTSZ
 40
0.0
  9
$DIMTOL
 70
     0
  9
$DIMLIM
 70
     0
  9
$DIMTIH
 70
     0
  9
$DIMTOH
 70
     0
  9
$DIMSE1
 70
     0
  9
$DIMSE2
 70
     0
  9
$DIMTAD
 70
     1
  9
$DIMZIN
 70
     8
  9
$DIMBLK
  1

  9
$DIMASO
 70
     1
  9
$DIMSHO
 70
     1
  9
$DIMPOST
  1

  9
$DIMAPOST
  1

  9
$DIMALT
 70
     0
  9
$DIMALTD
 70
     3
  9
$DIMALTF
 40
0.03937007874016
  9
$DIMLFAC
 40
1.0
  9
$DIMTOFL
 70
     1
  9
$DIMTVP
 40
0.0
  9
$DIMTIX
 70
     0
  9
$DIMSOXD
 70
     0
  9
$DIMSAH
 70
     0
  9
$DIMBLK1
  1

  9
$DIMBLK2
  1

  9
$DIMSTYLE
  2
ISO-25
  9
$DIMCLRD
 70
     0
  9
$DIMCLRE
 70
     0
  9
$DIMCLRT
 70
     0
  9
$DIMTFAC
 40
1.0
  9
$DIMGAP
 40
0.625
  9
$LUNITS
 70
     2
  9
$LUPREC
 70
     4
  9
$SKETCHINC
 40
1.0
  9
$FILLETRAD
 40
10.0
  9
$AUNITS
 70
     0
  9
$AUPREC
 70
     0
  9
$MENU
  1
.
  9
$ELEVATION
 40
0.0
  9
$PELEVATION
 40
0.0
  9
$THICKNESS
 40
0.0
  9
$LIMCHECK
 70
     0
  9
$BLIPMODE
 70
     0
  9
$CHAMFERA
 40
10.0
  9
$CHAMFERB
 40
10.0
  9
$SKPOLY
 70
     0
  9
$TDCREATE
 40
2452451.5911604851
  9
$TDUPDATE
 40
2452451.5914561679
  9
$TDINDWG
 40
0.0002959144
  9
$TDUSRTIMER
 40
0.0002959144
  9
$USRTIMER
 70
     1
  9
$ANGBASE
 50
0.0
  9
$ANGDIR
 70
     0
  9
$PDMODE
 70
     0
  9
$PDSIZE
 40
0.0
  9
$PLINEWID
 40
0.0
  9
$COORDS
 70
     1
  9
$SPLFRAME
 70
     0
  9
$SPLINETYPE
 70
     6
  9
$SPLINESEGS
 70
     8
  9
$ATTDIA
 70
     0
  9
$ATTREQ
 70
     1
  9
$HANDLING
 70
-16383
  9
$HANDSEED
  5
C1
  9
$SURFTAB1
 70
     6
  9
$SURFTAB2
 70
     6
  9
$SURFTYPE
 70
     6
  9
$SURFU
 70
     6
  9
$SURFV
 70
     6
  9
$UCSNAME
  2

  9
$UCSORG
 10
0.0
 20
0.0
 30
0.0
  9
$UCSXDIR
 10
1.0
 20
0.0
 30
0.0
  9
$UCSYDIR
 10
0.0
 20
1.0
 30
0.0
  9
$PUCSNAME
  2

  9
$PUCSORG
 10
0.0
 20
0.0
 30
0.0
  9
$PUCSXDIR
 10
1.0
 20
0.0
 30
0.0
  9
$PUCSYDIR
 10
0.0
 20
1.0
 30
0.0
  9
$USERI1
 70
     0
  9
$USERI2
 70
     0
  9
$USERI3
 70
     0
  9
$USERI4
 70
     0
  9
$USERI5
 70
     0
  9
$USERR1
 40
0.0
  9
$USERR2
 40
0.0
  9
$USERR3
 40
0.0
  9
$USERR4
 40
0.0
  9
$USERR5
 40
0.0
  9
$WORLDVIEW
 70
     1
  9
$SHADEDGE
 70
     3
  9
$SHADEDIF
 70
    70
  9
$TILEMODE
 70
     1
  9
$MAXACTVP
 70
    64
  9
$PLIMCHECK
 70
     0
  9
$PEXTMIN
 10
1.0000000000000000E+020
 20
1.0000000000000000E+020
 30
1.0000000000000000E+020
  9
$PEXTMAX
 10
-1.0000000000000000E+020
 20
-1.0000000000000000E+020
 30
-1.0000000000000000E+020
  9
$PLIMMIN
 10
0.0
 20
0.0
  9
$PLIMMAX
 10
420.0
 20
297.0
  9
$UNITMODE
 70
     0
  9
$VISRETAIN
 70
     1
  9
$PLINEGEN
 70
     0
  9
$PSLTSCALE
 70
     1
  0
ENDSEC
  0
SECTION
  2
TABLES
  0
TABLE
  2
VPORT
 70
     3
  0
VPORT
  2
*ACTIVE
 70
     0
 10
0.0
 20
0.0
 11
1.0
 21
1.0
 12
209.99999999999989
 22
159.7959183673469
 13
0.0
 23
0.0
 14
10.0
 24
10.0
 15
10.0
 25
10.0
 16
0.0
 26
0.0
 36
1.0
 17
0.0
 27
0.0
 37
0.0
 40
319.5918367346938
 41
1.3141762452107271
 42
50.0
 43
0.0
 44
0.0
 50
0.0
 51
0.0
 71
     0
 72
   100
 73
     1
 74
     3
 75
     0
 76
     0
 77
     0
 78
     0
  0
ENDTAB
  0
TABLE
  2
LTYPE
 70
     2
  0
LTYPE
  2
CONTINUOUS
 70
     0
  3
Solid line
 72
    65
 73
     0
 40
0.0
  0
LTYPE
  2
CENTER
 70
     0
  3
____ _ ____ _ ____ _ ____ _ ____ _ ____ _ ____ 
 72
    65
 73
     4
 40
2.0
 49
1.25
 49
-0.25
 49
0.25
 49
-0.25
  0
ENDTAB
  0
TABLE
  2
LAYER
 70
     2
  0
LAYER
  2
0
 70
     0
 62
     7
  6
CONTINUOUS
  0
LAYER
  2
1外形線
 70
     0
 62
     3
  6
CONTINUOUS
  0
ENDTAB
  0
TABLE
  2
STYLE
 70
     2
  0
STYLE
  2
STANDARD
 70
     0
 40
0.0
 41
1.0
 50
0.0
 71
     0
 42
2.5
  3
txt
  4

  0
STYLE
  2
KANJI
 70
     0
 40
0.0
 41
1.0
 50
0.0
 71
     0
 42
2.0
  3
simplex
  4
bigfont
  0
ENDTAB
  0
TABLE
  2
VIEW
 70
     0
  0
ENDTAB
  0
TABLE
  2
UCS
 70
     0
  0
ENDTAB
  0
TABLE
  2
APPID
 70
     1
  0
APPID
  2
ACAD
 70
     0
  0
ENDTAB
  0
TABLE
  2
DIMSTYLE
 70
     2
  0
DIMSTYLE
  2
ISO-25
 70
     0
  3

  4

  5

  6

  7

 40
1.0
 41
2.5
 42
0.625
 43
3.75
 44
1.25
 45
0.0
 46
0.0
 47
0.0
 48
0.0
140
2.5
141
2.5
142
0.0
143
0.03937007874016
144
1.0
145
0.0
146
1.0
147
0.625
 71
     0
 72
     0
 73
     0
 74
     0
 75
     0
 76
     0
 77
     1
 78
     8
170
     0
171
     3
172
     1
173
     0
174
     0
175
     0
176
     0
177
     0
178
     0
  0
DIMSTYLE
  2
STANDARD
 70
     0
  3

  4

  5

  6
1
  7
1
 40
1.0
 41
1.0
 42
1.0
 43
6.0
 44
1.0
 45
0.0
 46
0.0
 47
0.0
 48
0.0
140
2.5
141
0.0
142
0.0
143
25.399999999999999
144
1.0
145
0.0
146
1.0
147
0.5
 71
     0
 72
     0
 73
     0
 74
     0
 75
     0
 76
     0
 77
     1
 78
     8
170
     0
171
     2
172
     1
173
     1
174
     0
175
     0
176
     0
177
     0
178
     0
  0
ENDTAB
  0
ENDSEC
  0
SECTION
  2
BLOCKS
  0
BLOCK
  8
0
  2
$MODEL_SPACE
 70
     0
 10
0.0
 20
0.0
 30
0.0
  3
$MODEL_SPACE
  1

  0
ENDBLK
  5
21
  8
0
  0
BLOCK
 67
     1
  8
0
  2
$PAPER_SPACE
 70
     0
 10
0.0
 20
0.0
 30
0.0
  3
$PAPER_SPACE
  1

  0
ENDBLK
  5
1D
 67
     1
  8
0
  0
BLOCK
  8
0
  2
1
 70
     0
 10
0.0
 20
0.0
 30
0.0
  3
1
  1

  0
SOLID
  5
2C
  8
0
  6
BYBLOCK
 62
     0
 10
-1.811110924292052
 20
0.4852857095671653
 30
0.0
 11
-1.811110924292052
 21
-0.4852857095673642
 31
0.0
 12
0.0
 22
0.0
 32
0.0
 13
0.0
 23
0.0
 33
0.0
  0
ENDBLK
  5
2E
  8
0
  0
ENDSEC
  0
SECTION
  2
ENTITIES
  0
LINE
  5
79
  8
1外形線
 10
101.41364144250269
 20
102.89459542944191
 30
0.0
 11
101.41364144250311
 21
72.438938402227336
 31
0.0
  0
LINE
  5
7A
  8
1外形線
 10
93.413641442503248
 20
102.6389384022273
 30
0.0
 11
93.413641442503035
 21
77.808068712567319
 31
0.0
  0
LINE
  5
7B
  8
1外形線
 10
81.413641442502922
 20
102.89459542944191
 30
0.0
 11
81.413641442503149
 21
72.438938402227237
 31
0.0
  0
LINE
  5
7C
  8
1外形線
 10
89.413641442503035
 20
102.6389384022273
 30
0.0
 11
89.413641442503135
 21
77.808068712567319
 31
0.0
  0
ARC
  5
7D
  8
1外形線
 10
43.924271425815952
 20
91.238938402227177
 30
0.0
 40
13.0
 50
297.66400449618988
 51
47.267889957398168
  0
ARC
  5
7E
  8
1外形線
 10
43.924271425815952
 20
91.238938402227177
 30
0.0
 40
16.5
 50
300.94972307886098
 51
47.348118395035293
  0
ARC
  5
7F
  8
1外形線
 10
43.924271425815952
 20
91.238938402227177
 30
0.0
 40
15.5
 50
303.05573115085519
 51
47.296477280094678
  0
ARC
  5
80
  8
1外形線
 10
44.924271425815959
 20
91.238938402227177
 30
0.0
 40
13.0
 50
132.73211004260179
 51
242.3359955038101
  0
ARC
  5
81
  8
1外形線
 10
44.924271425815959
 20
91.238938402227177
 30
0.0
 40
15.5
 50
132.70352271990529
 51
236.94426884914481
  0
ARC
  5
82
  8
1外形線
 10
44.924271425815959
 20
91.238938402227177
 30
0.0
 40
16.5
 50
132.6518816049647
 51
239.05027692113899
  0
ARC
  5
83
  8
1外形線
 10
60.82427142581605
 20
73.938938402227222
 30
0.0
 40
0.5
 50
359.9999999999996
 51
90.0
  0
ARC
  5
84
  8
1外形線
 10
52.324271425816733
 20
49.929872935438652
 30
0.0
 40
9.0
 50
0.0
 51
90.0
  0
ARC
  5
85
  8
1外形線
 10
60.824271425816733
 20
39.429872935438652
 30
0.0
 40
0.5
 50
270.0
 51
0.0
  0
LINE
  5
86
  8
1外形線
 10
61.324271425815972
 20
72.43893840222735
 30
0.0
 11
27.524271425815979
 21
72.438938402227222
 31
0.0
  0
LINE
  5
87
  8
1外形線
 10
27.524271425815179
 20
58.429872935438418
 30
0.0
 11
27.524271425815179
 21
47.929872935438418
 31
0.0
  0
LINE
  5
88
  8
1外形線
 10
60.824271425816733
 20
38.929872935438652
 30
0.0
 11
36.524271425815179
 21
38.929872935438418
 31
0.0
  0
ARC
  5
89
  8
1外形線
 10
36.524271425815179
 20
47.929872935438418
 30
0.0
 40
9.0
 50
180.0
 51
270.0
  0
CIRCLE
  5
8A
  8
1外形線
 10
44.424271425815952
 20
48.929872935438532
 30
0.0
 40
2.1000000000000001
  0
ARC
  5
8B
  8
1外形線
 10
38.424271425815732
 20
78.839341634590014
 30
0.0
 40
1.0
 50
0.0
 51
62.3359955038066
  0
ARC
  5
8C
  8
1外形線
 10
39.924271425815732
 20
74.938938402227222
 30
0.0
 40
0.5
 50
180.0
 51
270.0
  0
LINE
  5
8D
  8
1外形線
 10
52.324271425816733
 20
58.929872935438652
 30
0.0
 11
28.024271425815179
 21
58.929872935438532
 31
0.0
  0
ARC
  5
8E
  8
1外形線
 10
28.024271425815179
 20
58.429872935438418
 30
0.0
 40
0.5
 50
90.0
 51
180.0
  0
LINE
  5
8F
  8
1外形線
 10
35.924271425815498
 20
74.438938402227222
 30
0.0
 11
28.024271425815979
 21
74.438938402227222
 31
0.0
  0
LINE
  5
90
  8
1外形線
 10
27.524271425815979
 20
72.438938402227222
 30
0.0
 11
27.524271425815979
 21
73.938938402227222
 31
0.0
  0
ARC
  5
91
  8
1外形線
 10
28.024271425815979
 20
73.938938402227222
 30
0.0
 40
0.5
 50
90.0
 51
180.0000000000004
  0
LINE
  5
92
  8
1外形線
 10
39.424271425815732
 20
78.839341634590014
 30
0.0
 11
39.424271425815732
 21
74.938938402227222
 31
0.0
  0
ARC
  5
93
  8
1外形線
 10
35.924271425815498
 20
77.409621716288143
 30
0.0
 40
1.0
 50
0.0
 51
56.94426884914072
  0
LINE
  5
94
  8
1外形線
 10
32.424271425815839
 20
80.468608787958374
 30
0.0
 11
32.424271425815839
 21
74.438938402227222
 31
0.0
  0
ARC
  5
95
  8
1外形線
 10
35.924271425815391
 20
76.230607382423841
 30
0.0
 40
1.0
 50
0.0000000000065138
 51
59.050276921139393
  0
ARC
  5
96
  8
1外形線
 10
35.924271425815498
 20
75.438938402227222
 30
0.0
 40
1.0
 50
270.0
 51
0.0
  0
LINE
  5
97
  8
1外形線
 10
36.924271425815498
 20
75.438938402227222
 30
0.0
 11
36.924271425815498
 21
77.409621716288143
 31
0.0
  0
LINE
  5
98
  8
1外形線
 10
49.42427142581618
 20
78.839341634590014
 30
0.0
 11
49.42427142581618
 21
74.938938402227222
 31
0.0
  0
LINE
  5
99
  8
1外形線
 10
39.924271425815732
 20
74.438938402227222
 30
0.0
 11
48.924271425816187
 21
74.438938402227222
 31
0.0
  0
ARC
  5
9A
  8
1外形線
 10
48.924271425816187
 20
74.938938402227222
 30
0.0
 40
0.5
 50
270.0
 51
0.0
  0
ARC
  5
9B
  8
1外形線
 10
50.424271425816187
 20
78.839341634590014
 30
0.0
 40
1.0
 50
117.6640044961933
 51
180.0
  0
LINE
  5
9C
  8
1外形線
 10
56.424271425815952
 20
80.468608787958146
 30
0.0
 11
56.424271425816073
 21
74.438938402227222
 31
0.0
  0
ARC
  5
9D
  8
1外形線
 10
52.924271425816407
 20
77.409621716288143
 30
0.0
 40
1.0
 50
123.0557311508592
 51
180.0
  0
LINE
  5
9E
  8
1外形線
 10
52.924271425816407
 20
74.438938402227222
 30
0.0
 11
60.82427142581605
 21
74.438938402227222
 31
0.0
  0
ARC
  5
9F
  8
1外形線
 10
52.924271425816407
 20
75.438938402227222
 30
0.0
 40
1.0
 50
180.0
 51
270.0
  0
ARC
  5
A0
  8
1外形線
 10
52.924271425816528
 20
76.230607382423841
 30
0.0
 40
1.0
 50
120.9497230788605
 51
179.99999999999341
  0
LINE
  5
A1
  8
1外形線
 10
51.924271425816407
 20
75.438938402227222
 30
0.0
 11
51.924271425816407
 21
77.409621716288143
 31
0.0
  0
LINE
  5
A2
  8
1外形線
 10
61.324271425816733
 20
39.429872935438652
 30
0.0
 11
61.324271425816733
 21
49.929872935438652
 31
0.0
  0
LINE
  5
A3
  8
1外形線
 10
81.413641442503149
 20
77.963020354877358
 30
0.0
 11
89.413641442503035
 21
77.963020354877358
 31
0.0
  0
LINE
  5
A4
  8
1外形線
 10
81.413641442503149
 20
74.438938402227222
 30
0.0
 11
101.41364144250321
 21
74.438938402227109
 31
0.0
  0
LINE
  5
A5
  8
1外形線
 10
101.41364144250311
 20
72.438938402227336
 30
0.0
 11
81.413641442503149
 21
72.438938402227237
 31
0.0
  0
LINE
  5
A6
  8
1外形線
 10
61.324271425815972
 20
72.43893840222735
 30
0.0
 11
61.32427142581605
 21
73.938938402227222
 31
0.0
  0
LINE
  5
A7
  8
1外形線
 10
93.413641442503149
 20
77.963020354877358
 30
0.0
 11
101.41364144250311
 21
77.963020354877358
 31
0.0
  0
LINE
  5
A8
  8
1外形線
 10
90.413641442503035
 20
79.468608787958146
 30
0.0
 11
90.413641442502936
 21
74.456393467155522
 31
0.0
  0
LINE
  5
A9
  8
1外形線
 10
92.413641442503376
 20
79.468608787958146
 30
0.0
 11
92.413641442503149
 21
74.456393467155522
 31
0.0
  0
ARC
  5
AA
  8
1外形線
  6
CENTER
 10
90.413641442503135
 20
77.808068712567319
 30
0.0
 40
1.0
 50
180.0
 51
270.0
  0
ARC
  5
AB
  8
1外形線
  6
CENTER
 10
92.413641442503149
 20
77.808068712567319
 30
0.0
 40
1.0
 50
270.0
 51
0.0
  0
ARC
  5
AC
  8
1外形線
 10
91.413641442503149
 20
79.468608787958146
 30
0.0
 40
1.0
 50
0.0
 51
179.99999999999869
  0
ARC
  5
AD
  8
1外形線
 10
35.424271425815959
 20
101.52242030282871
 30
0.0
 40
1.0
 50
312.7321100426006
 51
41.903132575516608
  0
ARC
  5
AE
  8
1外形線
 10
34.422366836647591
 20
102.6389384022273
 30
0.0
 40
1.0
 50
41.903132575516608
 51
132.65188160496649
  0
LINE
  5
AF
  8
1外形線
 10
36.168546458019932
 20
102.1902935516101
 30
0.0
 11
35.166641868850768
 21
103.3068116510086
 31
0.0
  0
ARC
  5
B0
  8
1外形線
 10
35.090301051731558
 20
101.89459542944191
 30
0.0
 40
1.0
 50
41.903132575519791
 51
132.70352271990529
  0
ARC
  5
B1
  8
1外形線
 10
53.424271425815959
 20
101.52242030282871
 30
0.0
 40
1.0
 50
138.09686742448329
 51
227.26788995739909
  0
ARC
  5
B2
  8
1外形線
 10
53.758241799900361
 20
101.89459542944191
 30
0.0
 40
1.0
 50
47.296477280094678
 51
138.09686742448011
  0
LINE
  5
B3
  8
1外形線
 10
52.679996393611987
 20
102.1902935516101
 30
0.0
 11
53.681900982781137
 21
103.3068116510086
 31
0.0
  0
ARC
  5
B4
  8
1外形線
 10
54.426176014984321
 20
102.6389384022273
 30
0.0
 40
1.0
 50
47.34811839503341
 51
138.09686742448329
  0
LINE
  5
B5
  8
1外形線
 10
89.415674657171834
 20
102.89459542944191
 30
0.0
 11
81.413641442502922
 21
102.89459542944191
 31
0.0
  0
LINE
  5
B6
  8
1外形線
 10
93.411608227834449
 20
102.89459542944191
 30
0.0
 11
101.41364144250289
 21
102.89459542944191
 31
0.0
  0
LINE
  5
B7
  8
1外形線
 10
92.413641442503149
 20
103.6389384022273
 30
0.0
 11
90.413641442503135
 21
103.6389384022273
 31
0.0
  0
ARC
  5
B8
  8
1外形線
  6
CENTER
 10
90.413641442503135
 20
102.6389384022273
 30
0.0
 40
1.0
 50
90.0
 51
180.0
  0
ARC
  5
B9
  8
1外形線
  6
CENTER
 10
92.413641442503149
 20
102.6389384022273
 30
0.0
 40
1.0
 50
0.0
 51
90.0
  0
ENDSEC
  0
EOF
