  0
SECTION
  2
HEADER
  9
$ACADVER
  1
AC1009
  9
$INSBASE
 10
0.0
 20
0.0
 30
0.0
  9
$EXTMIN
 10
47.76405596312221
 20
56.86614886036773
 30
0.0
  9
$EXTMAX
 10
170.04734888564079
 20
157.01283228363829
 30
0.0
  9
$LIMMIN
 10
0.0
 20
0.0
  9
$LIMMAX
 10
420.0
 20
297.0
  9
$ORTHOMODE
 70
     0
  9
$REGENMODE
 70
     1
  9
$FILLMODE
 70
     1
  9
$QTEXTMODE
 70
     0
  9
$MIRRTEXT
 70
     1
  9
$DRAGMODE
 70
     2
  9
$LTSCALE
 40
1.0
  9
$OSMODE
 70
    37
  9
$ATTMODE
 70
     1
  9
$TEXTSIZE
 40
2.5
  9
$TRACEWID
 40
1.0
  9
$TEXTSTYLE
  7
STANDARD
  9
$CLAYER
  8
0
  9
$CELTYPE
  6
BYLAYER
  9
$CECOLOR
 62
   256
  9
$DIMSCALE
 40
1.0
  9
$DIMASZ
 40
2.5
  9
$DIMEXO
 40
0.625
  9
$DIMDLI
 40
3.75
  9
$DIMRND
 40
0.0
  9
$DIMDLE
 40
0.0
  9
$DIMEXE
 40
1.25
  9
$DIMTP
 40
0.0
  9
$DIMTM
 40
0.0
  9
$DIMTXT
 40
2.5
  9
$DIMCEN
 40
2.5
  9
$DIMTSZ
 40
0.0
  9
$DIMTOL
 70
     0
  9
$DIMLIM
 70
     0
  9
$DIMTIH
 70
     0
  9
$DIMTOH
 70
     0
  9
$DIMSE1
 70
     0
  9
$DIMSE2
 70
     0
  9
$DIMTAD
 70
     1
  9
$DIMZIN
 70
     8
  9
$DIMBLK
  1

  9
$DIMASO
 70
     1
  9
$DIMSHO
 70
     1
  9
$DIMPOST
  1

  9
$DIMAPOST
  1

  9
$DIMALT
 70
     0
  9
$DIMALTD
 70
     3
  9
$DIMALTF
 40
0.03937007874016
  9
$DIMLFAC
 40
1.0
  9
$DIMTOFL
 70
     1
  9
$DIMTVP
 40
0.0
  9
$DIMTIX
 70
     0
  9
$DIMSOXD
 70
     0
  9
$DIMSAH
 70
     0
  9
$DIMBLK1
  1

  9
$DIMBLK2
  1

  9
$DIMSTYLE
  2
ISO-25
  9
$DIMCLRD
 70
     0
  9
$DIMCLRE
 70
     0
  9
$DIMCLRT
 70
     0
  9
$DIMTFAC
 40
1.0
  9
$DIMGAP
 40
0.625
  9
$LUNITS
 70
     2
  9
$LUPREC
 70
     4
  9
$SKETCHINC
 40
1.0
  9
$FILLETRAD
 40
10.0
  9
$AUNITS
 70
     0
  9
$AUPREC
 70
     0
  9
$MENU
  1
.
  9
$ELEVATION
 40
0.0
  9
$PELEVATION
 40
0.0
  9
$THICKNESS
 40
0.0
  9
$LIMCHECK
 70
     0
  9
$BLIPMODE
 70
     0
  9
$CHAMFERA
 40
10.0
  9
$CHAMFERB
 40
10.0
  9
$SKPOLY
 70
     0
  9
$TDCREATE
 40
2452451.5921857981
  9
$TDUPDATE
 40
2452451.5924397558
  9
$TDINDWG
 40
0.0002540741
  9
$TDUSRTIMER
 40
0.0002540741
  9
$USRTIMER
 70
     1
  9
$ANGBASE
 50
0.0
  9
$ANGDIR
 70
     0
  9
$PDMODE
 70
     0
  9
$PDSIZE
 40
0.0
  9
$PLINEWID
 40
0.0
  9
$COORDS
 70
     1
  9
$SPLFRAME
 70
     0
  9
$SPLINETYPE
 70
     6
  9
$SPLINESEGS
 70
     8
  9
$ATTDIA
 70
     0
  9
$ATTREQ
 70
     1
  9
$HANDLING
 70
-16383
  9
$HANDSEED
  5
138
  9
$SURFTAB1
 70
     6
  9
$SURFTAB2
 70
     6
  9
$SURFTYPE
 70
     6
  9
$SURFU
 70
     6
  9
$SURFV
 70
     6
  9
$UCSNAME
  2

  9
$UCSORG
 10
0.0
 20
0.0
 30
0.0
  9
$UCSXDIR
 10
1.0
 20
0.0
 30
0.0
  9
$UCSYDIR
 10
0.0
 20
1.0
 30
0.0
  9
$PUCSNAME
  2

  9
$PUCSORG
 10
0.0
 20
0.0
 30
0.0
  9
$PUCSXDIR
 10
1.0
 20
0.0
 30
0.0
  9
$PUCSYDIR
 10
0.0
 20
1.0
 30
0.0
  9
$USERI1
 70
     0
  9
$USERI2
 70
     0
  9
$USERI3
 70
     0
  9
$USERI4
 70
     0
  9
$USERI5
 70
     0
  9
$USERR1
 40
0.0
  9
$USERR2
 40
0.0
  9
$USERR3
 40
0.0
  9
$USERR4
 40
0.0
  9
$USERR5
 40
0.0
  9
$WORLDVIEW
 70
     1
  9
$SHADEDGE
 70
     3
  9
$SHADEDIF
 70
    70
  9
$TILEMODE
 70
     1
  9
$MAXACTVP
 70
    64
  9
$PLIMCHECK
 70
     0
  9
$PEXTMIN
 10
1.0000000000000000E+020
 20
1.0000000000000000E+020
 30
1.0000000000000000E+020
  9
$PEXTMAX
 10
-1.0000000000000000E+020
 20
-1.0000000000000000E+020
 30
-1.0000000000000000E+020
  9
$PLIMMIN
 10
0.0
 20
0.0
  9
$PLIMMAX
 10
420.0
 20
297.0
  9
$UNITMODE
 70
     0
  9
$VISRETAIN
 70
     1
  9
$PLINEGEN
 70
     0
  9
$PSLTSCALE
 70
     1
  0
ENDSEC
  0
SECTION
  2
TABLES
  0
TABLE
  2
VPORT
 70
     3
  0
VPORT
  2
*ACTIVE
 70
     0
 10
0.0
 20
0.0
 11
1.0
 21
1.0
 12
209.99999999999989
 22
159.7959183673469
 13
0.0
 23
0.0
 14
10.0
 24
10.0
 15
10.0
 25
10.0
 16
0.0
 26
0.0
 36
1.0
 17
0.0
 27
0.0
 37
0.0
 40
319.5918367346938
 41
1.3141762452107271
 42
50.0
 43
0.0
 44
0.0
 50
0.0
 51
0.0
 71
     0
 72
   100
 73
     1
 74
     3
 75
     0
 76
     0
 77
     0
 78
     0
  0
ENDTAB
  0
TABLE
  2
LTYPE
 70
     1
  0
LTYPE
  2
CONTINUOUS
 70
     0
  3
Solid line
 72
    65
 73
     0
 40
0.0
  0
ENDTAB
  0
TABLE
  2
LAYER
 70
     2
  0
LAYER
  2
0
 70
     0
 62
     7
  6
CONTINUOUS
  0
LAYER
  2
1外形線
 70
     0
 62
     3
  6
CONTINUOUS
  0
ENDTAB
  0
TABLE
  2
STYLE
 70
     2
  0
STYLE
  2
STANDARD
 70
     0
 40
0.0
 41
1.0
 50
0.0
 71
     0
 42
2.5
  3
txt
  4

  0
STYLE
  2
KANJI
 70
     0
 40
0.0
 41
1.0
 50
0.0
 71
     0
 42
2.0
  3
simplex
  4
bigfont
  0
ENDTAB
  0
TABLE
  2
VIEW
 70
     0
  0
ENDTAB
  0
TABLE
  2
UCS
 70
     0
  0
ENDTAB
  0
TABLE
  2
APPID
 70
     1
  0
APPID
  2
ACAD
 70
     0
  0
ENDTAB
  0
TABLE
  2
DIMSTYLE
 70
     2
  0
DIMSTYLE
  2
ISO-25
 70
     0
  3

  4

  5

  6

  7

 40
1.0
 41
2.5
 42
0.625
 43
3.75
 44
1.25
 45
0.0
 46
0.0
 47
0.0
 48
0.0
140
2.5
141
2.5
142
0.0
143
0.03937007874016
144
1.0
145
0.0
146
1.0
147
0.625
 71
     0
 72
     0
 73
     0
 74
     0
 75
     0
 76
     0
 77
     1
 78
     8
170
     0
171
     3
172
     1
173
     0
174
     0
175
     0
176
     0
177
     0
178
     0
  0
DIMSTYLE
  2
STANDARD
 70
     0
  3

  4

  5

  6
1
  7
1
 40
1.0
 41
1.0
 42
1.0
 43
6.0
 44
1.0
 45
0.0
 46
0.0
 47
0.0
 48
0.0
140
2.5
141
0.0
142
0.0
143
25.399999999999999
144
1.0
145
0.0
146
1.0
147
0.5
 71
     0
 72
     0
 73
     0
 74
     0
 75
     0
 76
     0
 77
     1
 78
     8
170
     0
171
     2
172
     1
173
     1
174
     0
175
     0
176
     0
177
     0
178
     0
  0
ENDTAB
  0
ENDSEC
  0
SECTION
  2
BLOCKS
  0
BLOCK
  8
0
  2
$MODEL_SPACE
 70
     0
 10
0.0
 20
0.0
 30
0.0
  3
$MODEL_SPACE
  1

  0
ENDBLK
  5
21
  8
0
  0
BLOCK
 67
     1
  8
0
  2
$PAPER_SPACE
 70
     0
 10
0.0
 20
0.0
 30
0.0
  3
$PAPER_SPACE
  1

  0
ENDBLK
  5
1D
 67
     1
  8
0
  0
BLOCK
  8
0
  2
1
 70
     0
 10
0.0
 20
0.0
 30
0.0
  3
1
  1

  0
SOLID
  5
2C
  8
0
  6
BYBLOCK
 62
     0
 10
-1.811110924292052
 20
0.4852857095671653
 30
0.0
 11
-1.811110924292052
 21
-0.4852857095673642
 31
0.0
 12
0.0
 22
0.0
 32
0.0
 13
0.0
 23
0.0
 33
0.0
  0
ENDBLK
  5
2E
  8
0
  0
ENDSEC
  0
SECTION
  2
ENTITIES
  0
LINE
  5
B4
  8
1外形線
 10
90.605702424380638
 20
85.575634329044064
 30
0.0
 11
127.2057024243823
 21
85.575634329044064
 31
0.0
  0
LINE
  5
B5
  8
1外形線
 10
158.40943379075301
 20
156.97563432904411
 30
0.0
 11
58.901971058009053
 21
156.97563432904411
 31
0.0
  0
LINE
  5
B6
  8
1外形線
 10
144.93076523884841
 20
132.07563432904399
 30
0.0
 11
111.3551921671645
 21
132.07563432904399
 31
0.0
  0
LINE
  5
B7
  8
1外形線
 10
144.93076523884841
 20
133.07563432904399
 30
0.0
 11
111.3551921671645
 21
133.07563432904399
 31
0.0
  0
LINE
  5
B8
  8
1外形線
 10
47.912621336588579
 20
61.866148860367502
 30
0.0
 11
169.89878351217439
 21
61.866148860367957
 31
0.0
  0
LINE
  5
B9
  8
1外形線
 10
47.912621336588579
 20
56.86614886036773
 30
0.0
 11
169.89878351217439
 21
56.86614886036773
 31
0.0
  0
ARC
  5
BA
  8
1外形線
 10
108.9057024243815
 20
95.675634329043532
 30
0.0
 40
2.4999999999999991
 50
180.0
 51
0.0
  0
LINE
  5
BB
  8
1外形線
 10
87.605702424381775
 20
89.071902962672539
 30
0.0
 11
87.605702424381775
 21
106.4756343290441
 31
0.0
  0
LINE
  5
BC
  8
1外形線
 10
91.905702424381445
 20
90.075634329044192
 30
0.0
 11
91.905702424381445
 21
98.075634329043964
 31
0.0
  0
LINE
  5
BD
  8
1外形線
 10
90.7057024243814
 20
90.075634329044192
 30
0.0
 11
90.705702424381343
 21
98.075634329043723
 31
0.0
  0
LINE
  5
BE
  8
1外形線
 10
75.90570242438605
 20
63.86614886036773
 30
0.0
 11
62.905702424387869
 21
63.86614886036795
 31
0.0
  0
ARC
  5
BF
  8
1外形線
 10
62.905702424387869
 20
62.866148860367723
 30
0.0
 40
1.0
 50
89.999999999999204
 51
180.0
  0
LINE
  5
C0
  8
1外形線
 10
47.912621336588579
 20
61.866148860367502
 30
0.0
 11
47.912621336588579
 21
56.86614886036773
 31
0.0
  0
LINE
  5
C1
  8
1外形線
 10
57.905702424381957
 20
56.86614886036773
 30
0.0
 11
57.905702424381957
 21
61.866148860367957
 31
0.0
  0
LINE
  5
C2
  8
1外形線
 10
61.905702424387869
 20
62.866148860367723
 30
0.0
 11
61.905702424387869
 21
61.866148860367609
 31
0.0
  0
LINE
  5
C3
  8
1外形線
 10
91.905702424381502
 20
63.866148860367609
 30
0.0
 11
91.905702424381033
 21
61.866148860367609
 31
0.0
  0
LINE
  5
C4
  8
1外形線
 10
90.705702424381215
 20
63.866148860367609
 30
0.0
 11
90.705702424381215
 21
61.86614886036773
 31
0.0
  0
ARC
  5
C5
  8
1外形線
 10
75.90570242438605
 20
62.866148860367723
 30
0.0
 40
1.0
 50
0.0
 51
89.999999999999204
  0
LINE
  5
C6
  8
1外形線
 10
76.90570242438605
 20
62.866148860367723
 30
0.0
 11
76.90570242438605
 21
61.866148860367836
 31
0.0
  0
LINE
  5
C7
  8
1外形線
 10
89.605702424380411
 20
56.86614886036773
 30
0.0
 11
89.605702424380411
 21
61.866148860367836
 31
0.0
  0
LINE
  5
C8
  8
1外形線
 10
87.605702424381775
 20
56.86614886036773
 30
0.0
 11
87.605702424381775
 21
61.866148860367836
 31
0.0
  0
LINE
  5
C9
  8
1外形線
 10
87.754586718082123
 20
86.086791392042073
 30
0.0
 11
88.515652796283916
 21
78.476130610023574
 31
0.0
  0
LINE
  5
CA
  8
1外形線
 10
89.605702424380638
 20
84.575634329044206
 30
0.0
 11
89.605702424380411
 21
77.782553241251208
 31
0.0
  0
LINE
  5
CB
  8
1外形線
 10
91.905702424381033
 20
63.866148860367609
 30
0.0
 11
90.705702424381215
 21
63.866148860367609
 31
0.0
  0
ARC
  5
CC
  8
1外形線
 10
89.405702424380365
 20
77.782553241251208
 30
0.0
 40
0.2
 50
262.45906757261611
 51
0.0
  0
ARC
  5
CD
  8
1外形線
 10
89.510689986493944
 20
78.575634329044533
 30
0.0
 40
1.0
 50
185.71059313750101
 51
262.4590675726156
  0
ARC
  5
CE
  8
1外形線
 10
117.6057024243817
 20
89.071902962672539
 30
0.0
 40
30.0
 50
180.0
 51
185.71059313750061
  0
ARC
  5
CF
  8
1外形線
 10
90.605702424380638
 20
84.575634329044064
 30
0.0
 40
1.0
 50
90.0
 51
179.9999999999967
  0
LINE
  5
D0
  8
1外形線
 10
90.7057024243814
 20
90.075634329044078
 30
0.0
 11
91.905702424381445
 21
90.075634329044192
 31
0.0
  0
ARC
  5
D1
  8
1外形線
 10
108.9057024243815
 20
87.075634329044064
 30
0.0
 40
0.5000000000000027
 50
179.9999999999967
 51
359.9999999999967
  0
LINE
  5
D2
  8
1外形線
 10
108.4057024243815
 20
87.075634329044064
 30
0.0
 11
108.4057024243815
 21
93.226144586260375
 31
0.0
  0
LINE
  5
D3
  8
1外形線
 10
109.4057024243815
 20
87.075634329044064
 30
0.0
 11
109.4057024243815
 21
93.226144586260375
 31
0.0
  0
ARC
  5
D4
  8
1外形線
 10
48.905702424381957
 20
155.0706467669317
 30
0.0
 40
1.0
 50
95.710593137501007
 51
172.45906757260451
  0
LINE
  5
D5
  8
1外形線
 10
61.905702424387869
 20
153.7756343290441
 30
0.0
 11
76.905702424387641
 21
153.77563432904401
 31
0.0
  0
LINE
  5
D6
  8
1外形線
 10
61.905702424387641
 20
152.57563432904411
 30
0.0
 11
76.905702424387641
 21
152.57563432904411
 31
0.0
  0
CIRCLE
  5
D7
  8
1外形線
 10
67.905702424381502
 20
132.57563432904399
 30
0.0
 40
3.6000000000000001
  0
CIRCLE
  5
D8
  8
1外形線
 10
67.905702424381502
 20
132.57563432904399
 30
0.0
 40
5.0
  0
LINE
  5
D9
  8
1外形線
 10
85.905702424381744
 20
108.1756343290441
 30
0.0
 11
58.901971058007689
 21
108.1756343290441
 31
0.0
  0
LINE
  5
DA
  8
1外形線
 10
61.905702424387698
 20
112.57563432904399
 30
0.0
 11
76.905702424387698
 21
112.57563432904399
 31
0.0
  0
LINE
  5
DB
  8
1外形線
 10
61.905702424387918
 20
110.475634329044
 30
0.0
 11
76.905702424387698
 21
110.4756343290441
 31
0.0
  0
LINE
  5
DC
  8
1外形線
 10
55.905702424381502
 20
153.9756343290457
 30
0.0
 11
55.905702424381502
 21
111.17563432904259
 31
0.0
  0
LINE
  5
DD
  8
1外形線
 10
56.416859487378012
 20
108.32451862274451
 30
0.0
 11
48.806198705360998
 21
109.0855847009463
 31
0.0
  0
LINE
  5
DE
  8
1外形線
 10
54.905702424381502
 20
110.17563432904259
 30
0.0
 11
48.112621336588631
 21
110.17563432904259
 31
0.0
  0
ARC
  5
DF
  8
1外形線
 10
48.905702424381957
 20
110.0806218911563
 30
0.0
 40
1.0
 50
187.5409324273954
 51
264.28940686249888
  0
ARC
  5
E0
  8
1外形線
 10
48.112621336588631
 20
109.97563432904251
 30
0.0
 40
0.2
 50
90.0
 51
187.54093242739501
  0
ARC
  5
E1
  8
1外形線
 10
59.401971058008598
 20
138.17563432904399
 30
0.0
 40
30.0
 50
264.28940686249888
 51
270.0
  0
ARC
  5
E2
  8
1外形線
 10
54.905702424381502
 20
111.17563432904259
 30
0.0
 40
1.0
 50
270.0
 51
0.0
  0
LINE
  5
E3
  8
1外形線
 10
61.905702424387471
 20
112.57563432904399
 30
0.0
 11
61.905702424388039
 21
110.475634329044
 31
0.0
  0
LINE
  5
E4
  8
1外形線
 10
54.905702424381502
 20
154.9756343290457
 30
0.0
 11
48.112621336588631
 21
154.9756343290457
 31
0.0
  0
ARC
  5
E5
  8
1外形線
 10
48.112621336588631
 20
155.17563432904549
 30
0.0
 40
0.2
 50
172.45906757260491
 51
270.0
  0
LINE
  5
E6
  8
1外形線
 10
57.405702424381502
 20
133.07563432904379
 30
0.0
 11
62.930765238848721
 21
133.07563432904399
 31
0.0
  0
LINE
  5
E7
  8
1外形線
 10
57.405702424381502
 20
132.07563432904399
 30
0.0
 11
62.930765238848721
 21
132.07563432904399
 31
0.0
  0
ARC
  5
E8
  8
1外形線
 10
57.405702424381502
 20
132.5756343290445
 30
0.0
 40
0.4999999999999006
 50
90.000000000003254
 51
270.0
  0
CIRCLE
  5
E9
  8
1外形線
 10
67.905702424381502
 20
132.57563432904399
 30
0.0
 40
2.1000000000000001
  0
ARC
  5
EA
  8
1外形線
 10
54.905702424381502
 20
153.9756343290457
 30
0.0
 40
1.0
 50
0.0
 51
90.0
  0
LINE
  5
EB
  8
1外形線
 10
61.905702424387421
 20
152.57563432904411
 30
0.0
 11
61.905702424387641
 21
153.77563432904401
 31
0.0
  0
LINE
  5
EC
  8
1外形線
 10
108.4057024243815
 20
102.9251240718267
 30
0.0
 11
108.4057024243815
 21
130.12614458626089
 31
0.0
  0
LINE
  5
ED
  8
1外形線
 10
109.4057024243815
 20
102.9251240718267
 30
0.0
 11
109.4057024243815
 21
130.12614458626089
 31
0.0
  0
LINE
  5
EE
  8
1外形線
 10
90.7057024243814
 20
98.075634329043865
 30
0.0
 11
91.905702424381445
 21
98.075634329044092
 31
0.0
  0
ARC
  5
EF
  8
1外形線
 10
85.905702424381744
 20
106.4756343290441
 30
0.0
 40
1.7
 50
0.0
 51
90.0
  0
LINE
  5
F0
  8
1外形線
 10
76.905702424387698
 20
112.57563432904399
 30
0.0
 11
76.905702424388153
 21
110.475634329044
 31
0.0
  0
ARC
  5
F1
  8
1外形線
 10
108.9057024243815
 20
100.4756343290436
 30
0.0
 40
2.4999999999999991
 50
0.0
 51
180.0
  0
LINE
  5
F2
  8
1外形線
 10
106.4057024243814
 20
100.4756343290436
 30
0.0
 11
106.4057024243817
 21
95.675634329043532
 31
0.0
  0
LINE
  5
F3
  8
1外形線
 10
111.4057024243815
 20
100.4756343290436
 30
0.0
 11
111.4057024243815
 21
95.675634329043532
 31
0.0
  0
LINE
  5
F4
  8
1外形線
 10
72.88063960991451
 20
132.07563432904399
 30
0.0
 11
106.4562126815982
 21
132.07563432904399
 31
0.0
  0
LINE
  5
F5
  8
1外形線
 10
72.88063960991451
 20
133.07563432904399
 30
0.0
 11
106.4562126815982
 21
133.07563432904399
 31
0.0
  0
LINE
  5
F6
  8
1外形線
 10
76.905702424387641
 20
152.57563432904411
 30
0.0
 11
76.905702424387869
 21
153.7756343290439
 31
0.0
  0
LINE
  5
F7
  8
1外形線
 10
108.4057024243815
 20
135.02512407182721
 30
0.0
 11
108.4057024243815
 21
155.4756343290446
 31
0.0
  0
LINE
  5
F8
  8
1外形線
 10
109.4057024243815
 20
135.02512407182721
 30
0.0
 11
109.4057024243815
 21
155.4756343290446
 31
0.0
  0
CIRCLE
  5
F9
  8
1外形線
 10
108.9057024243815
 20
132.57563432904399
 30
0.0
 40
2.5
  0
ARC
  5
FA
  8
1外形線
 10
108.9057024243815
 20
155.4756343290446
 30
0.0
 40
0.4999999999999716
 50
0.0
 51
180.0
  0
LINE
  5
FB
  8
1外形線
 10
56.416859487379377
 20
156.82675003534379
 30
0.0
 11
48.806198705360998
 21
156.06568395714169
 31
0.0
  0
ARC
  5
FC
  8
1外形線
 10
59.401971058009963
 20
126.9756343290441
 30
0.0
 40
30.0
 50
90.0
 51
95.710593137501007
  0
LINE
  5
FD
  8
1外形線
 10
130.20570242438049
 20
89.071902962671061
 30
0.0
 11
130.20570242438069
 21
106.4756343290441
 31
0.0
  0
LINE
  5
FE
  8
1外形線
 10
127.10570242438151
 20
90.075634329044192
 30
0.0
 11
127.1057024243816
 21
98.075634329043723
 31
0.0
  0
LINE
  5
FF
  8
1外形線
 10
125.9057024243815
 20
90.075634329044192
 30
0.0
 11
125.9057024243815
 21
98.075634329043964
 31
0.0
  0
ARC
  5
100
  8
1外形線
 10
154.90570242437511
 20
62.866148860367723
 30
0.0
 40
1.0
 50
0.0
 51
90.00000000000081
  0
ARC
  5
101
  8
1外形線
 10
141.9057024243769
 20
62.866148860367723
 30
0.0
 40
1.0
 50
90.00000000000081
 51
180.0
  0
LINE
  5
102
  8
1外形線
 10
125.9057024243815
 20
63.866148860367609
 30
0.0
 11
125.9057024243819
 21
61.866148860367609
 31
0.0
  0
LINE
  5
103
  8
1外形線
 10
127.1057024243817
 20
63.866148860367609
 30
0.0
 11
127.1057024243817
 21
61.86614886036773
 31
0.0
  0
LINE
  5
104
  8
1外形線
 10
128.20570242438259
 20
56.86614886036773
 30
0.0
 11
128.20570242438259
 21
61.866148860367836
 31
0.0
  0
LINE
  5
105
  8
1外形線
 10
130.20570242438069
 20
56.86614886036773
 30
0.0
 11
130.20570242438069
 21
61.866148860367836
 31
0.0
  0
LINE
  5
106
  8
1外形線
 10
140.9057024243769
 20
62.866148860367723
 30
0.0
 11
140.9057024243769
 21
61.866148860367836
 31
0.0
  0
LINE
  5
107
  8
1外形線
 10
155.90570242437511
 20
62.866148860367723
 30
0.0
 11
155.90570242437511
 21
61.866148860367609
 31
0.0
  0
LINE
  5
108
  8
1外形線
 10
130.0568181306804
 20
86.086791392040254
 30
0.0
 11
129.2957520524786
 21
78.476130610023347
 31
0.0
  0
LINE
  5
109
  8
1外形線
 10
128.20570242438231
 20
84.575634329044064
 30
0.0
 11
128.20570242438231
 21
77.782553241251094
 31
0.0
  0
LINE
  5
10A
  8
1外形線
 10
125.9057024243819
 20
63.866148860367609
 30
0.0
 11
127.1057024243817
 21
63.866148860367609
 31
0.0
  0
ARC
  5
10B
  8
1外形線
 10
128.30071486226851
 20
78.575634329044405
 30
0.0
 40
1.0
 50
277.54093242740402
 51
354.28940686249899
  0
ARC
  5
10C
  8
1外形線
 10
128.40570242438241
 20
77.782553241251094
 30
0.0
 40
0.2
 50
180.0
 51
277.54093242739992
  0
ARC
  5
10D
  8
1外形線
 10
100.2057024243807
 20
89.071902962671061
 30
0.0
 40
30.0
 50
354.28940686249859
 51
359.9999999999996
  0
ARC
  5
10E
  8
1外形線
 10
127.2057024243823
 20
84.575634329044064
 30
0.0
 40
1.0
 50
0.0
 51
90.0
  0
LINE
  5
10F
  8
1外形線
 10
127.10570242438151
 20
90.075634329044078
 30
0.0
 11
125.9057024243815
 21
90.075634329044192
 31
0.0
  0
LINE
  5
110
  8
1外形線
 10
141.9057024243769
 20
63.86614886036773
 30
0.0
 11
154.90570242437511
 21
63.86614886036795
 31
0.0
  0
LINE
  5
111
  8
1外形線
 10
159.90570242438099
 20
56.86614886036773
 30
0.0
 11
159.90570242438099
 21
61.866148860367957
 31
0.0
  0
LINE
  5
112
  8
1外形線
 10
169.89878351217439
 20
61.866148860367957
 30
0.0
 11
169.89878351217439
 21
56.86614886036773
 31
0.0
  0
ARC
  5
113
  8
1外形線
 10
168.90570242438099
 20
155.0706467669317
 30
0.0
 40
1.0
 50
7.5409324273954441
 51
84.289406862498979
  0
LINE
  5
114
  8
1外形線
 10
160.4057024243815
 20
133.07563432904379
 30
0.0
 11
154.8806396099142
 21
133.07563432904399
 31
0.0
  0
LINE
  5
115
  8
1外形線
 10
160.4057024243815
 20
132.07563432904399
 30
0.0
 11
154.8806396099142
 21
132.07563432904399
 31
0.0
  0
LINE
  5
116
  8
1外形線
 10
131.90570242438119
 20
108.1756343290441
 30
0.0
 11
158.40943379075441
 21
108.1756343290441
 31
0.0
  0
LINE
  5
117
  8
1外形線
 10
127.10570242438151
 20
98.075634329043865
 30
0.0
 11
125.9057024243815
 21
98.075634329044092
 31
0.0
  0
ARC
  5
118
  8
1外形線
 10
131.90570242438119
 20
106.4756343290441
 30
0.0
 40
1.7
 50
90.0
 51
180.0
  0
LINE
  5
119
  8
1外形線
 10
155.9057024243771
 20
112.57563432904399
 30
0.0
 11
140.9057024243771
 21
112.57563432904399
 31
0.0
  0
LINE
  5
11A
  8
1外形線
 10
155.9057024243769
 20
110.475634329044
 30
0.0
 11
140.9057024243771
 21
110.4756343290441
 31
0.0
  0
LINE
  5
11B
  8
1外形線
 10
140.9057024243771
 20
112.57563432904399
 30
0.0
 11
140.9057024243767
 21
110.475634329044
 31
0.0
  0
LINE
  5
11C
  8
1外形線
 10
155.90570242437741
 20
112.57563432904399
 30
0.0
 11
155.9057024243769
 21
110.475634329044
 31
0.0
  0
CIRCLE
  5
11D
  8
1外形線
 10
149.9057024243815
 20
132.57563432904399
 30
0.0
 40
3.6000000000000001
  0
CIRCLE
  5
11E
  8
1外形線
 10
149.9057024243815
 20
132.57563432904399
 30
0.0
 40
5.0
  0
CIRCLE
  5
11F
  8
1外形線
 10
149.9057024243815
 20
132.57563432904399
 30
0.0
 40
2.1000000000000001
  0
LINE
  5
120
  8
1外形線
 10
155.9057024243771
 20
152.57563432904411
 30
0.0
 11
140.9057024243771
 21
152.57563432904411
 31
0.0
  0
LINE
  5
121
  8
1外形線
 10
155.9057024243769
 20
153.7756343290441
 30
0.0
 11
140.9057024243771
 21
153.77563432904401
 31
0.0
  0
LINE
  5
122
  8
1外形線
 10
140.9057024243771
 20
152.57563432904411
 30
0.0
 11
140.9057024243769
 21
153.7756343290439
 31
0.0
  0
LINE
  5
123
  8
1外形線
 10
155.90570242437741
 20
152.57563432904411
 30
0.0
 11
155.9057024243771
 21
153.77563432904401
 31
0.0
  0
LINE
  5
124
  8
1外形線
 10
161.9057024243815
 20
153.9756343290457
 30
0.0
 11
161.9057024243815
 21
111.17563432904259
 31
0.0
  0
ARC
  5
125
  8
1外形線
 10
168.90570242438099
 20
110.0806218911563
 30
0.0
 40
1.0
 50
275.71059313750061
 51
352.45906757260451
  0
LINE
  5
126
  8
1外形線
 10
161.3945453613849
 20
108.32451862274451
 30
0.0
 11
169.00520614340201
 21
109.0855847009463
 31
0.0
  0
ARC
  5
127
  8
1外形線
 10
158.40943379075441
 20
138.17563432904399
 30
0.0
 40
30.0
 50
270.0
 51
275.71059313750101
  0
LINE
  5
128
  8
1外形線
 10
162.9057024243815
 20
110.17563432904259
 30
0.0
 11
169.69878351217429
 21
110.17563432904259
 31
0.0
  0
ARC
  5
129
  8
1外形線
 10
162.9057024243815
 20
111.17563432904259
 30
0.0
 40
1.0
 50
180.0
 51
270.0
  0
ARC
  5
12A
  8
1外形線
 10
169.69878351217429
 20
109.97563432904251
 30
0.0
 40
0.2
 50
352.45906757260491
 51
90.0
  0
ARC
  5
12B
  8
1外形線
 10
160.4057024243815
 20
132.5756343290445
 30
0.0
 40
0.4999999999999006
 50
270.0
 51
89.999999999996746
  0
LINE
  5
12C
  8
1外形線
 10
162.9057024243815
 20
154.9756343290457
 30
0.0
 11
169.69878351217429
 21
154.9756343290457
 31
0.0
  0
ARC
  5
12D
  8
1外形線
 10
162.9057024243815
 20
153.9756343290457
 30
0.0
 40
1.0
 50
90.0
 51
180.0
  0
ARC
  5
12E
  8
1外形線
 10
169.69878351217429
 20
155.17563432904549
 30
0.0
 40
0.2
 50
270.0
 51
7.5409324273950391
  0
LINE
  5
12F
  8
1外形線
 10
161.39454536138359
 20
156.82675003534379
 30
0.0
 11
169.00520614340201
 21
156.06568395714169
 31
0.0
  0
ARC
  5
130
  8
1外形線
 10
158.40943379075301
 20
126.9756343290441
 30
0.0
 40
30.0
 50
84.289406862498979
 51
90.0
  0
ENDSEC
  0
EOF
