  0
SECTION
  2
HEADER
  9
$ACADVER
  1
AC1009
  9
$INSBASE
 10
0.0
 20
0.0
 30
0.0
  9
$EXTMIN
 10
24.99622914499696
 20
-25.750029856048059
 30
-0.0015258207003583
  9
$EXTMAX
 10
615.43703137683963
 20
408.08463664145091
 30
0.0000000349246037
  9
$LIMMIN
 10
0.0
 20
0.0
  9
$LIMMAX
 10
420.0
 20
297.0
  9
$ORTHOMODE
 70
     0
  9
$REGENMODE
 70
     1
  9
$FILLMODE
 70
     1
  9
$QTEXTMODE
 70
     0
  9
$MIRRTEXT
 70
     1
  9
$DRAGMODE
 70
     2
  9
$LTSCALE
 40
1.0
  9
$OSMODE
 70
    37
  9
$ATTMODE
 70
     1
  9
$TEXTSIZE
 40
2.5
  9
$TRACEWID
 40
1.0
  9
$TEXTSTYLE
  7
STANDARD
  9
$CLAYER
  8
0
  9
$CELTYPE
  6
BYLAYER
  9
$CECOLOR
 62
   256
  9
$DIMSCALE
 40
1.0
  9
$DIMASZ
 40
2.5
  9
$DIMEXO
 40
0.625
  9
$DIMDLI
 40
3.75
  9
$DIMRND
 40
0.0
  9
$DIMDLE
 40
0.0
  9
$DIMEXE
 40
1.25
  9
$DIMTP
 40
0.0
  9
$DIMTM
 40
0.0
  9
$DIMTXT
 40
2.5
  9
$DIMCEN
 40
2.5
  9
$DIMTSZ
 40
0.0
  9
$DIMTOL
 70
     0
  9
$DIMLIM
 70
     0
  9
$DIMTIH
 70
     0
  9
$DIMTOH
 70
     0
  9
$DIMSE1
 70
     0
  9
$DIMSE2
 70
     0
  9
$DIMTAD
 70
     1
  9
$DIMZIN
 70
     8
  9
$DIMBLK
  1

  9
$DIMASO
 70
     1
  9
$DIMSHO
 70
     1
  9
$DIMPOST
  1

  9
$DIMAPOST
  1

  9
$DIMALT
 70
     0
  9
$DIMALTD
 70
     3
  9
$DIMALTF
 40
0.03937007874016
  9
$DIMLFAC
 40
1.0
  9
$DIMTOFL
 70
     1
  9
$DIMTVP
 40
0.0
  9
$DIMTIX
 70
     0
  9
$DIMSOXD
 70
     0
  9
$DIMSAH
 70
     0
  9
$DIMBLK1
  1

  9
$DIMBLK2
  1

  9
$DIMSTYLE
  2
ISO-25
  9
$DIMCLRD
 70
     0
  9
$DIMCLRE
 70
     0
  9
$DIMCLRT
 70
     0
  9
$DIMTFAC
 40
1.0
  9
$DIMGAP
 40
0.625
  9
$LUNITS
 70
     2
  9
$LUPREC
 70
     4
  9
$SKETCHINC
 40
1.0
  9
$FILLETRAD
 40
10.0
  9
$AUNITS
 70
     0
  9
$AUPREC
 70
     0
  9
$MENU
  1
.
  9
$ELEVATION
 40
0.0
  9
$PELEVATION
 40
0.0
  9
$THICKNESS
 40
0.0
  9
$LIMCHECK
 70
     0
  9
$BLIPMODE
 70
     0
  9
$CHAMFERA
 40
10.0
  9
$CHAMFERB
 40
10.0
  9
$SKPOLY
 70
     0
  9
$TDCREATE
 40
2452048.587873715
  9
$TDUPDATE
 40
2452048.5976521298
  9
$TDINDWG
 40
0.0097802662
  9
$TDUSRTIMER
 40
0.0097802662
  9
$USRTIMER
 70
     1
  9
$ANGBASE
 50
0.0
  9
$ANGDIR
 70
     0
  9
$PDMODE
 70
     0
  9
$PDSIZE
 40
0.0
  9
$PLINEWID
 40
0.0
  9
$COORDS
 70
     1
  9
$SPLFRAME
 70
     0
  9
$SPLINETYPE
 70
     6
  9
$SPLINESEGS
 70
     8
  9
$ATTDIA
 70
     0
  9
$ATTREQ
 70
     1
  9
$HANDLING
 70
-16383
  9
$HANDSEED
  5
4B6A
  9
$SURFTAB1
 70
     6
  9
$SURFTAB2
 70
     6
  9
$SURFTYPE
 70
     6
  9
$SURFU
 70
     6
  9
$SURFV
 70
     6
  9
$UCSNAME
  2

  9
$UCSORG
 10
0.0
 20
0.0
 30
0.0
  9
$UCSXDIR
 10
1.0
 20
0.0
 30
0.0
  9
$UCSYDIR
 10
0.0
 20
1.0
 30
0.0
  9
$PUCSNAME
  2

  9
$PUCSORG
 10
0.0
 20
0.0
 30
0.0
  9
$PUCSXDIR
 10
1.0
 20
0.0
 30
0.0
  9
$PUCSYDIR
 10
0.0
 20
1.0
 30
0.0
  9
$USERI1
 70
     0
  9
$USERI2
 70
     0
  9
$USERI3
 70
     0
  9
$USERI4
 70
     0
  9
$USERI5
 70
     0
  9
$USERR1
 40
0.0
  9
$USERR2
 40
0.0
  9
$USERR3
 40
0.0
  9
$USERR4
 40
0.0
  9
$USERR5
 40
0.0
  9
$WORLDVIEW
 70
     1
  9
$SHADEDGE
 70
     3
  9
$SHADEDIF
 70
    70
  9
$TILEMODE
 70
     1
  9
$MAXACTVP
 70
    64
  9
$PLIMCHECK
 70
     0
  9
$PEXTMIN
 10
1.0000000000000000E+020
 20
1.0000000000000000E+020
 30
1.0000000000000000E+020
  9
$PEXTMAX
 10
-1.0000000000000000E+020
 20
-1.0000000000000000E+020
 30
-1.0000000000000000E+020
  9
$PLIMMIN
 10
0.0
 20
0.0
  9
$PLIMMAX
 10
420.0
 20
297.0
  9
$UNITMODE
 70
     0
  9
$VISRETAIN
 70
     1
  9
$PLINEGEN
 70
     0
  9
$PSLTSCALE
 70
     1
  0
ENDSEC
  0
SECTION
  2
TABLES
  0
TABLE
  2
VPORT
 70
    23
  0
VPORT
  2
*ACTIVE
 70
     0
 10
0.0
 20
0.0
 11
1.0
 21
1.0
 12
243.19809294536361
 22
20.724196922940902
 13
0.0
 23
0.0
 14
10.0
 24
10.0
 15
10.0
 25
10.0
 16
0.0
 26
0.0
 36
1.0
 17
0.0
 27
0.0
 37
0.0
 40
1136.324782680095
 41
0.8452830188679245
 42
50.0
 43
0.0
 44
0.0
 50
0.0
 51
0.0
 71
     0
 72
   100
 73
     1
 74
     3
 75
     0
 76
     0
 77
     0
 78
     0
  0
ENDTAB
  0
TABLE
  2
LTYPE
 70
     1
  0
LTYPE
  2
CONTINUOUS
 70
     0
  3
Solid line
 72
    65
 73
     0
 40
0.0
  0
ENDTAB
  0
TABLE
  2
LAYER
 70
     2
  0
LAYER
  2
0
 70
     0
 62
     7
  6
CONTINUOUS
  0
LAYER
  2
1外形線
 70
     0
 62
     3
  6
CONTINUOUS
  0
ENDTAB
  0
TABLE
  2
STYLE
 70
     2
  0
STYLE
  2
STANDARD
 70
     0
 40
0.0
 41
1.0
 50
0.0
 71
     0
 42
2.5
  3
txt
  4

  0
STYLE
  2
KANJI
 70
     0
 40
0.0
 41
1.0
 50
0.0
 71
     0
 42
10.0
  3
simplex
  4
bigfont
  0
ENDTAB
  0
TABLE
  2
VIEW
 70
     0
  0
ENDTAB
  0
TABLE
  2
UCS
 70
     0
  0
ENDTAB
  0
TABLE
  2
APPID
 70
     1
  0
APPID
  2
ACAD
 70
     0
  0
ENDTAB
  0
TABLE
  2
DIMSTYLE
 70
     2
  0
DIMSTYLE
  2
ISO-25
 70
     0
  3

  4

  5

  6

  7

 40
1.0
 41
2.5
 42
0.625
 43
3.75
 44
1.25
 45
0.0
 46
0.0
 47
0.0
 48
0.0
140
2.5
141
2.5
142
0.0
143
0.03937007874016
144
1.0
145
0.0
146
1.0
147
0.625
 71
     0
 72
     0
 73
     0
 74
     0
 75
     0
 76
     0
 77
     1
 78
     8
170
     0
171
     3
172
     1
173
     0
174
     0
175
     0
176
     0
177
     0
178
     0
  0
DIMSTYLE
  2
STANDARD
 70
     0
  3

  4

  5

  6
1
  7
1
 40
1.0
 41
1.0
 42
1.0
 43
6.0
 44
1.0
 45
0.0
 46
0.0
 47
0.0
 48
0.0
140
2.5
141
0.0
142
0.0
143
25.399999999999999
144
1.0
145
0.0
146
1.0
147
0.5
 71
     0
 72
     0
 73
     0
 74
     0
 75
     0
 76
     0
 77
     1
 78
     8
170
     0
171
     2
172
     1
173
     1
174
     0
175
     0
176
     0
177
     0
178
     0
  0
ENDTAB
  0
ENDSEC
  0
SECTION
  2
BLOCKS
  0
BLOCK
  8
0
  2
$MODEL_SPACE
 70
     0
 10
0.0
 20
0.0
 30
0.0
  3
$MODEL_SPACE
  1

  0
ENDBLK
  5
21
  8
0
  0
BLOCK
 67
     1
  8
0
  2
$PAPER_SPACE
 70
     0
 10
0.0
 20
0.0
 30
0.0
  3
$PAPER_SPACE
  1

  0
ENDBLK
  5
1D
 67
     1
  8
0
  0
BLOCK
  8
0
  2
1
 70
     0
 10
0.0
 20
0.0
 30
0.0
  3
1
  1

  0
SOLID
  5
2C
  8
0
  6
BYBLOCK
 62
     0
 10
-1.811110924292052
 20
0.4852857095671653
 30
0.0
 11
-1.811110924292052
 21
-0.4852857095673642
 31
0.0
 12
0.0
 22
0.0
 32
0.0
 13
0.0
 23
0.0
 33
0.0
  0
ENDBLK
  5
2E
  8
0
  0
ENDSEC
  0
SECTION
  2
ENTITIES
  0
LINE
  5
4AE0
  8
1外形線
 10
152.29976081019589
 20
123.78161962859031
 30
0.0
 11
105.7241877385063
 21
123.78161962859031
 31
0.0
  0
LINE
  5
4AE1
  8
1外形線
 10
152.29976081019589
 20
124.78161962859031
 30
0.0
 11
105.7241877385062
 21
124.78161962859031
 31
0.0
  0
LINE
  5
4AE2
  8
1外形線
 10
82.074697995723113
 20
58.281619628595671
 30
0.0
 11
124.47469799572259
 21
58.28161962859425
 31
0.0
  0
LINE
  5
4AE3
  8
1外形線
 10
40.77096662935196
 20
148.68161962859071
 30
0.0
 11
165.778429362097
 21
148.68161962858991
 31
0.0
  0
LINE
  5
4AE4
  8
1外形線
 10
177.27469799572921
 20
30.004139865329851
 30
0.0
 11
29.274697995715542
 21
30.004139865334189
 31
0.0
  0
LINE
  5
4AE5
  8
1外形線
 10
177.27469799572759
 20
25.004139865329869
 30
0.0
 11
29.274697995715542
 21
25.004139865334079
 31
0.0
  0
LINE
  5
4AE6
  8
1外形線
 10
102.7746979957205
 20
80.631109371377406
 30
0.0
 11
102.7746979957226
 21
121.83212988580691
 31
0.0
  0
LINE
  5
4AE7
  8
1外形線
 10
103.7746979957205
 20
80.631109371378486
 30
0.0
 11
103.7746979957226
 21
121.83212988580679
 31
0.0
  0
LINE
  5
4AE8
  8
1外形線
 10
81.474697995721897
 20
69.281619628594143
 30
0.0
 11
81.474697995721669
 21
84.281619628594186
 31
0.0
  0
LINE
  5
4AE9
  8
1外形線
 10
82.674697995721885
 20
69.281619628594171
 30
0.0
 11
82.674697995721658
 21
84.281619628594228
 31
0.0
  0
LINE
  5
4AEA
  8
1外形線
 10
78.874697995720453
 20
61.777888262249519
 30
0.0
 11
78.874697995721874
 21
98.181619628589829
 31
0.0
  0
LINE
  5
4AEB
  8
1外形線
 10
29.274697995715542
 20
30.004139865334189
 30
0.0
 11
29.274697995715542
 21
25.004139865334079
 31
0.0
  0
LINE
  5
4AEC
  8
1外形線
 10
39.274697995717872
 20
30.004139865330501
 30
0.0
 11
39.274697995717872
 21
25.00413986533016
 31
0.0
  0
LINE
  5
4AED
  8
1外形線
 10
62.274697995717297
 20
32.004139865333229
 30
0.0
 11
49.27469799571724
 21
32.00413986533362
 31
0.0
  0
ARC
  5
4AEE
  8
1外形線
 10
49.27469799571724
 20
31.004139865333631
 30
0.0
 40
1.0
 50
89.999999999998366
 51
179.9999999999981
  0
LINE
  5
4AEF
  8
1外形線
 10
48.274697995717247
 20
31.004139865333631
 30
0.0
 11
48.27469799571719
 21
30.00413986533362
 31
0.0
  0
ARC
  5
4AF0
  8
1外形線
 10
62.274697995717247
 20
31.004139865333229
 30
0.0
 40
1.0
 50
359.99999999999812
 51
89.999999999998366
  0
LINE
  5
4AF1
  8
1外形線
 10
63.274697995717247
 20
31.004139865333169
 30
0.0
 11
63.274697995717247
 21
30.004139865333169
 31
0.0
  0
LINE
  5
4AF2
  8
1外形線
 10
78.874697995723068
 20
30.00413986533141
 30
0.0
 11
78.874697995723068
 21
25.004139865331268
 31
0.0
  0
LINE
  5
4AF3
  8
1外形線
 10
81.474697995723147
 20
32.004139865331361
 30
0.0
 11
81.47469799572292
 21
30.004139865331549
 31
0.0
  0
LINE
  5
4AF4
  8
1外形線
 10
82.674697995722909
 20
32.00413986533141
 30
0.0
 11
81.474697995723147
 21
32.004139865331361
 31
0.0
  0
LINE
  5
4AF5
  8
1外形線
 10
82.674697995723136
 20
32.00413986533141
 30
0.0
 11
82.674697995722909
 21
30.00413986533141
 31
0.0
  0
LINE
  5
4AF6
  8
1外形線
 10
81.074697995721976
 20
25.00413986533135
 30
0.0
 11
81.074697995721976
 21
30.00413986533146
 31
0.0
  0
ARC
  5
4AF7
  8
1外形線
 10
80.779685557834895
 20
51.281619628598058
 30
0.0
 40
1.0
 50
185.7105931374993
 51
269.99999999999812
  0
LINE
  5
4AF8
  8
1外形線
 10
79.023582289420801
 20
58.792776691618648
 30
0.0
 11
79.784648367624868
 21
51.182115909577021
 31
0.0
  0
ARC
  5
4AF9
  8
1外形線
 10
108.8746979957204
 20
61.777888262248347
 30
0.0
 40
30.0
 50
179.9999999999977
 51
185.7105931374991
  0
LINE
  5
4AFA
  8
1外形線
 10
81.074697995723056
 20
57.281619628595728
 30
0.0
 11
81.074697995722985
 21
50.481619628598047
 31
0.0
  0
ARC
  5
4AFB
  8
1外形線
 10
80.874697995722954
 20
50.481619628598047
 30
0.0
 40
0.2
 50
269.99999999999812
 51
359.99999999999932
  0
LINE
  5
4AFC
  8
1外形線
 10
80.779685557834853
 20
50.281619628598058
 30
0.0
 11
80.874697995722954
 21
50.281619628598058
 31
0.0
  0
ARC
  5
4AFD
  8
1外形線
 10
82.074697995723056
 20
57.281619628595678
 30
0.0
 40
1.0
 50
89.999999999997968
 51
179.9999999999998
  0
LINE
  5
4AFE
  8
1外形線
 10
82.674697995721885
 20
69.281619628594171
 30
0.0
 11
81.474697995721897
 21
69.281619628594171
 31
0.0
  0
LINE
  5
4AFF
  8
1外形線
 10
103.77469799571951
 20
59.781619628594939
 30
0.0
 11
103.77469799572
 21
70.932129885810923
 31
0.0
  0
LINE
  5
4B00
  8
1外形線
 10
102.77469799571951
 20
59.781619628594989
 30
0.0
 11
102.77469799572
 21
70.932129885812145
 31
0.0
  0
ARC
  5
4B01
  8
1外形線
 10
103.2746979957229
 20
59.781619628594967
 30
0.0
 40
0.5000000000000027
 50
179.9999999999967
 51
359.9999999999967
  0
ARC
  5
4B02
  8
1外形線
 10
103.2746979957231
 20
78.181619628594774
 30
0.0
 40
2.4999999999999991
 50
0.0
 51
180.0
  0
ARC
  5
4B03
  8
1外形線
 10
103.2746979957231
 20
73.381619628594706
 30
0.0
 40
2.4999999999999991
 50
180.0
 51
0.0
  0
LINE
  5
4B04
  8
1外形線
 10
100.7746979957233
 20
78.181619628594774
 30
0.0
 11
100.7746979957234
 21
73.381619628594706
 31
0.0
  0
LINE
  5
4B05
  8
1外形線
 10
105.7746979957232
 20
78.181619628594774
 30
0.0
 11
105.7746979957232
 21
73.381619628594706
 31
0.0
  0
ARC
  5
4B06
  8
1外形線
 10
30.274697995721681
 20
146.7766320664781
 30
0.0
 40
1.0
 50
95.710593137500993
 51
180.0
  0
LINE
  5
4B07
  8
1外形線
 10
54.249635181250248
 20
124.78161962859031
 30
0.0
 11
100.8252082529399
 21
124.78161962859031
 31
0.0
  0
LINE
  5
4B08
  8
1外形線
 10
54.249635181250248
 20
123.78161962859031
 30
0.0
 11
100.8252082529398
 21
123.78161962859031
 31
0.0
  0
LINE
  5
4B09
  8
1外形線
 10
40.77096662934877
 20
99.881619628590215
 30
0.0
 11
77.174697995721885
 21
99.881619628589874
 31
0.0
  0
LINE
  5
4B0A
  8
1外形線
 10
37.274697995719293
 20
145.4816196285901
 30
0.0
 11
37.27469799571918
 21
103.0816196285905
 31
0.0
  0
LINE
  5
4B0B
  8
1外形線
 10
36.27469799571918
 20
102.0816196285905
 30
0.0
 11
29.474697995719222
 21
102.0816196285901
 31
0.0
  0
LINE
  5
4B0C
  8
1外形線
 10
37.785855058718418
 20
100.03050392229051
 30
0.0
 11
30.175194276700608
 21
100.7915700004925
 31
0.0
  0
ARC
  5
4B0D
  8
1外形線
 10
30.274697995721681
 20
101.7866071907026
 30
0.0
 40
1.0
 50
180.0
 51
264.28940686249922
  0
LINE
  5
4B0E
  8
1外形線
 10
29.27469799571929
 20
101.8816196285901
 30
0.0
 11
29.27469799571929
 21
101.7866071907022
 31
0.0
  0
ARC
  5
4B0F
  8
1外形線
 10
29.474697995719222
 20
101.8816196285901
 30
0.0
 40
0.2
 50
90.000000000003652
 51
180.0000000000166
  0
ARC
  5
4B10
  8
1外形線
 10
40.770966629349118
 20
129.88161962859019
 30
0.0
 40
30.0
 50
264.28940686249888
 51
269.99999999999932
  0
ARC
  5
4B11
  8
1外形線
 10
36.27469799571918
 20
103.0816196285905
 30
0.0
 40
1.0
 50
270.00000000000318
 51
359.99999999999972
  0
LINE
  5
4B12
  8
1外形線
 10
48.274697995715883
 20
103.6816196285907
 30
0.0
 11
63.274697995715883
 21
103.6816196285899
 31
0.0
  0
LINE
  5
4B13
  8
1外形線
 10
48.274697995715819
 20
102.48161962859071
 30
0.0
 11
63.274697995715819
 21
102.4816196285899
 31
0.0
  0
LINE
  5
4B14
  8
1外形線
 10
48.274697995715883
 20
102.48161962859071
 30
0.0
 11
48.274697995715883
 21
103.6816196285907
 31
0.0
  0
LINE
  5
4B15
  8
1外形線
 10
63.274697995715883
 20
102.4816196285899
 30
0.0
 11
63.274697995715883
 21
103.6816196285899
 31
0.0
  0
CIRCLE
  5
4B16
  8
1外形線
 10
49.27469799571724
 20
124.28161962859031
 30
0.0
 40
3.6000000000000001
  0
CIRCLE
  5
4B17
  8
1外形線
 10
49.27469799571724
 20
124.28161962859031
 30
0.0
 40
5.0
  0
LINE
  5
4B18
  8
1外形線
 10
38.774697995719173
 20
123.78161962859031
 30
0.0
 11
44.299760810184232
 21
123.78161962859031
 31
0.0
  0
LINE
  5
4B19
  8
1外形線
 10
38.774697995719123
 20
124.78161962858999
 30
0.0
 11
44.299760810184232
 21
124.78161962859031
 31
0.0
  0
ARC
  5
4B1A
  8
1外形線
 10
38.774697995719173
 20
124.2816196285907
 30
0.0
 40
0.4999999999999006
 50
90.000000000003254
 51
270.0
  0
LINE
  5
4B1B
  8
1外形線
 10
36.274697995719293
 20
146.4816196285901
 30
0.0
 11
29.474697995721609
 21
146.4816196285899
 31
0.0
  0
LINE
  5
4B1C
  8
1外形線
 10
29.274697995721681
 20
146.7766320664781
 30
0.0
 11
29.274697995721681
 21
146.68161962858991
 31
0.0
  0
ARC
  5
4B1D
  8
1外形線
 10
29.474697995721609
 20
146.68161962858991
 30
0.0
 40
0.2
 50
180.0
 51
270.00000000000119
  0
ARC
  5
4B1E
  8
1外形線
 10
36.274697995719293
 20
145.4816196285901
 30
0.0
 40
1.0
 50
359.9999999999996
 51
90.000000000001421
  0
CIRCLE
  5
4B1F
  8
1外形線
 10
49.27469799571724
 20
124.28161962859031
 30
0.0
 40
2.1000000000000001
  0
LINE
  5
4B20
  8
1外形線
 10
48.274697995715819
 20
146.08161962858949
 30
0.0
 11
63.274697995715819
 21
146.08161962859029
 31
0.0
  0
LINE
  5
4B21
  8
1外形線
 10
48.274697995715883
 20
144.8816196285895
 30
0.0
 11
63.274697995715883
 21
144.8816196285903
 31
0.0
  0
LINE
  5
4B22
  8
1外形線
 10
48.274697995715883
 20
146.08161962858949
 30
0.0
 11
48.274697995715883
 21
144.8816196285895
 31
0.0
  0
LINE
  5
4B23
  8
1外形線
 10
63.274697995715883
 20
146.08161962859029
 30
0.0
 11
63.274697995715883
 21
144.8816196285903
 31
0.0
  0
LINE
  5
4B24
  8
1外形線
 10
82.674697995721658
 20
84.281619628594186
 30
0.0
 11
81.474697995721669
 21
84.281619628594143
 31
0.0
  0
ARC
  5
4B25
  8
1外形線
 10
77.174697995721885
 20
98.181619628589829
 30
0.0
 40
1.7
 50
359.99999999999773
 51
89.999999999999389
  0
LINE
  5
4B26
  8
1外形線
 10
103.7746979957229
 20
126.73110937137319
 30
0.0
 11
103.7746979957238
 21
146.18161962859031
 31
0.0
  0
LINE
  5
4B27
  8
1外形線
 10
102.7746979957229
 20
126.73110937137319
 30
0.0
 11
102.7746979957238
 21
146.18161962859031
 31
0.0
  0
CIRCLE
  5
4B28
  8
1外形線
 10
103.2746979957231
 20
124.28161962858999
 30
0.0
 40
2.5
  0
ARC
  5
4B29
  8
1外形線
 10
103.2746979957244
 20
146.18161962859031
 30
0.0
 40
0.5
 50
0.0
 51
180.0
  0
LINE
  5
4B2A
  8
1外形線
 10
37.785855058721147
 20
148.5327353348903
 30
0.0
 11
30.175194276700608
 21
147.77166925668811
 31
0.0
  0
ARC
  5
4B2B
  8
1外形線
 10
40.770966629351733
 20
118.6816196285907
 30
0.0
 40
30.0
 50
89.999999999999588
 51
95.710593137500794
  0
LINE
  5
4B2C
  8
1外形線
 10
123.8746979957229
 20
69.281619628594171
 30
0.0
 11
123.8746979957231
 21
84.281619628594228
 31
0.0
  0
LINE
  5
4B2D
  8
1外形線
 10
125.0746979957229
 20
69.281619628594143
 30
0.0
 11
125.0746979957231
 21
84.281619628594186
 31
0.0
  0
LINE
  5
4B2E
  8
1外形線
 10
127.674697995721
 20
61.777888262203781
 30
0.0
 11
127.6746979957225
 21
98.181619628589885
 31
0.0
  0
LINE
  5
4B2F
  8
1外形線
 10
123.8746979957219
 20
32.00413986533141
 30
0.0
 11
125.07469799572161
 21
32.004139865331361
 31
0.0
  0
LINE
  5
4B30
  8
1外形線
 10
123.8746979957217
 20
32.00413986533141
 30
0.0
 11
123.8746979957219
 21
30.00413986533141
 31
0.0
  0
LINE
  5
4B31
  8
1外形線
 10
125.07469799572161
 20
32.004139865331361
 30
0.0
 11
125.07469799572191
 21
30.004139865331549
 31
0.0
  0
LINE
  5
4B32
  8
1外形線
 10
127.6746979957217
 20
30.00413986533141
 30
0.0
 11
127.6746979957217
 21
25.004139865331268
 31
0.0
  0
LINE
  5
4B33
  8
1外形線
 10
125.47469799572281
 20
25.00413986533135
 30
0.0
 11
125.47469799572281
 21
30.00413986533146
 31
0.0
  0
LINE
  5
4B34
  8
1外形線
 10
144.27469799572751
 20
32.004139865333229
 30
0.0
 11
157.27469799572751
 21
32.00413986533362
 31
0.0
  0
LINE
  5
4B35
  8
1外形線
 10
143.27469799572751
 20
31.004139865333169
 30
0.0
 11
143.27469799572751
 21
30.004139865333169
 31
0.0
  0
ARC
  5
4B36
  8
1外形線
 10
144.27469799572751
 20
31.004139865333229
 30
0.0
 40
1.0
 50
90.000000000001606
 51
180.00000000000159
  0
LINE
  5
4B37
  8
1外形線
 10
158.27469799572751
 20
31.004139865333631
 30
0.0
 11
158.27469799572759
 21
30.00413986533362
 31
0.0
  0
ARC
  5
4B38
  8
1外形線
 10
157.27469799572751
 20
31.004139865333631
 30
0.0
 40
1.0
 50
0.0000000000016284
 51
90.000000000001606
  0
ARC
  5
4B39
  8
1外形線
 10
124.47469799572259
 20
57.281619628594257
 30
0.0
 40
1.0
 50
0.0000000000016284
 51
89.999999999998167
  0
LINE
  5
4B3A
  8
1外形線
 10
125.47469799572259
 20
57.281619628594306
 30
0.0
 11
125.47469799572281
 21
50.481619628594331
 31
0.0
  0
LINE
  5
4B3B
  8
1外形線
 10
127.5258137020205
 20
58.79277669157338
 30
0.0
 11
126.7647476238203
 21
51.182115909575629
 31
0.0
  0
ARC
  5
4B3C
  8
1外形線
 10
125.7697104336103
 20
51.281619628596729
 30
0.0
 40
1.0
 50
269.99999999999812
 51
354.28940686249751
  0
ARC
  5
4B3D
  8
1外形線
 10
125.6746979957227
 20
50.481619628594359
 30
0.0
 40
0.2
 50
180.00000000000179
 51
270.00000000001501
  0
LINE
  5
4B3E
  8
1外形線
 10
125.67469799572279
 20
50.281619628594342
 30
0.0
 11
125.7697104336106
 21
50.281619628594342
 31
0.0
  0
ARC
  5
4B3F
  8
1外形線
 10
97.674697995721104
 20
61.777888262204982
 30
0.0
 40
30.0
 50
354.28940686249712
 51
359.99999999999773
  0
LINE
  5
4B40
  8
1外形線
 10
123.8746979957229
 20
69.281619628594171
 30
0.0
 11
125.0746979957229
 21
69.281619628594171
 31
0.0
  0
LINE
  5
4B41
  8
1外形線
 10
167.27469799572691
 20
30.004139865330501
 30
0.0
 11
167.27469799572691
 21
25.00413986533016
 31
0.0
  0
LINE
  5
4B42
  8
1外形線
 10
177.27469799572921
 20
30.00413986533027
 30
0.0
 11
177.27469799572921
 21
25.004139865329869
 31
0.0
  0
ARC
  5
4B43
  8
1外形線
 10
176.27469799572691
 20
146.7766320664781
 30
0.0
 40
1.0
 50
0.0
 51
84.289406862498794
  0
CIRCLE
  5
4B44
  8
1外形線
 10
157.2746979957289
 20
124.28161962859031
 30
0.0
 40
5.0
  0
CIRCLE
  5
4B45
  8
1外形線
 10
157.2746979957289
 20
124.28161962859031
 30
0.0
 40
2.1000000000000001
  0
CIRCLE
  5
4B46
  8
1外形線
 10
157.2746979957289
 20
124.28161962859031
 30
0.0
 40
3.6000000000000001
  0
LINE
  5
4B47
  8
1外形線
 10
165.77842936209981
 20
99.881619628590215
 30
0.0
 11
129.37469799572241
 21
99.881619628589803
 31
0.0
  0
LINE
  5
4B48
  8
1外形線
 10
123.8746979957231
 20
84.281619628594186
 30
0.0
 11
125.0746979957231
 21
84.281619628594143
 31
0.0
  0
ARC
  5
4B49
  8
1外形線
 10
129.37469799572241
 20
98.181619628589829
 30
0.0
 40
1.7
 50
90.000000000000625
 51
179.9999999999977
  0
LINE
  5
4B4A
  8
1外形線
 10
158.27469799572901
 20
102.48161962859071
 30
0.0
 11
143.27469799572901
 21
102.4816196285899
 31
0.0
  0
LINE
  5
4B4B
  8
1外形線
 10
158.2746979957289
 20
103.6816196285907
 30
0.0
 11
143.2746979957289
 21
103.6816196285899
 31
0.0
  0
LINE
  5
4B4C
  8
1外形線
 10
143.2746979957289
 20
102.4816196285899
 30
0.0
 11
143.2746979957289
 21
103.6816196285899
 31
0.0
  0
LINE
  5
4B4D
  8
1外形線
 10
158.2746979957289
 20
102.48161962859071
 30
0.0
 11
158.2746979957289
 21
103.6816196285907
 31
0.0
  0
LINE
  5
4B4E
  8
1外形線
 10
158.2746979957289
 20
144.8816196285895
 30
0.0
 11
143.2746979957289
 21
144.8816196285903
 31
0.0
  0
LINE
  5
4B4F
  8
1外形線
 10
158.27469799572901
 20
146.08161962858949
 30
0.0
 11
143.27469799572901
 21
146.08161962859029
 31
0.0
  0
LINE
  5
4B50
  8
1外形線
 10
143.2746979957289
 20
146.08161962859029
 30
0.0
 11
143.2746979957289
 21
144.8816196285903
 31
0.0
  0
LINE
  5
4B51
  8
1外形線
 10
158.2746979957289
 20
146.08161962858949
 30
0.0
 11
158.2746979957289
 21
144.8816196285895
 31
0.0
  0
LINE
  5
4B52
  8
1外形線
 10
169.27469799572921
 20
145.4816196285901
 30
0.0
 11
169.27469799572941
 21
103.0816196285905
 31
0.0
  0
ARC
  5
4B53
  8
1外形線
 10
170.27469799572941
 20
103.0816196285905
 30
0.0
 40
1.0
 50
180.0000000000002
 51
269.99999999999648
  0
LINE
  5
4B54
  8
1外形線
 10
168.76354093273011
 20
100.03050392229051
 30
0.0
 11
176.3742017147479
 21
100.7915700004925
 31
0.0
  0
ARC
  5
4B55
  8
1外形線
 10
165.77842936209939
 20
129.88161962859019
 30
0.0
 40
30.0
 50
270.00000000000063
 51
275.71059313750101
  0
LINE
  5
4B56
  8
1外形線
 10
170.27469799572941
 20
102.0816196285905
 30
0.0
 11
177.07469799572931
 21
102.0816196285901
 31
0.0
  0
LINE
  5
4B57
  8
1外形線
 10
177.27469799572921
 20
101.8816196285901
 30
0.0
 11
177.27469799572921
 21
101.7866071907022
 31
0.0
  0
ARC
  5
4B58
  8
1外形線
 10
177.07469799572931
 20
101.8816196285901
 30
0.0
 40
0.2
 50
359.99999999998329
 51
89.999999999996334
  0
ARC
  5
4B59
  8
1外形線
 10
176.27469799572691
 20
101.7866071907026
 30
0.0
 40
1.0
 50
275.71059313750072
 51
0.0
  0
LINE
  5
4B5A
  8
1外形線
 10
167.77469799572941
 20
124.78161962859009
 30
0.0
 11
162.24963518126191
 21
124.78161962859031
 31
0.0
  0
LINE
  5
4B5B
  8
1外形線
 10
167.77469799572941
 20
123.78161962859031
 30
0.0
 11
162.24963518126191
 21
123.78161962859031
 31
0.0
  0
ARC
  5
4B5C
  8
1外形線
 10
167.77469799572941
 20
124.2816196285907
 30
0.0
 40
0.4999999999999006
 50
270.0
 51
89.999999999996746
  0
ARC
  5
4B5D
  8
1外形線
 10
170.27469799572921
 20
145.4816196285901
 30
0.0
 40
1.0
 50
89.999999999998565
 51
180.0000000000004
  0
LINE
  5
4B5E
  8
1外形線
 10
170.27469799572921
 20
146.4816196285901
 30
0.0
 11
177.07469799572689
 21
146.4816196285899
 31
0.0
  0
LINE
  5
4B5F
  8
1外形線
 10
177.2746979957268
 20
146.7766320664781
 30
0.0
 11
177.2746979957268
 21
146.68161962858991
 31
0.0
  0
ARC
  5
4B60
  8
1外形線
 10
177.07469799572689
 20
146.68161962858991
 30
0.0
 40
0.2
 50
269.99999999999869
 51
0.0
  0
LINE
  5
4B61
  8
1外形線
 10
168.76354093272741
 20
148.5327353348903
 30
0.0
 11
176.3742017147479
 21
147.77166925668811
 31
0.0
  0
ARC
  5
4B62
  8
1外形線
 10
165.7784293620968
 20
118.6816196285907
 30
0.0
 40
30.0
 50
84.289406862499206
 51
90.000000000000398
  0
ENDSEC
  0
EOF
