  0
SECTION
  2
HEADER
  9
$ACADVER
  1
AC1009
  9
$INSBASE
 10
0.0
 20
0.0
 30
0.0
  9
$EXTMIN
 10
28.470561226419029
 20
40.236235860281113
 30
0.0
  9
$EXTMAX
 10
392.64550312064011
 20
163.2125368793196
 30
0.0
  9
$LIMMIN
 10
0.0
 20
0.0
  9
$LIMMAX
 10
420.0
 20
297.0
  9
$ORTHOMODE
 70
     0
  9
$REGENMODE
 70
     1
  9
$FILLMODE
 70
     1
  9
$QTEXTMODE
 70
     0
  9
$MIRRTEXT
 70
     1
  9
$DRAGMODE
 70
     2
  9
$LTSCALE
 40
1.0
  9
$OSMODE
 70
    37
  9
$ATTMODE
 70
     1
  9
$TEXTSIZE
 40
2.5
  9
$TRACEWID
 40
1.0
  9
$TEXTSTYLE
  7
STANDARD
  9
$CLAYER
  8
0
  9
$CELTYPE
  6
BYLAYER
  9
$CECOLOR
 62
   256
  9
$DIMSCALE
 40
1.0
  9
$DIMASZ
 40
2.5
  9
$DIMEXO
 40
0.625
  9
$DIMDLI
 40
3.75
  9
$DIMRND
 40
0.0
  9
$DIMDLE
 40
0.0
  9
$DIMEXE
 40
1.25
  9
$DIMTP
 40
0.0
  9
$DIMTM
 40
0.0
  9
$DIMTXT
 40
2.5
  9
$DIMCEN
 40
2.5
  9
$DIMTSZ
 40
0.0
  9
$DIMTOL
 70
     0
  9
$DIMLIM
 70
     0
  9
$DIMTIH
 70
     0
  9
$DIMTOH
 70
     0
  9
$DIMSE1
 70
     0
  9
$DIMSE2
 70
     0
  9
$DIMTAD
 70
     1
  9
$DIMZIN
 70
     8
  9
$DIMBLK
  1

  9
$DIMASO
 70
     1
  9
$DIMSHO
 70
     1
  9
$DIMPOST
  1

  9
$DIMAPOST
  1

  9
$DIMALT
 70
     0
  9
$DIMALTD
 70
     3
  9
$DIMALTF
 40
0.03937007874016
  9
$DIMLFAC
 40
1.0
  9
$DIMTOFL
 70
     1
  9
$DIMTVP
 40
0.0
  9
$DIMTIX
 70
     0
  9
$DIMSOXD
 70
     0
  9
$DIMSAH
 70
     0
  9
$DIMBLK1
  1

  9
$DIMBLK2
  1

  9
$DIMSTYLE
  2
ISO-25
  9
$DIMCLRD
 70
     0
  9
$DIMCLRE
 70
     0
  9
$DIMCLRT
 70
     0
  9
$DIMTFAC
 40
1.0
  9
$DIMGAP
 40
0.625
  9
$LUNITS
 70
     2
  9
$LUPREC
 70
     4
  9
$SKETCHINC
 40
1.0
  9
$FILLETRAD
 40
10.0
  9
$AUNITS
 70
     0
  9
$AUPREC
 70
     0
  9
$MENU
  1
.
  9
$ELEVATION
 40
0.0
  9
$PELEVATION
 40
0.0
  9
$THICKNESS
 40
0.0
  9
$LIMCHECK
 70
     0
  9
$BLIPMODE
 70
     0
  9
$CHAMFERA
 40
10.0
  9
$CHAMFERB
 40
10.0
  9
$SKPOLY
 70
     0
  9
$TDCREATE
 40
2452048.5778881712
  9
$TDUPDATE
 40
2452048.5781298368
  9
$TDINDWG
 40
0.0002421296
  9
$TDUSRTIMER
 40
0.0002420139
  9
$USRTIMER
 70
     1
  9
$ANGBASE
 50
0.0
  9
$ANGDIR
 70
     0
  9
$PDMODE
 70
     0
  9
$PDSIZE
 40
0.0
  9
$PLINEWID
 40
0.0
  9
$COORDS
 70
     1
  9
$SPLFRAME
 70
     0
  9
$SPLINETYPE
 70
     6
  9
$SPLINESEGS
 70
     8
  9
$ATTDIA
 70
     0
  9
$ATTREQ
 70
     1
  9
$HANDLING
 70
-16383
  9
$HANDSEED
  5
114
  9
$SURFTAB1
 70
     6
  9
$SURFTAB2
 70
     6
  9
$SURFTYPE
 70
     6
  9
$SURFU
 70
     6
  9
$SURFV
 70
     6
  9
$UCSNAME
  2

  9
$UCSORG
 10
0.0
 20
0.0
 30
0.0
  9
$UCSXDIR
 10
1.0
 20
0.0
 30
0.0
  9
$UCSYDIR
 10
0.0
 20
1.0
 30
0.0
  9
$PUCSNAME
  2

  9
$PUCSORG
 10
0.0
 20
0.0
 30
0.0
  9
$PUCSXDIR
 10
1.0
 20
0.0
 30
0.0
  9
$PUCSYDIR
 10
0.0
 20
1.0
 30
0.0
  9
$USERI1
 70
     0
  9
$USERI2
 70
     0
  9
$USERI3
 70
     0
  9
$USERI4
 70
     0
  9
$USERI5
 70
     0
  9
$USERR1
 40
0.0
  9
$USERR2
 40
0.0
  9
$USERR3
 40
0.0
  9
$USERR4
 40
0.0
  9
$USERR5
 40
0.0
  9
$WORLDVIEW
 70
     1
  9
$SHADEDGE
 70
     3
  9
$SHADEDIF
 70
    70
  9
$TILEMODE
 70
     1
  9
$MAXACTVP
 70
    64
  9
$PLIMCHECK
 70
     0
  9
$PEXTMIN
 10
1.0000000000000000E+020
 20
1.0000000000000000E+020
 30
1.0000000000000000E+020
  9
$PEXTMAX
 10
-1.0000000000000000E+020
 20
-1.0000000000000000E+020
 30
-1.0000000000000000E+020
  9
$PLIMMIN
 10
0.0
 20
0.0
  9
$PLIMMAX
 10
420.0
 20
297.0
  9
$UNITMODE
 70
     0
  9
$VISRETAIN
 70
     1
  9
$PLINEGEN
 70
     0
  9
$PSLTSCALE
 70
     1
  0
ENDSEC
  0
SECTION
  2
TABLES
  0
TABLE
  2
VPORT
 70
     3
  0
VPORT
  2
*ACTIVE
 70
     0
 10
0.0
 20
0.0
 11
1.0
 21
1.0
 12
248.0294117647058
 22
148.5
 13
0.0
 23
0.0
 14
10.0
 24
10.0
 15
10.0
 25
10.0
 16
0.0
 26
0.0
 36
1.0
 17
0.0
 27
0.0
 37
0.0
 40
297.0
 41
1.670231729055258
 42
50.0
 43
0.0
 44
0.0
 50
0.0
 51
0.0
 71
     0
 72
   100
 73
     1
 74
     3
 75
     0
 76
     0
 77
     0
 78
     0
  0
ENDTAB
  0
TABLE
  2
LTYPE
 70
     1
  0
LTYPE
  2
CONTINUOUS
 70
     0
  3
Solid line
 72
    65
 73
     0
 40
0.0
  0
ENDTAB
  0
TABLE
  2
LAYER
 70
     2
  0
LAYER
  2
0
 70
     0
 62
     7
  6
CONTINUOUS
  0
LAYER
  2
1外形線
 70
     0
 62
     3
  6
CONTINUOUS
  0
ENDTAB
  0
TABLE
  2
STYLE
 70
     2
  0
STYLE
  2
STANDARD
 70
     0
 40
0.0
 41
1.0
 50
0.0
 71
     0
 42
2.5
  3
txt
  4

  0
STYLE
  2
KANJI
 70
     0
 40
0.0
 41
1.0
 50
0.0
 71
     0
 42
10.0
  3
simplex
  4
bigfont
  0
ENDTAB
  0
TABLE
  2
VIEW
 70
     0
  0
ENDTAB
  0
TABLE
  2
UCS
 70
     0
  0
ENDTAB
  0
TABLE
  2
APPID
 70
     1
  0
APPID
  2
ACAD
 70
     0
  0
ENDTAB
  0
TABLE
  2
DIMSTYLE
 70
     2
  0
DIMSTYLE
  2
ISO-25
 70
     0
  3

  4

  5

  6

  7

 40
1.0
 41
2.5
 42
0.625
 43
3.75
 44
1.25
 45
0.0
 46
0.0
 47
0.0
 48
0.0
140
2.5
141
2.5
142
0.0
143
0.03937007874016
144
1.0
145
0.0
146
1.0
147
0.625
 71
     0
 72
     0
 73
     0
 74
     0
 75
     0
 76
     0
 77
     1
 78
     8
170
     0
171
     3
172
     1
173
     0
174
     0
175
     0
176
     0
177
     0
178
     0
  0
DIMSTYLE
  2
STANDARD
 70
     0
  3

  4

  5

  6
1
  7
1
 40
1.0
 41
1.0
 42
1.0
 43
6.0
 44
1.0
 45
0.0
 46
0.0
 47
0.0
 48
0.0
140
2.5
141
0.0
142
0.0
143
25.399999999999999
144
1.0
145
0.0
146
1.0
147
0.5
 71
     0
 72
     0
 73
     0
 74
     0
 75
     0
 76
     0
 77
     1
 78
     8
170
     0
171
     2
172
     1
173
     1
174
     0
175
     0
176
     0
177
     0
178
     0
  0
ENDTAB
  0
ENDSEC
  0
SECTION
  2
BLOCKS
  0
BLOCK
  8
0
  2
$MODEL_SPACE
 70
     0
 10
0.0
 20
0.0
 30
0.0
  3
$MODEL_SPACE
  1

  0
ENDBLK
  5
21
  8
0
  0
BLOCK
 67
     1
  8
0
  2
$PAPER_SPACE
 70
     0
 10
0.0
 20
0.0
 30
0.0
  3
$PAPER_SPACE
  1

  0
ENDBLK
  5
1D
 67
     1
  8
0
  0
BLOCK
  8
0
  2
1
 70
     0
 10
0.0
 20
0.0
 30
0.0
  3
1
  1

  0
SOLID
  5
2C
  8
0
  6
BYBLOCK
 62
     0
 10
-1.811110924292052
 20
0.4852857095671653
 30
0.0
 11
-1.811110924292052
 21
-0.4852857095673642
 31
0.0
 12
0.0
 22
0.0
 32
0.0
 13
0.0
 23
0.0
 33
0.0
  0
ENDBLK
  5
2E
  8
0
  0
ENDSEC
  0
SECTION
  2
ENTITIES
  0
LINE
  5
A2
  8
1外形線
 10
286.16090277564223
 20
86.227936534325224
 30
0.0
 11
306.56090277564221
 21
86.227936534324996
 31
0.0
  0
LINE
  5
A3
  8
1外形線
 10
286.16090277564263
 20
150.6279365343251
 30
0.0
 11
326.56090277564419
 21
150.6279365343251
 31
0.0
  0
LINE
  5
A4
  8
1外形線
 10
284.84846488773138
 20
154.92820916764779
 30
0.0
 11
344.36090277564551
 21
154.92820916764779
 31
0.0
  0
LINE
  5
A5
  8
1外形線
 10
269.86090277564199
 20
152.92793653432491
 30
0.0
 11
344.36090277564568
 21
152.92793653432491
 31
0.0
  0
LINE
  5
A6
  8
1外形線
 10
284.84846488773161
 20
81.92766390100212
 30
0.0
 11
309.36090277564591
 21
81.92766390100212
 31
0.0
  0
LINE
  5
A7
  8
1外形線
 10
269.86090277564199
 20
83.927936534324999
 30
0.0
 11
309.36090277564568
 21
83.927936534324999
 31
0.0
  0
LINE
  5
A8
  8
1外形線
 10
136.26759945932761
 20
154.92820916764779
 30
0.0
 11
76.755161571413623
 21
154.92820916764779
 31
0.0
  0
LINE
  5
A9
  8
1外形線
 10
38.659876500202813
 20
40.427936534323401
 30
0.0
 11
107.85044664262389
 21
40.427936534322498
 31
0.0
  0
ARC
  5
AA
  8
1外形線
 10
136.7548889380908
 20
55.415498646410917
 30
0.0
 40
100.0
 50
180.0
 51
185.71059313750061
  0
ARC
  5
AB
  8
1外形線
 10
38.659876500202813
 20
41.427936534323628
 30
0.0
 40
1.0
 50
185.71059313750061
 51
269.9999999999992
  0
LINE
  5
AC
  8
1外形線
 10
37.25116991709217
 20
45.465126744309309
 30
0.0
 11
37.664839309992772
 21
41.328432815302442
 31
0.0
  0
ARC
  5
AD
  8
1外形線
 10
76.755161571413623
 20
114.927936534325
 30
0.0
 40
40.000272633322773
 50
90.0
 51
180.0
  0
LINE
  5
AE
  8
1外形線
 10
36.754888938090851
 20
55.415498646412743
 30
0.0
 11
36.75488893809176
 21
114.9279365343257
 31
0.0
  0
LINE
  5
AF
  8
1外形線
 10
175.65452790187899
 20
40.42793653432426
 30
0.0
 11
239.7495403397669
 21
40.427936534322377
 31
0.0
  0
ARC
  5
B0
  8
1外形線
 10
209.74954033976661
 20
118.427936534325
 30
0.0
 40
34.0
 50
90.945991937339656
 51
269.05400806266027
  0
ARC
  5
B1
  8
1外形線
 10
209.74954033976661
 20
118.427936534325
 30
0.0
 40
36.0
 50
90.945991937339656
 51
269.05400806266027
  0
ARC
  5
B2
  8
1外形線
 10
273.74954033976712
 20
55.415498646412679
 30
0.0
 40
100.0
 50
180.0
 51
185.71059313750061
  0
ARC
  5
B3
  8
1外形線
 10
9.7554342047365026
 20
55.41549864641172
 30
0.0
 40
100.0
 50
354.28940686249609
 51
0.0
  0
LINE
  5
B4
  8
1外形線
 10
109.25915322573481
 20
45.465126744306751
 30
0.0
 11
108.84548383283401
 21
41.328432815301312
 31
0.0
  0
ARC
  5
B5
  8
1外形線
 10
107.85044664262389
 20
41.427936534322491
 30
0.0
 40
1.0
 50
269.9999999999992
 51
354.28940686249939
  0
ARC
  5
B6
  8
1外形線
 10
175.65452790187899
 20
41.427936534324431
 30
0.0
 40
1.0
 50
185.71059313750061
 51
270.0
  0
LINE
  5
B7
  8
1外形線
 10
174.24582131876841
 20
45.465126744311299
 30
0.0
 11
174.65949071166901
 21
41.328432815303358
 31
0.0
  0
LINE
  5
B8
  8
1外形線
 10
146.2179713614301
 20
154.43192818864651
 30
0.0
 11
150.35466529043791
 21
154.0182587957456
 31
0.0
  0
LINE
  5
B9
  8
1外形線
 10
146.21797136142851
 20
82.423944880003376
 30
0.0
 11
150.35466529043791
 21
82.837614272904375
 31
0.0
  0
LINE
  5
BA
  8
1外形線
 10
136.26759945932699
 20
81.92766390100212
 30
0.0
 11
111.7551615714131
 21
81.92766390100212
 31
0.0
  0
LINE
  5
BB
  8
1外形線
 10
109.7554342047363
 20
55.415498646410072
 30
0.0
 11
109.7554342047368
 21
79.927936534325113
 31
0.0
  0
ARC
  5
BC
  8
1外形線
 10
111.7551615714131
 20
79.927936534325056
 30
0.0
 40
1.9997273666774611
 50
90.0
 51
180.0
  0
ARC
  5
BD
  8
1外形線
 10
136.26759945932699
 20
181.92766390100209
 30
0.0
 40
100.0
 50
270.0
 51
275.71059313750061
  0
ARC
  5
BE
  8
1外形線
 10
136.26759945932761
 20
54.928209167647879
 30
0.0
 40
100.0
 50
84.289406862498979
 51
90.0
  0
LINE
  5
BF
  8
1外形線
 10
173.7495403397669
 20
118.4279365343245
 30
0.0
 11
173.74954033976709
 21
55.415498646412679
 31
0.0
  0
LINE
  5
C0
  8
1外形線
 10
151.25516157141701
 20
153.0232216055355
 30
0.0
 11
151.25516157141681
 21
83.832651463114416
 31
0.0
  0
ARC
  5
C1
  8
1外形線
 10
150.25516157141681
 20
83.832651463114416
 30
0.0
 40
1.0
 50
275.71059313750101
 51
0.0
  0
ARC
  5
C2
  8
1外形線
 10
150.25516157141681
 20
153.0232216055355
 30
0.0
 40
1.0
 50
0.0
 51
84.289406862498979
  0
LINE
  5
C3
  8
1外形線
 10
239.74954033976661
 20
154.92820916764779
 30
0.0
 11
239.74954033976661
 21
40.427936534322328
 31
0.0
  0
LINE
  5
C4
  8
1外形線
 10
237.24954033976721
 20
139.42793653432469
 30
0.0
 11
237.2495403397669
 21
97.427936534325454
 31
0.0
  0
LINE
  5
C5
  8
1外形線
 10
235.24954033976681
 20
137.92793653432469
 30
0.0
 11
235.2495403397669
 21
98.927936534325454
 31
0.0
  0
LINE
  5
C6
  8
1外形線
 10
239.7495403397669
 20
83.927936534324999
 30
0.0
 11
209.18820292809539
 21
84.432570669103598
 31
0.0
  0
LINE
  5
C7
  8
1外形線
 10
239.74954033976661
 20
81.92766390100212
 30
0.0
 11
209.1551830803501
 21
82.432843265266953
 31
0.0
  0
LINE
  5
C8
  8
1外形線
 10
233.74954033976701
 20
87.727936534325053
 30
0.0
 11
231.2495403397657
 21
87.727936534325053
 31
0.0
  0
ARC
  5
C9
  8
1外形線
 10
231.2495403397657
 20
86.727936534325011
 30
0.0
 40
1.0
 50
90.0
 51
214.40340174384229
  0
LINE
  5
CA
  8
1外形線
 10
231.86583530781269
 20
84.058113647128025
 30
0.0
 11
230.42446038595369
 21
86.162920543562223
 31
0.0
  0
LINE
  5
CB
  8
1外形線
 10
233.7495403397669
 20
97.427936534325454
 30
0.0
 11
237.2495403397669
 21
97.427936534325454
 31
0.0
  0
LINE
  5
CC
  8
1外形線
 10
233.74954033976701
 20
98.927936534325454
 30
0.0
 11
235.24954033976701
 21
98.927936534325454
 31
0.0
  0
LINE
  5
CD
  8
1外形線
 10
233.74954033976701
 20
98.927936534325454
 30
0.0
 11
233.74954033976701
 21
87.727936534325053
 31
0.0
  0
LINE
  5
CE
  8
1外形線
 10
239.74954033976661
 20
154.92820916764779
 30
0.0
 11
209.1551830803501
 21
154.42302980338289
 31
0.0
  0
LINE
  5
CF
  8
1外形線
 10
239.7495403397669
 20
152.92793653432491
 30
0.0
 11
209.18820292809539
 21
152.4233023995464
 31
0.0
  0
LINE
  5
D0
  8
1外形線
 10
233.74954033976701
 20
149.12793653432499
 30
0.0
 11
231.2495403397657
 21
149.12793653432499
 31
0.0
  0
ARC
  5
D1
  8
1外形線
 10
231.2495403397657
 20
150.1279365343251
 30
0.0
 40
1.0
 50
145.59659825615759
 51
270.0
  0
LINE
  5
D2
  8
1外形線
 10
231.8658353078126
 20
152.7977594215219
 30
0.0
 11
230.42446038595369
 21
150.6929525250878
 31
0.0
  0
LINE
  5
D3
  8
1外形線
 10
233.7495403397669
 20
139.42793653432469
 30
0.0
 11
237.2495403397669
 21
139.42793653432469
 31
0.0
  0
LINE
  5
D4
  8
1外形線
 10
233.74954033976701
 20
137.92793653432469
 30
0.0
 11
235.24954033976681
 21
137.92793653432469
 31
0.0
  0
LINE
  5
D5
  8
1外形線
 10
233.74954033976701
 20
137.9279365343246
 30
0.0
 11
233.74954033976701
 21
149.12793653432499
 31
0.0
  0
LINE
  5
D6
  8
1外形線
 10
284.86090277564261
 20
152.82793653432489
 30
0.0
 11
284.8609027756425
 21
83.927936534325056
 31
0.0
  0
LINE
  5
D7
  8
1外形線
 10
269.86090277564261
 20
138.4279365343242
 30
0.0
 11
269.86090277564261
 21
98.427936534325738
 31
0.0
  0
LINE
  5
D8
  8
1外形線
 10
269.86090277564199
 20
153.0232216055355
 30
0.0
 11
269.86090277564227
 21
83.832651463114416
 31
0.0
  0
ARC
  5
D9
  8
1外形線
 10
270.86090277564227
 20
83.832651463114416
 30
0.0
 40
1.0
 50
180.0
 51
264.28940686249888
  0
LINE
  5
DA
  8
1外形線
 10
274.89809298562909
 20
82.423944880003432
 30
0.0
 11
270.76139905662109
 21
82.837614272904375
 31
0.0
  0
ARC
  5
DB
  8
1外形線
 10
284.84846488773161
 20
181.92766390100209
 30
0.0
 40
100.0
 50
264.28940686249888
 51
270.0
  0
LINE
  5
DC
  8
1外形線
 10
284.8609027756425
 20
97.427936534325397
 30
0.0
 11
270.86090277564261
 21
97.427936534325283
 31
0.0
  0
ARC
  5
DD
  8
1外形線
 10
270.86090277564261
 20
98.427936534325738
 30
0.0
 40
1.0
 50
180.0
 51
270.0
  0
LINE
  5
DE
  8
1外形線
 10
286.16090277564223
 20
84.027936534325192
 30
0.0
 11
286.16090277564223
 21
86.227936534325224
 31
0.0
  0
ARC
  5
DF
  8
1外形線
 10
270.86090277564227
 20
153.0232216055355
 30
0.0
 40
1.0
 50
95.710593137501007
 51
180.0
  0
LINE
  5
E0
  8
1外形線
 10
284.8609027756425
 20
139.4279365343246
 30
0.0
 11
270.86090277564261
 21
139.42793653432469
 31
0.0
  0
ARC
  5
E1
  8
1外形線
 10
270.86090277564261
 20
138.4279365343242
 30
0.0
 40
1.0
 50
90.0
 51
180.0
  0
LINE
  5
E2
  8
1外形線
 10
286.16090277564263
 20
152.82793653432489
 30
0.0
 11
286.16090277564263
 21
150.6279365343251
 31
0.0
  0
ARC
  5
E3
  8
1外形線
 10
284.84846488773138
 20
54.928209167647879
 30
0.0
 40
100.0
 50
90.0
 51
95.710593137501007
  0
LINE
  5
E4
  8
1外形線
 10
274.89809298562892
 20
154.43192818864651
 30
0.0
 11
270.76139905662109
 21
154.0182587957456
 31
0.0
  0
ARC
  5
E5
  8
1外形線
 10
344.36090277564551
 20
114.927936534325
 30
0.0
 40
38.0
 50
0.0
 51
89.999999999999588
  0
ARC
  5
E6
  8
1外形線
 10
344.36090277564551
 20
114.927936534325
 30
0.0
 40
40.000272633322773
 50
0.0
 51
90.0
  0
ARC
  5
E7
  8
1外形線
 10
284.36117540896868
 20
55.415498646409453
 30
0.0
 40
100.0
 50
354.28940686249939
 51
0.0
  0
LINE
  5
E8
  8
1外形線
 10
382.36090277564568
 20
40.427936534323401
 30
0.0
 11
382.3609027756446
 21
114.927936534325
 31
0.0
  0
ARC
  5
E9
  8
1外形線
 10
411.36063014232269
 20
55.415498646410299
 30
0.0
 40
100.0
 50
180.0
 51
185.71059313750379
  0
LINE
  5
EA
  8
1外形線
 10
313.36090277564568
 20
40.427936534322271
 30
0.0
 11
313.360902775645
 21
79.927936534324985
 31
0.0
  0
LINE
  5
EB
  8
1外形線
 10
382.45618784685632
 20
40.427936534323401
 30
0.0
 11
313.2656177044351
 21
40.427936534322498
 31
0.0
  0
ARC
  5
EC
  8
1外形線
 10
313.2656177044351
 20
41.427936534322491
 30
0.0
 40
1.0
 50
185.71059313750061
 51
270.0000000000008
  0
LINE
  5
ED
  8
1外形線
 10
311.85691112132417
 20
45.46512674430533
 30
0.0
 11
312.27058051422512
 21
41.328432815301312
 31
0.0
  0
ARC
  5
EE
  8
1外形線
 10
382.45618784685632
 20
41.427936534323628
 30
0.0
 40
1.0
 50
270.0000000000008
 51
354.28940686249939
  0
LINE
  5
EF
  8
1外形線
 10
383.86489442996742
 20
45.465126744307888
 30
0.0
 11
383.45122503706631
 21
41.328432815302442
 31
0.0
  0
LINE
  5
F0
  8
1外形線
 10
313.46090277564548
 20
56.727936534322282
 30
0.0
 11
315.66090277564552
 21
56.727936534322282
 31
0.0
  0
LINE
  5
F1
  8
1外形線
 10
315.66090277564467
 20
77.127936534322203
 30
0.0
 11
313.4609027756448
 21
77.127936534322146
 31
0.0
  0
ARC
  5
F2
  8
1外形線
 10
309.36090277564591
 20
79.927936534325056
 30
0.0
 40
4.0
 50
0.0
 51
90.000000000003254
  0
LINE
  5
F3
  8
1外形線
 10
311.36063014232269
 20
55.415498646408651
 30
0.0
 11
311.36063014232229
 21
79.927936534325113
 31
0.0
  0
ARC
  5
F4
  8
1外形線
 10
309.36090277564591
 20
79.927936534325056
 30
0.0
 40
1.9997273666774611
 50
0.0
 51
90.0
  0
LINE
  5
F5
  8
1外形線
 10
299.46090277564372
 20
100.5279365343273
 30
0.0
 11
304.26090277564361
 21
100.5279365343273
 31
0.0
  0
LINE
  5
F6
  8
1外形線
 10
299.46090277564372
 20
96.327936534327421
 30
0.0
 11
304.26090277564361
 21
96.327936534327364
 31
0.0
  0
ARC
  5
F7
  8
1外形線
 10
299.46090277564372
 20
98.427936534327571
 30
0.0
 40
2.0999999999999992
 50
90.0
 51
270.0
  0
ARC
  5
F8
  8
1外形線
 10
304.26090277564361
 20
98.427936534327571
 30
0.0
 40
2.0999999999999992
 50
270.0
 51
90.0
  0
LINE
  5
F9
  8
1外形線
 10
306.56090277564221
 20
86.227936534324783
 30
0.0
 11
306.56090277564209
 21
84.027936534324851
 31
0.0
  0
ARC
  5
FA
  8
1外形線
 10
327.86090277564767
 20
70.027936534324056
 30
0.0
 40
2.0999999999999992
 50
180.0
 51
0.0
  0
ARC
  5
FB
  8
1外形線
 10
327.86090277564767
 20
74.82793653432401
 30
0.0
 40
2.0999999999999992
 50
0.0
 51
180.0
  0
LINE
  5
FC
  8
1外形線
 10
315.66090277564552
 20
56.727936534322282
 30
0.0
 11
315.66090277564501
 21
77.127936534322203
 31
0.0
  0
LINE
  5
FD
  8
1外形線
 10
325.76090277564759
 20
70.027936534323999
 30
0.0
 11
325.76090277564748
 21
74.827936534323953
 31
0.0
  0
LINE
  5
FE
  8
1外形線
 10
329.96090277564758
 20
70.027936534324112
 30
0.0
 11
329.96090277564753
 21
74.827936534324067
 31
0.0
  0
LINE
  5
FF
  8
1外形線
 10
299.46090277564372
 20
140.52793653432261
 30
0.0
 11
304.26090277564361
 21
140.52793653432269
 31
0.0
  0
LINE
  5
100
  8
1外形線
 10
299.46090277564372
 20
136.3279365343227
 30
0.0
 11
304.26090277564361
 21
136.3279365343227
 31
0.0
  0
ARC
  5
101
  8
1外形線
 10
299.46090277564372
 20
138.4279365343225
 30
0.0
 40
2.0999999999999992
 50
90.0
 51
270.0
  0
ARC
  5
102
  8
1外形線
 10
304.26090277564361
 20
138.4279365343225
 30
0.0
 40
2.0999999999999992
 50
270.0
 51
90.0
  0
LINE
  5
103
  8
1外形線
 10
326.56090277564419
 20
150.62793653432519
 30
0.0
 11
326.56090277564419
 21
152.8279365343252
 31
0.0
  0
CIRCLE
  5
104
  8
1外形線
 10
347.86090277564432
 20
118.4279365343249
 30
0.0
 40
2.1000000000000001
  0
LINE
  5
105
  8
1外形線
 10
380.06090277564562
 20
56.727936534323703
 30
0.0
 11
380.06090277564499
 21
97.127936534325272
 31
0.0
  0
LINE
  5
106
  8
1外形線
 10
384.36117540896868
 20
55.415498646411322
 30
0.0
 11
384.36117540896731
 21
114.9279365343257
 31
0.0
  0
ARC
  5
107
  8
1外形線
 10
367.86090277564278
 20
70.027936534324681
 30
0.0
 40
2.0999999999999992
 50
180.0
 51
0.0
  0
ARC
  5
108
  8
1外形線
 10
367.86090277564273
 20
74.827936534324635
 30
0.0
 40
2.0999999999999992
 50
0.0
 51
180.0
  0
LINE
  5
109
  8
1外形線
 10
365.76090277564288
 20
70.027936534324681
 30
0.0
 11
365.76090277564288
 21
74.827936534324635
 31
0.0
  0
LINE
  5
10A
  8
1外形線
 10
369.96090277564292
 20
70.027936534324724
 30
0.0
 11
369.96090277564292
 21
74.827936534324692
 31
0.0
  0
LINE
  5
10B
  8
1外形線
 10
382.26090277564538
 20
56.72793653432376
 30
0.0
 11
380.06090277564562
 21
56.727936534323703
 31
0.0
  0
LINE
  5
10C
  8
1外形線
 10
380.06090277564499
 20
97.127936534325272
 30
0.0
 11
382.26090277564498
 21
97.127936534325272
 31
0.0
  0
ENDSEC
  0
EOF
