  0
SECTION
  2
HEADER
  9
$ACADVER
  1
AC1009
  9
$INSBASE
 10
0.0
 20
0.0
 30
0.0
  9
$EXTMIN
 10
42.132934498405518
 20
46.675082756279771
 30
0.0
  9
$EXTMAX
 10
326.89282274575879
 20
231.63629934456009
 30
0.0
  9
$LIMMIN
 10
0.0
 20
0.0
  9
$LIMMAX
 10
420.0
 20
297.0
  9
$ORTHOMODE
 70
     0
  9
$REGENMODE
 70
     1
  9
$FILLMODE
 70
     1
  9
$QTEXTMODE
 70
     0
  9
$MIRRTEXT
 70
     1
  9
$DRAGMODE
 70
     2
  9
$LTSCALE
 40
1.0
  9
$OSMODE
 70
    37
  9
$ATTMODE
 70
     1
  9
$TEXTSIZE
 40
2.5
  9
$TRACEWID
 40
1.0
  9
$TEXTSTYLE
  7
STANDARD
  9
$CLAYER
  8
0
  9
$CELTYPE
  6
BYLAYER
  9
$CECOLOR
 62
   256
  9
$DIMSCALE
 40
1.0
  9
$DIMASZ
 40
2.5
  9
$DIMEXO
 40
0.625
  9
$DIMDLI
 40
3.75
  9
$DIMRND
 40
0.0
  9
$DIMDLE
 40
0.0
  9
$DIMEXE
 40
1.25
  9
$DIMTP
 40
0.0
  9
$DIMTM
 40
0.0
  9
$DIMTXT
 40
2.5
  9
$DIMCEN
 40
2.5
  9
$DIMTSZ
 40
0.0
  9
$DIMTOL
 70
     0
  9
$DIMLIM
 70
     0
  9
$DIMTIH
 70
     0
  9
$DIMTOH
 70
     0
  9
$DIMSE1
 70
     0
  9
$DIMSE2
 70
     0
  9
$DIMTAD
 70
     1
  9
$DIMZIN
 70
     8
  9
$DIMBLK
  1

  9
$DIMASO
 70
     1
  9
$DIMSHO
 70
     1
  9
$DIMPOST
  1

  9
$DIMAPOST
  1

  9
$DIMALT
 70
     0
  9
$DIMALTD
 70
     3
  9
$DIMALTF
 40
0.03937007874016
  9
$DIMLFAC
 40
1.0
  9
$DIMTOFL
 70
     1
  9
$DIMTVP
 40
0.0
  9
$DIMTIX
 70
     0
  9
$DIMSOXD
 70
     0
  9
$DIMSAH
 70
     0
  9
$DIMBLK1
  1

  9
$DIMBLK2
  1

  9
$DIMSTYLE
  2
ISO-25
  9
$DIMCLRD
 70
     0
  9
$DIMCLRE
 70
     0
  9
$DIMCLRT
 70
     0
  9
$DIMTFAC
 40
1.0
  9
$DIMGAP
 40
0.625
  9
$LUNITS
 70
     2
  9
$LUPREC
 70
     4
  9
$SKETCHINC
 40
1.0
  9
$FILLETRAD
 40
10.0
  9
$AUNITS
 70
     0
  9
$AUPREC
 70
     0
  9
$MENU
  1
.
  9
$ELEVATION
 40
0.0
  9
$PELEVATION
 40
0.0
  9
$THICKNESS
 40
0.0
  9
$LIMCHECK
 70
     0
  9
$BLIPMODE
 70
     0
  9
$CHAMFERA
 40
10.0
  9
$CHAMFERB
 40
10.0
  9
$SKPOLY
 70
     0
  9
$TDCREATE
 40
2452451.5927024069
  9
$TDUPDATE
 40
2452451.593056852
  9
$TDINDWG
 40
0.0003546759
  9
$TDUSRTIMER
 40
0.0003546759
  9
$USRTIMER
 70
     1
  9
$ANGBASE
 50
0.0
  9
$ANGDIR
 70
     0
  9
$PDMODE
 70
     0
  9
$PDSIZE
 40
0.0
  9
$PLINEWID
 40
0.0
  9
$COORDS
 70
     1
  9
$SPLFRAME
 70
     0
  9
$SPLINETYPE
 70
     6
  9
$SPLINESEGS
 70
     8
  9
$ATTDIA
 70
     0
  9
$ATTREQ
 70
     1
  9
$HANDLING
 70
-16383
  9
$HANDSEED
  5
252
  9
$SURFTAB1
 70
     6
  9
$SURFTAB2
 70
     6
  9
$SURFTYPE
 70
     6
  9
$SURFU
 70
     6
  9
$SURFV
 70
     6
  9
$UCSNAME
  2

  9
$UCSORG
 10
0.0
 20
0.0
 30
0.0
  9
$UCSXDIR
 10
1.0
 20
0.0
 30
0.0
  9
$UCSYDIR
 10
0.0
 20
1.0
 30
0.0
  9
$PUCSNAME
  2

  9
$PUCSORG
 10
0.0
 20
0.0
 30
0.0
  9
$PUCSXDIR
 10
1.0
 20
0.0
 30
0.0
  9
$PUCSYDIR
 10
0.0
 20
1.0
 30
0.0
  9
$USERI1
 70
     0
  9
$USERI2
 70
     0
  9
$USERI3
 70
     0
  9
$USERI4
 70
     0
  9
$USERI5
 70
     0
  9
$USERR1
 40
0.0
  9
$USERR2
 40
0.0
  9
$USERR3
 40
0.0
  9
$USERR4
 40
0.0
  9
$USERR5
 40
0.0
  9
$WORLDVIEW
 70
     1
  9
$SHADEDGE
 70
     3
  9
$SHADEDIF
 70
    70
  9
$TILEMODE
 70
     1
  9
$MAXACTVP
 70
    64
  9
$PLIMCHECK
 70
     0
  9
$PEXTMIN
 10
1.0000000000000000E+020
 20
1.0000000000000000E+020
 30
1.0000000000000000E+020
  9
$PEXTMAX
 10
-1.0000000000000000E+020
 20
-1.0000000000000000E+020
 30
-1.0000000000000000E+020
  9
$PLIMMIN
 10
0.0
 20
0.0
  9
$PLIMMAX
 10
420.0
 20
297.0
  9
$UNITMODE
 70
     0
  9
$VISRETAIN
 70
     1
  9
$PLINEGEN
 70
     0
  9
$PSLTSCALE
 70
     1
  0
ENDSEC
  0
SECTION
  2
TABLES
  0
TABLE
  2
VPORT
 70
     3
  0
VPORT
  2
*ACTIVE
 70
     0
 10
0.0
 20
0.0
 11
1.0
 21
1.0
 12
209.99999999999989
 22
159.7959183673469
 13
0.0
 23
0.0
 14
10.0
 24
10.0
 15
10.0
 25
10.0
 16
0.0
 26
0.0
 36
1.0
 17
0.0
 27
0.0
 37
0.0
 40
319.5918367346938
 41
1.3141762452107271
 42
50.0
 43
0.0
 44
0.0
 50
0.0
 51
0.0
 71
     0
 72
   100
 73
     1
 74
     3
 75
     0
 76
     0
 77
     0
 78
     0
  0
ENDTAB
  0
TABLE
  2
LTYPE
 70
     1
  0
LTYPE
  2
CONTINUOUS
 70
     0
  3
Solid line
 72
    65
 73
     0
 40
0.0
  0
ENDTAB
  0
TABLE
  2
LAYER
 70
     2
  0
LAYER
  2
0
 70
     0
 62
     7
  6
CONTINUOUS
  0
LAYER
  2
1外形線
 70
     0
 62
     3
  6
CONTINUOUS
  0
ENDTAB
  0
TABLE
  2
STYLE
 70
     2
  0
STYLE
  2
STANDARD
 70
     0
 40
0.0
 41
1.0
 50
0.0
 71
     0
 42
2.5
  3
txt
  4

  0
STYLE
  2
KANJI
 70
     0
 40
0.0
 41
1.0
 50
0.0
 71
     0
 42
8.0
  3
simplex
  4
bigfont
  0
ENDTAB
  0
TABLE
  2
VIEW
 70
     0
  0
ENDTAB
  0
TABLE
  2
UCS
 70
     0
  0
ENDTAB
  0
TABLE
  2
APPID
 70
     1
  0
APPID
  2
ACAD
 70
     0
  0
ENDTAB
  0
TABLE
  2
DIMSTYLE
 70
     2
  0
DIMSTYLE
  2
ISO-25
 70
     0
  3

  4

  5

  6

  7

 40
1.0
 41
2.5
 42
0.625
 43
3.75
 44
1.25
 45
0.0
 46
0.0
 47
0.0
 48
0.0
140
2.5
141
2.5
142
0.0
143
0.03937007874016
144
1.0
145
0.0
146
1.0
147
0.625
 71
     0
 72
     0
 73
     0
 74
     0
 75
     0
 76
     0
 77
     1
 78
     8
170
     0
171
     3
172
     1
173
     0
174
     0
175
     0
176
     0
177
     0
178
     0
  0
DIMSTYLE
  2
STANDARD
 70
     0
  3

  4

  5

  6
1
  7
1
 40
1.0
 41
1.0
 42
1.0
 43
6.0
 44
1.0
 45
0.0
 46
0.0
 47
0.0
 48
0.0
140
2.5
141
0.0
142
0.0
143
25.399999999999999
144
1.0
145
0.0
146
1.0
147
0.5
 71
     0
 72
     0
 73
     0
 74
     0
 75
     0
 76
     0
 77
     1
 78
     8
170
     0
171
     2
172
     1
173
     1
174
     0
175
     0
176
     0
177
     0
178
     0
  0
ENDTAB
  0
ENDSEC
  0
SECTION
  2
BLOCKS
  0
BLOCK
  8
0
  2
$MODEL_SPACE
 70
     0
 10
0.0
 20
0.0
 30
0.0
  3
$MODEL_SPACE
  1

  0
ENDBLK
  5
21
  8
0
  0
BLOCK
 67
     1
  8
0
  2
$PAPER_SPACE
 70
     0
 10
0.0
 20
0.0
 30
0.0
  3
$PAPER_SPACE
  1

  0
ENDBLK
  5
1D
 67
     1
  8
0
  0
BLOCK
  8
0
  2
1
 70
     0
 10
0.0
 20
0.0
 30
0.0
  3
1
  1

  0
SOLID
  5
2C
  8
0
  6
BYBLOCK
 62
     0
 10
-1.811110924292052
 20
0.4852857095671653
 30
0.0
 11
-1.811110924292052
 21
-0.4852857095673642
 31
0.0
 12
0.0
 22
0.0
 32
0.0
 13
0.0
 23
0.0
 33
0.0
  0
ENDBLK
  5
2E
  8
0
  0
ENDSEC
  0
SECTION
  2
ENTITIES
  0
LINE
  5
BF
  8
1外形線
 10
273.77155944689332
 20
198.0100196849163
 30
0.0
 11
270.3774468971979
 21
201.40413223461181
 31
0.0
  0
LINE
  5
C0
  8
1外形線
 10
276.74140792787648
 20
200.97986816589949
 30
0.0
 11
273.34729537818163
 21
204.37398071559511
 31
0.0
  0
ARC
  5
C1
  8
1外形線
 10
275.25648368738479
 20
199.49494392540771
 30
0.0
 40
2.0999999999999992
 50
224.9999999999971
 51
44.999999999997122
  0
LINE
  5
C2
  8
1外形線
  6
CONTINUOUS
 10
274.97364097491061
 20
217.4554561675462
 30
0.0
 11
268.60967994423169
 21
223.8194171982253
 31
0.0
  0
LINE
  5
C3
  8
1外形線
 10
274.68727152344201
 20
231.3112223398135
 30
0.0
 11
243.4402052729796
 21
200.06415608934961
 31
0.0
  0
LINE
  5
C4
  8
1外形線
 10
249.8695912598092
 20
190.94071085602911
 30
0.0
 11
276.19725205059183
 21
164.61305006524691
 31
0.0
  0
LINE
  5
C5
  8
1外形線
 10
281.69115539618281
 20
224.17297058881891
 30
0.0
 11
250.5784570239758
 21
193.06027221661071
 31
0.0
  0
LINE
  5
C6
  8
1外形線
 10
243.50738921210689
 20
200.1313400284769
 30
0.0
 11
277.61146561296471
 21
166.0272636276203
 31
0.0
  0
LINE
  5
C7
  8
1外形線
 10
203.90222237895921
 20
223.88007737000279
 30
0.0
 11
203.90222237895941
 21
200.1313400284769
 31
0.0
  0
LINE
  5
C8
  8
1外形線
 10
202.90222237895941
 20
207.36649253994989
 30
0.0
 11
202.90222237895941
 21
223.72760681095781
 31
0.0
  0
LINE
  5
C9
  8
1外形線
 10
197.1135472443633
 20
222.52401886008411
 30
0.0
 11
197.1135472443635
 21
206.13464088737291
 31
0.0
  0
LINE
  5
CA
  8
1外形線
 10
201.40222237895941
 20
223.5265239794094
 30
0.0
 11
201.40222237895941
 21
207.90951462152481
 31
0.0
  0
LINE
  5
CB
  8
1外形線
 10
200.4022223789587
 20
224.1729705888159
 30
0.0
 11
200.4022223789589
 21
214.98058243339011
 31
0.0
  0
LINE
  5
CC
  8
1外形線
  6
CONTINUOUS
 10
206.4022223789608
 20
231.24403840068601
 30
0.0
 11
206.402222378961
 21
114.9683891245748
 31
0.0
  0
POLYLINE
  5
CD
  8
1外形線
 10
167.31326440828326
 20
224.24372975511025
 30
0.0
 66
     1
 70
     8
  0
VERTEX
  8
1
  5
14E
 10
167.313
 20
224.244
 30
0.000000
  70
    32
  0
VERTEX
  8
1
  5
14F
 10
167.088
 20
224.026
 30
0.000000
  70
    32
  0
VERTEX
  8
1
  5
150
 10
166.868
 20
223.806
 30
0.000000
  70
    32
  0
VERTEX
  8
1
  5
151
 10
166.653
 20
223.584
 30
0.000000
  70
    32
  0
VERTEX
  8
1
  5
152
 10
166.443
 20
223.358
 30
0.000000
  70
    32
  0
VERTEX
  8
1
  5
153
 10
166.240
 20
223.131
 30
0.000000
  70
    32
  0
VERTEX
  8
1
  5
154
 10
166.041
 20
222.900
 30
0.000000
  70
    32
  0
VERTEX
  8
1
  5
155
 10
165.849
 20
222.668
 30
0.000000
  70
    32
  0
VERTEX
  8
1
  5
156
 10
165.662
 20
222.433
 30
0.000000
  70
    32
  0
VERTEX
  8
1
  5
157
 10
165.481
 20
222.196
 30
0.000000
  70
    32
  0
VERTEX
  8
1
  5
158
 10
165.305
 20
221.957
 30
0.000000
  70
    32
  0
VERTEX
  8
1
  5
159
 10
165.136
 20
221.715
 30
0.000000
  70
    32
  0
VERTEX
  8
1
  5
15A
 10
164.972
 20
221.472
 30
0.000000
  70
    32
  0
VERTEX
  8
1
  5
15B
 10
164.814
 20
221.227
 30
0.000000
  70
    32
  0
VERTEX
  8
1
  5
15C
 10
164.663
 20
220.980
 30
0.000000
  70
    32
  0
VERTEX
  8
1
  5
15D
 10
164.517
 20
220.731
 30
0.000000
  70
    32
  0
VERTEX
  8
1
  5
15E
 10
164.378
 20
220.480
 30
0.000000
  70
    32
  0
VERTEX
  8
1
  5
15F
 10
164.244
 20
220.228
 30
0.000000
  70
    32
  0
VERTEX
  8
1
  5
160
 10
164.117
 20
219.974
 30
0.000000
  70
    32
  0
VERTEX
  8
1
  5
161
 10
163.996
 20
219.719
 30
0.000000
  70
    32
  0
VERTEX
  8
1
  5
162
 10
163.881
 20
219.462
 30
0.000000
  70
    32
  0
VERTEX
  8
1
  5
163
 10
163.773
 20
219.204
 30
0.000000
  70
    32
  0
VERTEX
  8
1
  5
164
 10
163.671
 20
218.944
 30
0.000000
  70
    32
  0
VERTEX
  8
1
  5
165
 10
163.575
 20
218.684
 30
0.000000
  70
    32
  0
VERTEX
  8
1
  5
166
 10
163.485
 20
218.422
 30
0.000000
  70
    32
  0
VERTEX
  8
1
  5
167
 10
163.402
 20
218.159
 30
0.000000
  70
    32
  0
VERTEX
  8
1
  5
168
 10
163.326
 20
217.896
 30
0.000000
  70
    32
  0
VERTEX
  8
1
  5
169
 10
163.256
 20
217.631
 30
0.000000
  70
    32
  0
VERTEX
  8
1
  5
16A
 10
163.192
 20
217.366
 30
0.000000
  70
    32
  0
VERTEX
  8
1
  5
16B
 10
163.135
 20
217.100
 30
0.000000
  70
    32
  0
VERTEX
  8
1
  5
16C
 10
163.084
 20
216.833
 30
0.000000
  70
    32
  0
VERTEX
  8
1
  5
16D
 10
163.040
 20
216.566
 30
0.000000
  70
    32
  0
VERTEX
  8
1
  5
16E
 10
163.002
 20
216.299
 30
0.000000
  70
    32
  0
VERTEX
  8
1
  5
16F
 10
162.971
 20
216.030
 30
0.000000
  70
    32
  0
VERTEX
  8
1
  5
170
 10
162.946
 20
215.762
 30
0.000000
  70
    32
  0
VERTEX
  8
1
  5
171
 10
162.928
 20
215.493
 30
0.000000
  70
    32
  0
VERTEX
  8
1
  5
172
 10
162.917
 20
215.225
 30
0.000000
  70
    32
  0
VERTEX
  8
1
  5
173
 10
162.912
 20
214.956
 30
0.000000
  70
    32
  0
VERTEX
  8
1
  5
174
 10
162.914
 20
214.687
 30
0.000000
  70
    32
  0
VERTEX
  8
1
  5
175
 10
162.922
 20
214.418
 30
0.000000
  70
    32
  0
VERTEX
  8
1
  5
176
 10
162.937
 20
214.150
 30
0.000000
  70
    32
  0
VERTEX
  8
1
  5
177
 10
162.958
 20
213.881
 30
0.000000
  70
    32
  0
VERTEX
  8
1
  5
178
 10
162.986
 20
213.613
 30
0.000000
  70
    32
  0
VERTEX
  8
1
  5
179
 10
163.021
 20
213.346
 30
0.000000
  70
    32
  0
VERTEX
  8
1
  5
17A
 10
163.062
 20
213.079
 30
0.000000
  70
    32
  0
VERTEX
  8
1
  5
17B
 10
163.109
 20
212.812
 30
0.000000
  70
    32
  0
VERTEX
  8
1
  5
17C
 10
163.163
 20
212.546
 30
0.000000
  70
    32
  0
VERTEX
  8
1
  5
17D
 10
163.224
 20
212.281
 30
0.000000
  70
    32
  0
VERTEX
  8
1
  5
17E
 10
163.291
 20
212.017
 30
0.000000
  70
    32
  0
VERTEX
  8
1
  5
17F
 10
163.364
 20
211.753
 30
0.000000
  70
    32
  0
VERTEX
  8
1
  5
180
 10
163.444
 20
211.491
 30
0.000000
  70
    32
  0
VERTEX
  8
1
  5
181
 10
163.531
 20
211.229
 30
0.000000
  70
    32
  0
VERTEX
  8
1
  5
182
 10
163.623
 20
210.969
 30
0.000000
  70
    32
  0
VERTEX
  8
1
  5
183
 10
163.722
 20
210.710
 30
0.000000
  70
    32
  0
VERTEX
  8
1
  5
184
 10
163.828
 20
210.452
 30
0.000000
  70
    32
  0
VERTEX
  8
1
  5
185
 10
163.939
 20
210.196
 30
0.000000
  70
    32
  0
VERTEX
  8
1
  5
186
 10
164.057
 20
209.941
 30
0.000000
  70
    32
  0
VERTEX
  8
1
  5
187
 10
164.182
 20
209.687
 30
0.000000
  70
    32
  0
VERTEX
  8
1
  5
188
 10
164.312
 20
209.435
 30
0.000000
  70
    32
  0
VERTEX
  8
1
  5
189
 10
164.449
 20
209.185
 30
0.000000
  70
    32
  0
VERTEX
  8
1
  5
18A
 10
164.591
 20
208.936
 30
0.000000
  70
    32
  0
VERTEX
  8
1
  5
18B
 10
164.740
 20
208.689
 30
0.000000
  70
    32
  0
VERTEX
  8
1
  5
18C
 10
164.895
 20
208.444
 30
0.000000
  70
    32
  0
VERTEX
  8
1
  5
18D
 10
165.055
 20
208.201
 30
0.000000
  70
    32
  0
VERTEX
  8
1
  5
18E
 10
165.222
 20
207.960
 30
0.000000
  70
    32
  0
VERTEX
  8
1
  5
18F
 10
165.395
 20
207.722
 30
0.000000
  70
    32
  0
VERTEX
  8
1
  5
190
 10
165.573
 20
207.485
 30
0.000000
  70
    32
  0
VERTEX
  8
1
  5
191
 10
165.757
 20
207.250
 30
0.000000
  70
    32
  0
VERTEX
  8
1
  5
192
 10
165.947
 20
207.018
 30
0.000000
  70
    32
  0
VERTEX
  8
1
  5
193
 10
166.142
 20
206.789
 30
0.000000
  70
    32
  0
VERTEX
  8
1
  5
194
 10
166.344
 20
206.561
 30
0.000000
  70
    32
  0
VERTEX
  8
1
  5
195
 10
166.550
 20
206.336
 30
0.000000
  70
    32
  0
VERTEX
  8
1
  5
196
 10
166.762
 20
206.114
 30
0.000000
  70
    32
  0
VERTEX
  8
1
  5
197
 10
166.980
 20
205.895
 30
0.000000
  70
    32
  0
VERTEX
  8
1
  5
198
 10
167.203
 20
205.678
 30
0.000000
  70
    32
  0
VERTEX
  8
1
  5
199
 10
167.431
 20
205.464
 30
0.000000
  70
    32
  0
VERTEX
  8
1
  5
19A
 10
167.665
 20
205.253
 30
0.000000
  70
    32
  0
VERTEX
  8
1
  5
19B
 10
167.903
 20
205.044
 30
0.000000
  70
    32
  0
VERTEX
  8
1
  5
19C
 10
168.147
 20
204.839
 30
0.000000
  70
    32
  0
VERTEX
  8
1
  5
19D
 10
168.396
 20
204.637
 30
0.000000
  70
    32
  0
VERTEX
  8
1
  5
19E
 10
168.649
 20
204.437
 30
0.000000
  70
    32
  0
VERTEX
  8
1
  5
19F
 10
168.908
 20
204.241
 30
0.000000
  70
    32
  0
VERTEX
  8
1
  5
1A0
 10
169.171
 20
204.048
 30
0.000000
  70
    32
  0
VERTEX
  8
1
  5
1A1
 10
169.439
 20
203.859
 30
0.000000
  70
    32
  0
VERTEX
  8
1
  5
1A2
 10
169.711
 20
203.672
 30
0.000000
  70
    32
  0
VERTEX
  8
1
  5
1A3
 10
169.989
 20
203.489
 30
0.000000
  70
    32
  0
VERTEX
  8
1
  5
1A4
 10
170.270
 20
203.310
 30
0.000000
  70
    32
  0
VERTEX
  8
1
  5
1A5
 10
170.556
 20
203.134
 30
0.000000
  70
    32
  0
VERTEX
  8
1
  5
1A6
 10
170.846
 20
202.961
 30
0.000000
  70
    32
  0
VERTEX
  8
1
  5
1A7
 10
171.141
 20
202.793
 30
0.000000
  70
    32
  0
VERTEX
  8
1
  5
1A8
 10
171.439
 20
202.627
 30
0.000000
  70
    32
  0
VERTEX
  8
1
  5
1A9
 10
171.742
 20
202.466
 30
0.000000
  70
    32
  0
VERTEX
  8
1
  5
1AA
 10
172.048
 20
202.308
 30
0.000000
  70
    32
  0
VERTEX
  8
1
  5
1AB
 10
172.359
 20
202.154
 30
0.000000
  70
    32
  0
VERTEX
  8
1
  5
1AC
 10
172.673
 20
202.004
 30
0.000000
  70
    32
  0
VERTEX
  8
1
  5
1AD
 10
172.990
 20
201.857
 30
0.000000
  70
    32
  0
VERTEX
  8
1
  5
1AE
 10
173.312
 20
201.715
 30
0.000000
  70
    32
  0
VERTEX
  8
1
  5
1AF
 10
173.636
 20
201.577
 30
0.000000
  70
    32
  0
VERTEX
  8
1
  5
1B0
 10
173.965
 20
201.442
 30
0.000000
  70
    32
  0
VERTEX
  8
1
  5
1B1
 10
174.296
 20
201.312
 30
0.000000
  70
    32
  0
VERTEX
  8
1
  5
1B2
 10
174.631
 20
201.185
 30
0.000000
  70
    32
  0
VERTEX
  8
1
  5
1B3
 10
174.968
 20
201.063
 30
0.000000
  70
    32
  0
VERTEX
  8
1
  5
1B4
 10
175.309
 20
200.945
 30
0.000000
  70
    32
  0
VERTEX
  8
1
  5
1B5
 10
175.652
 20
200.831
 30
0.000000
  70
    32
  0
VERTEX
  8
1
  5
1B6
 10
175.999
 20
200.722
 30
0.000000
  70
    32
  0
VERTEX
  8
1
  5
1B7
 10
176.347
 20
200.616
 30
0.000000
  70
    32
  0
VERTEX
  8
1
  5
1B8
 10
176.699
 20
200.515
 30
0.000000
  70
    32
  0
VERTEX
  8
1
  5
1B9
 10
177.053
 20
200.419
 30
0.000000
  70
    32
  0
VERTEX
  8
1
  5
1BA
 10
177.409
 20
200.326
 30
0.000000
  70
    32
  0
VERTEX
  8
1
  5
1BB
 10
177.768
 20
200.238
 30
0.000000
  70
    32
  0
VERTEX
  8
1
  5
1BC
 10
178.128
 20
200.155
 30
0.000000
  70
    32
  0
VERTEX
  8
1
  5
1BD
 10
178.491
 20
200.075
 30
0.000000
  70
    32
  0
VERTEX
  8
1
  5
1BE
 10
178.855
 20
200.001
 30
0.000000
  70
    32
  0
VERTEX
  8
1
  5
1BF
 10
179.222
 20
199.930
 30
0.000000
  70
    32
  0
VERTEX
  8
1
  5
1C0
 10
179.590
 20
199.865
 30
0.000000
  70
    32
  0
VERTEX
  8
1
  5
1C1
 10
179.960
 20
199.803
 30
0.000000
  70
    32
  0
VERTEX
  8
1
  5
1C2
 10
180.331
 20
199.747
 30
0.000000
  70
    32
  0
VERTEX
  8
1
  5
1C3
 10
180.703
 20
199.694
 30
0.000000
  70
    32
  0
VERTEX
  8
1
  5
1C4
 10
181.077
 20
199.647
 30
0.000000
  70
    32
  0
VERTEX
  8
1
  5
1C5
 10
181.452
 20
199.604
 30
0.000000
  70
    32
  0
VERTEX
  8
1
  5
1C6
 10
181.828
 20
199.565
 30
0.000000
  70
    32
  0
VERTEX
  8
1
  5
1C7
 10
182.205
 20
199.531
 30
0.000000
  70
    32
  0
VERTEX
  8
1
  5
1C8
 10
182.583
 20
199.502
 30
0.000000
  70
    32
  0
VERTEX
  8
1
  5
1C9
 10
182.961
 20
199.478
 30
0.000000
  70
    32
  0
VERTEX
  8
1
  5
1CA
 10
183.340
 20
199.458
 30
0.000000
  70
    32
  0
VERTEX
  8
1
  5
1CB
 10
183.719
 20
199.442
 30
0.000000
  70
    32
  0
VERTEX
  8
1
  5
1CC
 10
184.099
 20
199.432
 30
0.000000
  70
    32
  0
VERTEX
  8
1
  5
1CD
 10
184.479
 20
199.425
 30
0.000000
  70
    32
  0
VERTEX
  8
1
  5
1CE
 10
184.859
 20
199.424
 30
0.000000
  70
    32
  0
SEQEND
  8
1
  5
1CF
  0
LINE
  5
CE
  8
1外形線
 10
94.338485720722588
 20
231.3112223398135
 30
0.0
 11
125.585551971185
 21
200.06415608934961
 31
0.0
  0
LINE
  5
CF
  8
1外形線
 10
85.215040487399733
 20
224.8818363529823
 30
0.0
 11
53.029515320350022
 21
192.69631118593369
 31
0.0
  0
POLYLINE
  5
D0
  8
1外形線
 10
185.95495908615672
 20
231.24420950894432
 30
0.0
 66
     1
 70
     8
  0
VERTEX
  8
1
  5
1D0
 10
185.955
 20
231.244
 30
0.000000
  70
    32
  0
VERTEX
  8
1
  5
1D1
 10
185.415
 20
231.238
 30
0.000000
  70
    32
  0
VERTEX
  8
1
  5
1D2
 10
184.875
 20
231.223
 30
0.000000
  70
    32
  0
VERTEX
  8
1
  5
1D3
 10
184.336
 20
231.198
 30
0.000000
  70
    32
  0
VERTEX
  8
1
  5
1D4
 10
183.798
 20
231.164
 30
0.000000
  70
    32
  0
VERTEX
  8
1
  5
1D5
 10
183.261
 20
231.121
 30
0.000000
  70
    32
  0
VERTEX
  8
1
  5
1D6
 10
182.726
 20
231.068
 30
0.000000
  70
    32
  0
VERTEX
  8
1
  5
1D7
 10
182.193
 20
231.006
 30
0.000000
  70
    32
  0
VERTEX
  8
1
  5
1D8
 10
181.662
 20
230.935
 30
0.000000
  70
    32
  0
VERTEX
  8
1
  5
1D9
 10
181.133
 20
230.855
 30
0.000000
  70
    32
  0
VERTEX
  8
1
  5
1DA
 10
180.608
 20
230.765
 30
0.000000
  70
    32
  0
VERTEX
  8
1
  5
1DB
 10
180.085
 20
230.667
 30
0.000000
  70
    32
  0
VERTEX
  8
1
  5
1DC
 10
179.566
 20
230.559
 30
0.000000
  70
    32
  0
VERTEX
  8
1
  5
1DD
 10
179.051
 20
230.443
 30
0.000000
  70
    32
  0
VERTEX
  8
1
  5
1DE
 10
178.540
 20
230.317
 30
0.000000
  70
    32
  0
VERTEX
  8
1
  5
1DF
 10
178.034
 20
230.183
 30
0.000000
  70
    32
  0
VERTEX
  8
1
  5
1E0
 10
177.532
 20
230.040
 30
0.000000
  70
    32
  0
VERTEX
  8
1
  5
1E1
 10
177.035
 20
229.888
 30
0.000000
  70
    32
  0
VERTEX
  8
1
  5
1E2
 10
176.544
 20
229.728
 30
0.000000
  70
    32
  0
VERTEX
  8
1
  5
1E3
 10
176.058
 20
229.559
 30
0.000000
  70
    32
  0
VERTEX
  8
1
  5
1E4
 10
175.578
 20
229.382
 30
0.000000
  70
    32
  0
VERTEX
  8
1
  5
1E5
 10
175.104
 20
229.197
 30
0.000000
  70
    32
  0
VERTEX
  8
1
  5
1E6
 10
174.637
 20
229.004
 30
0.000000
  70
    32
  0
VERTEX
  8
1
  5
1E7
 10
174.177
 20
228.802
 30
0.000000
  70
    32
  0
VERTEX
  8
1
  5
1E8
 10
173.723
 20
228.593
 30
0.000000
  70
    32
  0
VERTEX
  8
1
  5
1E9
 10
173.277
 20
228.376
 30
0.000000
  70
    32
  0
VERTEX
  8
1
  5
1EA
 10
172.839
 20
228.151
 30
0.000000
  70
    32
  0
VERTEX
  8
1
  5
1EB
 10
172.409
 20
227.919
 30
0.000000
  70
    32
  0
VERTEX
  8
1
  5
1EC
 10
171.986
 20
227.680
 30
0.000000
  70
    32
  0
VERTEX
  8
1
  5
1ED
 10
171.572
 20
227.433
 30
0.000000
  70
    32
  0
VERTEX
  8
1
  5
1EE
 10
171.167
 20
227.179
 30
0.000000
  70
    32
  0
VERTEX
  8
1
  5
1EF
 10
170.770
 20
226.918
 30
0.000000
  70
    32
  0
VERTEX
  8
1
  5
1F0
 10
170.383
 20
226.651
 30
0.000000
  70
    32
  0
VERTEX
  8
1
  5
1F1
 10
170.005
 20
226.376
 30
0.000000
  70
    32
  0
VERTEX
  8
1
  5
1F2
 10
169.636
 20
226.096
 30
0.000000
  70
    32
  0
VERTEX
  8
1
  5
1F3
 10
169.278
 20
225.809
 30
0.000000
  70
    32
  0
VERTEX
  8
1
  5
1F4
 10
168.929
 20
225.516
 30
0.000000
  70
    32
  0
VERTEX
  8
1
  5
1F5
 10
168.591
 20
225.217
 30
0.000000
  70
    32
  0
VERTEX
  8
1
  5
1F6
 10
168.263
 20
224.912
 30
0.000000
  70
    32
  0
VERTEX
  8
1
  5
1F7
 10
167.945
 20
224.602
 30
0.000000
  70
    32
  0
VERTEX
  8
1
  5
1F8
 10
167.639
 20
224.287
 30
0.000000
  70
    32
  0
VERTEX
  8
1
  5
1F9
 10
167.343
 20
223.966
 30
0.000000
  70
    32
  0
VERTEX
  8
1
  5
1FA
 10
167.059
 20
223.640
 30
0.000000
  70
    32
  0
VERTEX
  8
1
  5
1FB
 10
166.786
 20
223.310
 30
0.000000
  70
    32
  0
VERTEX
  8
1
  5
1FC
 10
166.525
 20
222.974
 30
0.000000
  70
    32
  0
VERTEX
  8
1
  5
1FD
 10
166.275
 20
222.635
 30
0.000000
  70
    32
  0
VERTEX
  8
1
  5
1FE
 10
166.037
 20
222.291
 30
0.000000
  70
    32
  0
VERTEX
  8
1
  5
1FF
 10
165.811
 20
221.944
 30
0.000000
  70
    32
  0
VERTEX
  8
1
  5
200
 10
165.597
 20
221.592
 30
0.000000
  70
    32
  0
VERTEX
  8
1
  5
201
 10
165.395
 20
221.237
 30
0.000000
  70
    32
  0
VERTEX
  8
1
  5
202
 10
165.206
 20
220.879
 30
0.000000
  70
    32
  0
VERTEX
  8
1
  5
203
 10
165.029
 20
220.517
 30
0.000000
  70
    32
  0
VERTEX
  8
1
  5
204
 10
164.865
 20
220.153
 30
0.000000
  70
    32
  0
VERTEX
  8
1
  5
205
 10
164.713
 20
219.786
 30
0.000000
  70
    32
  0
VERTEX
  8
1
  5
206
 10
164.574
 20
219.416
 30
0.000000
  70
    32
  0
VERTEX
  8
1
  5
207
 10
164.448
 20
219.045
 30
0.000000
  70
    32
  0
VERTEX
  8
1
  5
208
 10
164.335
 20
218.671
 30
0.000000
  70
    32
  0
VERTEX
  8
1
  5
209
 10
164.235
 20
218.295
 30
0.000000
  70
    32
  0
VERTEX
  8
1
  5
20A
 10
164.148
 20
217.918
 30
0.000000
  70
    32
  0
VERTEX
  8
1
  5
20B
 10
164.074
 20
217.540
 30
0.000000
  70
    32
  0
VERTEX
  8
1
  5
20C
 10
164.013
 20
217.160
 30
0.000000
  70
    32
  0
VERTEX
  8
1
  5
20D
 10
163.965
 20
216.780
 30
0.000000
  70
    32
  0
VERTEX
  8
1
  5
20E
 10
163.931
 20
216.398
 30
0.000000
  70
    32
  0
VERTEX
  8
1
  5
20F
 10
163.910
 20
216.017
 30
0.000000
  70
    32
  0
VERTEX
  8
1
  5
210
 10
163.902
 20
215.635
 30
0.000000
  70
    32
  0
VERTEX
  8
1
  5
211
 10
163.907
 20
215.253
 30
0.000000
  70
    32
  0
VERTEX
  8
1
  5
212
 10
163.926
 20
214.872
 30
0.000000
  70
    32
  0
VERTEX
  8
1
  5
213
 10
163.958
 20
214.491
 30
0.000000
  70
    32
  0
VERTEX
  8
1
  5
214
 10
164.003
 20
214.110
 30
0.000000
  70
    32
  0
VERTEX
  8
1
  5
215
 10
164.061
 20
213.731
 30
0.000000
  70
    32
  0
VERTEX
  8
1
  5
216
 10
164.132
 20
213.353
 30
0.000000
  70
    32
  0
VERTEX
  8
1
  5
217
 10
164.217
 20
212.976
 30
0.000000
  70
    32
  0
VERTEX
  8
1
  5
218
 10
164.314
 20
212.601
 30
0.000000
  70
    32
  0
VERTEX
  8
1
  5
219
 10
164.425
 20
212.228
 30
0.000000
  70
    32
  0
VERTEX
  8
1
  5
21A
 10
164.548
 20
211.857
 30
0.000000
  70
    32
  0
VERTEX
  8
1
  5
21B
 10
164.685
 20
211.488
 30
0.000000
  70
    32
  0
VERTEX
  8
1
  5
21C
 10
164.834
 20
211.121
 30
0.000000
  70
    32
  0
VERTEX
  8
1
  5
21D
 10
164.996
 20
210.758
 30
0.000000
  70
    32
  0
VERTEX
  8
1
  5
21E
 10
165.170
 20
210.397
 30
0.000000
  70
    32
  0
VERTEX
  8
1
  5
21F
 10
165.357
 20
210.040
 30
0.000000
  70
    32
  0
VERTEX
  8
1
  5
220
 10
165.556
 20
209.686
 30
0.000000
  70
    32
  0
VERTEX
  8
1
  5
221
 10
165.768
 20
209.335
 30
0.000000
  70
    32
  0
VERTEX
  8
1
  5
222
 10
165.992
 20
208.989
 30
0.000000
  70
    32
  0
VERTEX
  8
1
  5
223
 10
166.227
 20
208.646
 30
0.000000
  70
    32
  0
VERTEX
  8
1
  5
224
 10
166.475
 20
208.308
 30
0.000000
  70
    32
  0
VERTEX
  8
1
  5
225
 10
166.734
 20
207.974
 30
0.000000
  70
    32
  0
VERTEX
  8
1
  5
226
 10
167.005
 20
207.645
 30
0.000000
  70
    32
  0
VERTEX
  8
1
  5
227
 10
167.287
 20
207.320
 30
0.000000
  70
    32
  0
VERTEX
  8
1
  5
228
 10
167.580
 20
207.001
 30
0.000000
  70
    32
  0
VERTEX
  8
1
  5
229
 10
167.885
 20
206.687
 30
0.000000
  70
    32
  0
VERTEX
  8
1
  5
22A
 10
168.200
 20
206.378
 30
0.000000
  70
    32
  0
VERTEX
  8
1
  5
22B
 10
168.526
 20
206.075
 30
0.000000
  70
    32
  0
VERTEX
  8
1
  5
22C
 10
168.862
 20
205.778
 30
0.000000
  70
    32
  0
VERTEX
  8
1
  5
22D
 10
169.209
 20
205.487
 30
0.000000
  70
    32
  0
VERTEX
  8
1
  5
22E
 10
169.566
 20
205.201
 30
0.000000
  70
    32
  0
VERTEX
  8
1
  5
22F
 10
169.932
 20
204.923
 30
0.000000
  70
    32
  0
VERTEX
  8
1
  5
230
 10
170.308
 20
204.650
 30
0.000000
  70
    32
  0
VERTEX
  8
1
  5
231
 10
170.694
 20
204.385
 30
0.000000
  70
    32
  0
VERTEX
  8
1
  5
232
 10
171.089
 20
204.126
 30
0.000000
  70
    32
  0
VERTEX
  8
1
  5
233
 10
171.492
 20
203.874
 30
0.000000
  70
    32
  0
VERTEX
  8
1
  5
234
 10
171.905
 20
203.629
 30
0.000000
  70
    32
  0
VERTEX
  8
1
  5
235
 10
172.325
 20
203.391
 30
0.000000
  70
    32
  0
VERTEX
  8
1
  5
236
 10
172.754
 20
203.161
 30
0.000000
  70
    32
  0
VERTEX
  8
1
  5
237
 10
173.191
 20
202.939
 30
0.000000
  70
    32
  0
VERTEX
  8
1
  5
238
 10
173.636
 20
202.724
 30
0.000000
  70
    32
  0
VERTEX
  8
1
  5
239
 10
174.088
 20
202.516
 30
0.000000
  70
    32
  0
VERTEX
  8
1
  5
23A
 10
174.547
 20
202.317
 30
0.000000
  70
    32
  0
VERTEX
  8
1
  5
23B
 10
175.012
 20
202.126
 30
0.000000
  70
    32
  0
VERTEX
  8
1
  5
23C
 10
175.485
 20
201.943
 30
0.000000
  70
    32
  0
VERTEX
  8
1
  5
23D
 10
175.964
 20
201.769
 30
0.000000
  70
    32
  0
VERTEX
  8
1
  5
23E
 10
176.448
 20
201.602
 30
0.000000
  70
    32
  0
VERTEX
  8
1
  5
23F
 10
176.939
 20
201.444
 30
0.000000
  70
    32
  0
VERTEX
  8
1
  5
240
 10
177.434
 20
201.295
 30
0.000000
  70
    32
  0
VERTEX
  8
1
  5
241
 10
177.935
 20
201.155
 30
0.000000
  70
    32
  0
VERTEX
  8
1
  5
242
 10
178.441
 20
201.023
 30
0.000000
  70
    32
  0
VERTEX
  8
1
  5
243
 10
178.951
 20
200.900
 30
0.000000
  70
    32
  0
VERTEX
  8
1
  5
244
 10
179.465
 20
200.786
 30
0.000000
  70
    32
  0
VERTEX
  8
1
  5
245
 10
179.984
 20
200.681
 30
0.000000
  70
    32
  0
VERTEX
  8
1
  5
246
 10
180.505
 20
200.585
 30
0.000000
  70
    32
  0
VERTEX
  8
1
  5
247
 10
181.030
 20
200.498
 30
0.000000
  70
    32
  0
VERTEX
  8
1
  5
248
 10
181.558
 20
200.420
 30
0.000000
  70
    32
  0
VERTEX
  8
1
  5
249
 10
182.089
 20
200.351
 30
0.000000
  70
    32
  0
VERTEX
  8
1
  5
24A
 10
182.622
 20
200.292
 30
0.000000
  70
    32
  0
VERTEX
  8
1
  5
24B
 10
183.157
 20
200.242
 30
0.000000
  70
    32
  0
VERTEX
  8
1
  5
24C
 10
183.693
 20
200.201
 30
0.000000
  70
    32
  0
VERTEX
  8
1
  5
24D
 10
184.231
 20
200.169
 30
0.000000
  70
    32
  0
VERTEX
  8
1
  5
24E
 10
184.770
 20
200.147
 30
0.000000
  70
    32
  0
VERTEX
  8
1
  5
24F
 10
185.310
 20
200.135
 30
0.000000
  70
    32
  0
VERTEX
  8
1
  5
250
 10
185.849
 20
200.131
 30
0.000000
  70
    32
  0
SEQEND
  8
1
  5
251
  0
LINE
  5
D1
  8
1外形線
 10
46.147706318056287
 20
114.96838912457549
 30
0.0
 11
90.337731193831928
 21
114.9683891245741
 31
0.0
  0
LINE
  5
D2
  8
1外形線
 10
86.742718755944793
 20
52.6750827562796
 30
0.0
 11
79.24271875594502
 21
52.675082756279501
 31
0.0
  0
ARC
  5
D3
  8
1外形線
 10
68.242718755944111
 20
67.175082756279721
 30
0.0
 40
22.0
 50
0.0
 51
180.0
  0
ARC
  5
D4
  8
1外形線
 10
68.242718755944111
 20
67.175082756279721
 30
0.0
 40
24.0
 50
0.0
 51
180.0
  0
LINE
  5
D5
  8
1外形線
 10
44.242718755944111
 20
46.675082756279771
 30
0.0
 11
92.242718755944111
 21
46.675082756279771
 31
0.0
  0
LINE
  5
D6
  8
1外形線
 10
44.242718755944111
 20
46.675082756280233
 30
0.0
 11
44.242718755944111
 21
67.175082756279764
 31
0.0
  0
LINE
  5
D7
  8
1外形線
 10
46.242718755944111
 20
46.675082756280233
 30
0.0
 11
46.242718755944111
 21
67.175082756279764
 31
0.0
  0
LINE
  5
D8
  8
1外形線
 10
80.742718755945035
 20
49.175082756279608
 30
0.0
 11
55.742718755943201
 21
49.175082756279608
 31
0.0
  0
LINE
  5
D9
  8
1外形線
 10
79.24271875594502
 20
51.675082756279721
 30
0.0
 11
57.242718755943201
 21
51.675082756279487
 31
0.0
  0
LINE
  5
DA
  8
1外形線
 10
57.242718755943201
 20
52.675082756279501
 30
0.0
 11
49.742718755943649
 21
52.675082756279501
 31
0.0
  0
ARC
  5
DB
  8
1外形線
 10
48.742718755944111
 20
54.963757890874547
 30
0.0
 40
1.0
 50
0.0
 51
119.9999999999999
  0
LINE
  5
DC
  8
1外形線
 10
49.742718755944111
 20
52.675082756279501
 30
0.0
 11
49.742718755944111
 21
54.963757890874597
 31
0.0
  0
LINE
  5
DD
  8
1外形線
 10
46.242718755944111
 20
54.675082756279771
 30
0.0
 11
48.242718755944111
 21
55.82978329465908
 31
0.0
  0
LINE
  5
DE
  8
1外形線
 10
55.742718755943201
 20
52.6750827562796
 30
0.0
 11
55.742718755943201
 21
49.175082756279608
 31
0.0
  0
LINE
  5
DF
  8
1外形線
 10
57.242718755943201
 20
52.675082756279501
 30
0.0
 11
57.242718755943201
 21
51.675082756279608
 31
0.0
  0
LINE
  5
E0
  8
1外形線
 10
80.742718755945035
 20
52.6750827562796
 30
0.0
 11
80.742718755945035
 21
49.175082756279608
 31
0.0
  0
LINE
  5
E1
  8
1外形線
 10
79.24271875594502
 20
52.675082756279501
 30
0.0
 11
79.24271875594502
 21
51.675082756279608
 31
0.0
  0
LINE
  5
E2
  8
1外形線
 10
44.242718755944111
 20
125.96590154699641
 30
0.0
 11
44.24271875594593
 21
171.48310775033781
 31
0.0
  0
LINE
  5
E3
  8
1外形線
 10
44.341974951744177
 20
123.9758271665758
 30
0.0
 11
45.152669127846252
 21
115.86888540555429
 31
0.0
  0
ARC
  5
E4
  8
1外形線
 10
46.147706318056059
 20
115.96838912457549
 30
0.0
 40
1.0
 50
185.7105931374993
 51
269.9999999999979
  0
ARC
  5
E5
  8
1外形線
 10
64.242718755943883
 20
125.9659015469957
 30
0.0
 40
20.0
 50
179.9999999999979
 51
185.7105931374993
  0
ARC
  5
E6
  8
1外形線
 10
74.242718755945816
 20
171.4831077503369
 30
0.0
 40
30.0
 50
134.99999999999881
 51
179.9999999999979
  0
LINE
  5
E7
  8
1外形線
 10
90.242718755944111
 20
46.675082756279771
 30
0.0
 11
90.242718755944111
 21
67.175082756279664
 31
0.0
  0
LINE
  5
E8
  8
1外形線
 10
92.242718755944111
 20
46.675082756279771
 30
0.0
 11
92.242718755944111
 21
67.175082756279664
 31
0.0
  0
LINE
  5
E9
  8
1外形線
 10
90.242718755944111
 20
54.675082756279771
 30
0.0
 11
88.242718755944097
 21
55.82978329465908
 31
0.0
  0
LINE
  5
EA
  8
1外形線
 10
86.742718755944125
 20
52.6750827562796
 30
0.0
 11
86.742718755944125
 21
54.963757890874597
 31
0.0
  0
ARC
  5
EB
  8
1外形線
 10
87.742718755944111
 20
54.963757890874547
 30
0.0
 40
1.0
 50
60.000000000000071
 51
180.0
  0
LINE
  5
EC
  8
1外形線
  6
CONTINUOUS
 10
206.40222237896029
 20
114.9683891245748
 30
0.0
 11
163.80720994106841
 21
114.9683891245748
 31
0.0
  0
LINE
  5
ED
  8
1外形線
 10
92.242718755944566
 20
125.9659015469918
 30
0.0
 11
92.242718755946143
 21
163.19883650287429
 31
0.0
  0
LINE
  5
EE
  8
1外形線
  6
CONTINUOUS
 10
161.90222237896049
 20
204.0113820019842
 30
0.0
 11
161.9022223789608
 21
126.4646577582015
 31
0.0
  0
LINE
  5
EF
  8
1外形線
 10
92.14346256014403
 20
123.9758271665717
 30
0.0
 11
91.332768384041984
 21
115.8688854055529
 31
0.0
  0
ARC
  5
F0
  8
1外形線
 10
90.337731193831701
 20
115.9683891245742
 30
0.0
 40
1.0
 50
269.9999999999979
 51
354.28940686249729
  0
ARC
  5
F1
  8
1外形線
 10
72.242718755944338
 20
125.9659015469928
 30
0.0
 40
20.0
 50
354.28940686249689
 51
359.9999999999975
  0
ARC
  5
F2
  8
1外形線
 10
191.90222237895611
 20
126.4646577582017
 30
0.0
 40
30.0
 50
180.0
 51
185.7105931374997
  0
ARC
  5
F3
  8
1外形線
 10
163.80720994106829
 20
115.9683891245751
 30
0.0
 40
1.0
 50
185.7105931374997
 51
270.0
  0
LINE
  5
F4
  8
1外形線
 10
162.0511066726566
 20
123.4795461875715
 30
0.0
 11
162.81217275085839
 21
115.8688854055538
 31
0.0
  0
LINE
  5
F5
  8
1外形線
 10
119.1561659843554
 20
190.94071085602911
 30
0.0
 11
92.828505193572823
 21
164.61305006524691
 31
0.0
  0
ARC
  5
F6
  8
1外形線
 10
94.242718755946029
 20
163.19883650287429
 30
0.0
 40
2.0
 50
135.0000000000006
 51
179.9999999999975
  0
LINE
  5
F7
  8
1外形線
 10
120.49317634469119
 20
192.41809067461489
 30
0.0
 11
125.65240248920171
 21
198.7238115179058
 31
0.0
  0
ARC
  5
F8
  8
1外形線
 10
105.0140303606247
 20
205.08284647976021
 30
0.0
 40
20.0
 50
314.99999999999937
 51
320.71059313749981
  0
ARC
  5
F9
  8
1外形線
 10
124.8784451899985
 20
199.357049308163
 30
0.0
 40
1.0
 50
320.71059313749919
 51
44.999999999998572
  0
LINE
  5
FA
  8
1外形線
 10
162.05110667265629
 20
206.99649357261441
 30
0.0
 11
162.9022223789608
 21
215.50765063565569
 31
0.0
  0
ARC
  5
FB
  8
1外形線
 10
191.90222237895611
 20
204.0113820019846
 30
0.0
 40
30.0
 50
174.28940686250019
 51
179.9999999999996
  0
ARC
  5
FC
  8
1外形線
 10
163.8972595691707
 20
215.40814691663479
 30
0.0
 40
1.0
 50
162.8377346957466
 51
174.28940686250019
  0
ARC
  5
FD
  8
1外形線
 10
203.90222237895929
 20
207.36649253995
 30
0.0
 40
1.0
 50
180.0
 51
234.735610317246
  0
LINE
  5
FE
  8
1外形線
 10
206.4022223789608
 20
200.1313400284769
 30
0.0
 11
185.64759233060761
 21
200.1313400284769
 31
0.0
  0
LINE
  5
FF
  8
1外形線
 10
206.4022223789608
 20
199.42423324729069
 30
0.0
 11
184.65749332069529
 21
199.42423324729069
 31
0.0
  0
LINE
  5
100
  8
1外形線
 10
200.40222237895921
 20
207.90951462152481
 30
0.0
 11
200.40222237895941
 21
200.1313400284769
 31
0.0
  0
LINE
  5
101
  8
1外形線
 10
200.90222237895941
 20
213.9805824333915
 30
0.0
 11
200.90222237895941
 21
207.90951462152481
 31
0.0
  0
ARC
  5
102
  8
1外形線
 10
197.81354724436321
 20
206.13464088737291
 30
0.0
 40
0.7
 50
180.0
 51
270.0
  0
LINE
  5
103
  8
1外形線
 10
200.40222237895921
 20
207.90951462152481
 30
0.0
 11
201.40222237895941
 21
207.90951462152481
 31
0.0
  0
LINE
  5
104
  8
1外形線
 10
200.40222237895921
 20
206.84885444974481
 30
0.0
 11
203.04662270179219
 21
206.84885444974481
 31
0.0
  0
LINE
  5
105
  8
1外形線
 10
197.81354724436329
 20
205.43464088737281
 30
0.0
 11
200.40222237895941
 21
205.43464088737281
 31
0.0
  0
ARC
  5
106
  8
1外形線
 10
201.40222237895929
 20
213.98058243339179
 30
0.0
 40
0.5
 50
90.0
 51
180.0
  0
LINE
  5
107
  8
1外形線
 10
200.4022223789589
 20
214.98058243339031
 30
0.0
 11
201.40222237895941
 21
214.98058243339031
 31
0.0
  0
LINE
  5
108
  8
1外形線
 10
203.90222237895941
 20
206.1417476685582
 30
0.0
 11
203.32487210976981
 21
206.54999595902211
 31
0.0
  0
LINE
  5
109
  8
1外形線
 10
252.69977736753421
 20
193.0602722166098
 30
0.0
 11
266.84191299126621
 21
178.9181365928799
 31
0.0
  0
LINE
  5
10A
  8
1外形線
 10
266.84191299126621
 20
178.9181365928799
 30
0.0
 11
265.78125281948547
 21
177.85747642109919
 31
0.0
  0
LINE
  5
10B
  8
1外形線
 10
248.53258089947329
 20
192.41809067461489
 30
0.0
 11
243.3733547549628
 21
198.7238115179058
 31
0.0
  0
ARC
  5
10C
  8
1外形線
 10
264.01172688353972
 20
205.08284647976021
 30
0.0
 40
20.0
 50
219.28940686250019
 51
225.0000000000006
  0
ARC
  5
10D
  8
1外形線
 10
244.14731205416589
 20
199.357049308163
 30
0.0
 40
1.0
 50
135.00000000000139
 51
219.2894068625007
  0
ARC
  5
10E
  8
1外形線
 10
271.86237113768942
 20
202.8890564751033
 30
0.0
 40
2.0999999999999992
 50
44.999999999997122
 51
224.9999999999971
  0
LINE
  5
10F
  8
1外形線
  6
CONTINUOUS
 10
257.29597144524712
 20
199.7777866378822
 30
0.0
 11
250.9320104145682
 21
206.14174766856129
 31
0.0
  0
LINE
  5
110
  8
1外形線
 10
251.63911719575401
 20
191.9996120448298
 30
0.0
 11
252.69977736753421
 21
193.0602722166098
 31
0.0
  0
ARC
  5
111
  8
1外形線
 10
251.6391171957543
 20
206.84885444974759
 30
0.0
 40
1.0
 50
135.0000000000008
 51
225.0000000000008
  0
ARC
  5
112
  8
1外形線
 10
99.357176111130229
 20
210.7397007292513
 30
0.0
 40
20.0
 50
129.2894068624972
 51
134.99999999999881
  0
LINE
  5
113
  8
1外形線
 10
86.69242030598582
 20
226.2188467133181
 30
0.0
 11
92.998141149278922
 21
231.3780728578302
 31
0.0
  0
ARC
  5
114
  8
1外形線
 10
93.631378939536035
 20
230.60411555862689
 30
0.0
 40
1.0
 50
44.999999999998572
 51
129.28940686249749
  0
ARC
  5
115
  8
1外形線
 10
203.34758615681741
 20
223.72760681095809
 30
0.0
 40
0.4453637778581481
 50
51.633228695605027
 51
180.0
  0
LINE
  5
116
  8
1外形線
 10
206.4022223789608
 20
231.24403840068601
 30
0.0
 11
185.9022223789608
 21
231.24403840068601
 31
0.0
  0
LINE
  5
117
  8
1外形線
 10
206.4022223789608
 20
231.24403840068601
 30
0.0
 11
185.90222237896029
 21
231.24403840068601
 31
0.0
  0
LINE
  5
118
  8
1外形線
 10
198.40222237895921
 20
224.1729705888159
 30
0.0
 11
206.4022223789587
 21
224.1729705888159
 31
0.0
  0
ARC
  5
119
  8
1外形線
 10
197.81354724436321
 20
222.52401886008431
 30
0.0
 40
0.7
 50
136.787841700276
 51
180.0
  0
ARC
  5
11A
  8
1外形線
 10
197.81354724436321
 20
222.3980968546629
 30
0.0
 40
0.7
 50
180.0
 51
270.0
  0
LINE
  5
11B
  8
1外形線
 10
197.81354724436329
 20
221.69809685466279
 30
0.0
 11
200.40222237895941
 21
221.69809685466279
 31
0.0
  0
LINE
  5
11C
  8
1外形線
 10
198.40222237895921
 20
224.1729705888159
 30
0.0
 11
197.3033709004151
 21
223.00331010564969
 31
0.0
  0
LINE
  5
11D
  8
1外形線
 10
200.4022223789587
 20
223.5265239794094
 30
0.0
 11
201.40222237895941
 21
223.5265239794094
 31
0.0
  0
LINE
  5
11E
  8
1外形線
 10
203.90222237895941
 20
223.88007737000279
 30
0.0
 11
203.58466000359871
 21
224.1046278790698
 31
0.0
  0
ARC
  5
11F
  8
1外形線
 10
267.90257316304451
 20
223.1123104170382
 30
0.0
 40
1.0
 50
45.000000000000568
 51
135.0000000000008
  0
LINE
  5
120
  8
1外形線
 10
281.69115539618298
 20
222.05165024525951
 30
0.0
 11
295.83329101991433
 21
207.9095146215287
 31
0.0
  0
LINE
  5
121
  8
1外形線
 10
283.81071675676492
 20
224.8818363529823
 30
0.0
 11
315.99624192381458
 21
192.69631118593369
 31
0.0
  0
LINE
  5
122
  8
1外形線
 10
274.62008758431449
 20
231.24403840068601
 30
0.0
 11
314.5820283614417
 21
191.28209762356059
 31
0.0
  0
LINE
  5
123
  8
1外形線
 10
324.78303848822048
 20
125.96590154699641
 30
0.0
 11
324.78303848821872
 21
171.48310775033781
 31
0.0
  0
LINE
  5
124
  8
1外形線
 10
322.78303848822048
 20
114.9683891245748
 30
0.0
 11
322.78303848821872
 21
171.4831077503375
 31
0.0
  0
LINE
  5
125
  8
1外形線
 10
276.78303848821997
 20
125.9659015469918
 30
0.0
 11
276.78303848821838
 21
163.19883650287429
 31
0.0
  0
LINE
  5
126
  8
1外形線
 10
278.78303848822048
 20
114.9683891245748
 30
0.0
 11
278.78303848821872
 21
163.19883650287429
 31
0.0
  0
LINE
  5
127
  8
1外形線
 10
322.78303848821639
 20
124.9683891245748
 30
0.0
 11
278.78303848821707
 21
124.968389124578
 31
0.0
  0
LINE
  5
128
  8
1外形線
 10
322.8780509261083
 20
114.96838912457549
 30
0.0
 11
278.68802605033272
 21
114.9683891245741
 31
0.0
  0
LINE
  5
129
  8
1外形線
  6
CONTINUOUS
 10
313.28303848821599
 20
124.96838912457549
 30
0.0
 11
313.28303848821548
 21
115.96838912457549
 31
0.0
  0
LINE
  5
12A
  8
1外形線
  6
CONTINUOUS
 10
288.28303848821599
 20
124.9683891245771
 30
0.0
 11
288.28303848821548
 21
115.9683891245771
 31
0.0
  0
LINE
  5
12B
  8
1外形線
 10
276.88229468402062
 20
123.9758271665717
 30
0.0
 11
277.69298886012263
 21
115.8688854055529
 31
0.0
  0
ARC
  5
12C
  8
1外形線
 10
278.6880260503325
 20
115.9683891245742
 30
0.0
 40
1.0
 50
185.7105931375026
 51
270.00000000000159
  0
ARC
  5
12D
  8
1外形線
 10
289.2830384882148
 20
115.9683891245774
 30
0.0
 40
1.0
 50
179.99999999999591
 51
269.99999999999631
  0
ARC
  5
12E
  8
1外形線
 10
312.28303848821457
 20
115.96838912457579
 30
0.0
 40
1.0
 50
269.99999999999631
 51
359.99999999999631
  0
LINE
  5
12F
  8
1外形線
 10
280.28303848821548
 20
126.4683891245775
 30
0.0
 11
280.28303848821798
 21
146.4683891245775
 31
0.0
  0
LINE
  5
130
  8
1外形線
 10
278.78303848821508
 20
126.4683891245775
 30
0.0
 11
280.28303848821548
 21
126.4683891245775
 31
0.0
  0
ARC
  5
131
  8
1外形線
 10
296.7830384882198
 20
125.9659015469928
 30
0.0
 40
20.0
 50
180.00000000000239
 51
185.7105931375026
  0
LINE
  5
132
  8
1外形線
 10
280.28303848821798
 20
146.4683891245775
 30
0.0
 11
278.78303848821662
 21
146.46838912457781
 31
0.0
  0
ARC
  5
133
  8
1外形線
 10
300.78303848821599
 20
137.86838912457631
 30
0.0
 40
2.0999999999999992
 50
0.0
 51
180.0
  0
ARC
  5
134
  8
1外形線
 10
300.78303848821599
 20
133.06838912457641
 30
0.0
 40
2.0999999999999992
 50
180.0
 51
0.0
  0
LINE
  5
135
  8
1外形線
 10
298.68303848821648
 20
137.868389124576
 30
0.0
 11
298.68303848821648
 21
133.0683891245763
 31
0.0
  0
LINE
  5
136
  8
1外形線
 10
302.8830384882163
 20
137.868389124576
 30
0.0
 11
302.8830384882163
 21
133.0683891245763
 31
0.0
  0
LINE
  5
137
  8
1外形線
 10
324.6837822924204
 20
123.9758271665758
 30
0.0
 11
323.8730881163184
 21
115.86888540555429
 31
0.0
  0
ARC
  5
138
  8
1外形線
 10
322.87805092610807
 20
115.96838912457549
 30
0.0
 40
1.0
 50
270.00000000000159
 51
354.28940686250058
  0
LINE
  5
139
  8
1外形線
 10
321.28303848821662
 20
126.468389124575
 30
0.0
 11
321.28303848821798
 21
146.468389124575
 31
0.0
  0
ARC
  5
13A
  8
1外形線
 10
304.78303848822031
 20
125.9659015469957
 30
0.0
 40
20.0
 50
354.28940686250019
 51
0.0000000000020356
  0
LINE
  5
13B
  8
1外形線
 10
321.28303848821662
 20
126.468389124575
 30
0.0
 11
322.78303848821707
 21
126.4683891245748
 31
0.0
  0
LINE
  5
13C
  8
1外形線
 10
321.28303848821798
 20
146.468389124575
 30
0.0
 11
322.78303848821849
 21
146.4683891245748
 31
0.0
  0
ARC
  5
13D
  8
1外形線
 10
294.78303848821838
 20
171.4831077503369
 30
0.0
 40
30.0
 50
0.0000000000020356
 51
45.000000000001151
  0
ARC
  5
13E
  8
1外形線
 10
294.78303848821838
 20
171.4831077503369
 30
0.0
 40
28.0
 50
0.0000000000016284
 51
45.000000000001428
  0
ARC
  5
13F
  8
1外形線
 10
274.78303848821821
 20
163.19883650287429
 30
0.0
 40
2.0
 50
0.0000000000024427
 51
44.999999999999417
  0
ARC
  5
140
  8
1外形線
 10
274.78303848821838
 20
163.19883650287409
 30
0.0
 40
4.0
 50
0.0000000000024427
 51
44.999999999999133
  0
CIRCLE
  5
141
  8
1外形線
 10
300.78303848821889
 20
173.96838912457579
 30
0.0
 40
2.1000000000000001
  0
LINE
  5
142
  8
1外形線
 10
295.83329101991433
 20
207.9095146215287
 30
0.0
 11
296.89395119169433
 21
208.9701747933089
 31
0.0
  0
LINE
  5
143
  8
1外形線
 10
282.33333693817877
 20
226.2188467133181
 30
0.0
 11
276.02761609488567
 21
231.3780728578302
 31
0.0
  0
LINE
  5
144
  8
1外形線
 10
281.69115539618298
 20
222.05165024525951
 30
0.0
 11
282.75181556796321
 21
223.11231041703951
 31
0.0
  0
ARC
  5
145
  8
1外形線
 10
269.66858113303419
 20
210.7397007292513
 30
0.0
 40
20.0
 50
45.000000000001151
 51
50.710593137502421
  0
ARC
  5
146
  8
1外形線
 10
275.39437830462828
 20
230.60411555862689
 30
0.0
 40
1.0
 50
50.710593137502421
 51
135.00000000000139
  0
ENDSEC
  0
EOF
