  0
SECTION
  2
HEADER
  9
$ACADVER
  1
AC1009
  9
$INSBASE
 10
0.0
 20
0.0
 30
0.0
  9
$EXTMIN
 10
33.123792275673452
 20
39.750900772798069
 30
0.0
  9
$EXTMAX
 10
154.91426537810409
 20
124.9678827040099
 30
0.0
  9
$LIMMIN
 10
0.0
 20
0.0
  9
$LIMMAX
 10
420.0
 20
297.0
  9
$ORTHOMODE
 70
     0
  9
$REGENMODE
 70
     1
  9
$FILLMODE
 70
     1
  9
$QTEXTMODE
 70
     0
  9
$MIRRTEXT
 70
     1
  9
$DRAGMODE
 70
     2
  9
$LTSCALE
 40
1.0
  9
$OSMODE
 70
    37
  9
$ATTMODE
 70
     1
  9
$TEXTSIZE
 40
2.5
  9
$TRACEWID
 40
1.0
  9
$TEXTSTYLE
  7
STANDARD
  9
$CLAYER
  8
0
  9
$CELTYPE
  6
BYLAYER
  9
$CECOLOR
 62
   256
  9
$DIMSCALE
 40
1.0
  9
$DIMASZ
 40
2.5
  9
$DIMEXO
 40
0.625
  9
$DIMDLI
 40
3.75
  9
$DIMRND
 40
0.0
  9
$DIMDLE
 40
0.0
  9
$DIMEXE
 40
1.25
  9
$DIMTP
 40
0.0
  9
$DIMTM
 40
0.0
  9
$DIMTXT
 40
2.5
  9
$DIMCEN
 40
2.5
  9
$DIMTSZ
 40
0.0
  9
$DIMTOL
 70
     0
  9
$DIMLIM
 70
     0
  9
$DIMTIH
 70
     0
  9
$DIMTOH
 70
     0
  9
$DIMSE1
 70
     0
  9
$DIMSE2
 70
     0
  9
$DIMTAD
 70
     1
  9
$DIMZIN
 70
     8
  9
$DIMBLK
  1

  9
$DIMASO
 70
     1
  9
$DIMSHO
 70
     1
  9
$DIMPOST
  1

  9
$DIMAPOST
  1

  9
$DIMALT
 70
     0
  9
$DIMALTD
 70
     3
  9
$DIMALTF
 40
0.03937007874016
  9
$DIMLFAC
 40
1.0
  9
$DIMTOFL
 70
     1
  9
$DIMTVP
 40
0.0
  9
$DIMTIX
 70
     0
  9
$DIMSOXD
 70
     0
  9
$DIMSAH
 70
     0
  9
$DIMBLK1
  1

  9
$DIMBLK2
  1

  9
$DIMSTYLE
  2
ISO-25
  9
$DIMCLRD
 70
     0
  9
$DIMCLRE
 70
     0
  9
$DIMCLRT
 70
     0
  9
$DIMTFAC
 40
1.0
  9
$DIMGAP
 40
0.625
  9
$LUNITS
 70
     2
  9
$LUPREC
 70
     4
  9
$SKETCHINC
 40
1.0
  9
$FILLETRAD
 40
10.0
  9
$AUNITS
 70
     0
  9
$AUPREC
 70
     0
  9
$MENU
  1
.
  9
$ELEVATION
 40
0.0
  9
$PELEVATION
 40
0.0
  9
$THICKNESS
 40
0.0
  9
$LIMCHECK
 70
     0
  9
$BLIPMODE
 70
     0
  9
$CHAMFERA
 40
10.0
  9
$CHAMFERB
 40
10.0
  9
$SKPOLY
 70
     0
  9
$TDCREATE
 40
2452048.587873715
  9
$TDUPDATE
 40
2452048.5882588769
  9
$TDINDWG
 40
0.0003855093
  9
$TDUSRTIMER
 40
0.0003855093
  9
$USRTIMER
 70
     1
  9
$ANGBASE
 50
0.0
  9
$ANGDIR
 70
     0
  9
$PDMODE
 70
     0
  9
$PDSIZE
 40
0.0
  9
$PLINEWID
 40
0.0
  9
$COORDS
 70
     1
  9
$SPLFRAME
 70
     0
  9
$SPLINETYPE
 70
     6
  9
$SPLINESEGS
 70
     8
  9
$ATTDIA
 70
     0
  9
$ATTREQ
 70
     1
  9
$HANDLING
 70
-16383
  9
$HANDSEED
  5
E6
  9
$SURFTAB1
 70
     6
  9
$SURFTAB2
 70
     6
  9
$SURFTYPE
 70
     6
  9
$SURFU
 70
     6
  9
$SURFV
 70
     6
  9
$UCSNAME
  2

  9
$UCSORG
 10
0.0
 20
0.0
 30
0.0
  9
$UCSXDIR
 10
1.0
 20
0.0
 30
0.0
  9
$UCSYDIR
 10
0.0
 20
1.0
 30
0.0
  9
$PUCSNAME
  2

  9
$PUCSORG
 10
0.0
 20
0.0
 30
0.0
  9
$PUCSXDIR
 10
1.0
 20
0.0
 30
0.0
  9
$PUCSYDIR
 10
0.0
 20
1.0
 30
0.0
  9
$USERI1
 70
     0
  9
$USERI2
 70
     0
  9
$USERI3
 70
     0
  9
$USERI4
 70
     0
  9
$USERI5
 70
     0
  9
$USERR1
 40
0.0
  9
$USERR2
 40
0.0
  9
$USERR3
 40
0.0
  9
$USERR4
 40
0.0
  9
$USERR5
 40
0.0
  9
$WORLDVIEW
 70
     1
  9
$SHADEDGE
 70
     3
  9
$SHADEDIF
 70
    70
  9
$TILEMODE
 70
     1
  9
$MAXACTVP
 70
    64
  9
$PLIMCHECK
 70
     0
  9
$PEXTMIN
 10
1.0000000000000000E+020
 20
1.0000000000000000E+020
 30
1.0000000000000000E+020
  9
$PEXTMAX
 10
-1.0000000000000000E+020
 20
-1.0000000000000000E+020
 30
-1.0000000000000000E+020
  9
$PLIMMIN
 10
0.0
 20
0.0
  9
$PLIMMAX
 10
420.0
 20
297.0
  9
$UNITMODE
 70
     0
  9
$VISRETAIN
 70
     1
  9
$PLINEGEN
 70
     0
  9
$PSLTSCALE
 70
     1
  0
ENDSEC
  0
SECTION
  2
TABLES
  0
TABLE
  2
VPORT
 70
     3
  0
VPORT
  2
*ACTIVE
 70
     0
 10
0.0
 20
0.0
 11
1.0
 21
1.0
 12
248.0294117647058
 22
148.5
 13
0.0
 23
0.0
 14
10.0
 24
10.0
 15
10.0
 25
10.0
 16
0.0
 26
0.0
 36
1.0
 17
0.0
 27
0.0
 37
0.0
 40
297.0
 41
1.670231729055258
 42
50.0
 43
0.0
 44
0.0
 50
0.0
 51
0.0
 71
     0
 72
   100
 73
     1
 74
     3
 75
     0
 76
     0
 77
     0
 78
     0
  0
ENDTAB
  0
TABLE
  2
LTYPE
 70
     1
  0
LTYPE
  2
CONTINUOUS
 70
     0
  3
Solid line
 72
    65
 73
     0
 40
0.0
  0
ENDTAB
  0
TABLE
  2
LAYER
 70
     2
  0
LAYER
  2
0
 70
     0
 62
     7
  6
CONTINUOUS
  0
LAYER
  2
1外形線
 70
     0
 62
     3
  6
CONTINUOUS
  0
ENDTAB
  0
TABLE
  2
STYLE
 70
     2
  0
STYLE
  2
STANDARD
 70
     0
 40
0.0
 41
1.0
 50
0.0
 71
     0
 42
2.5
  3
txt
  4

  0
STYLE
  2
KANJI
 70
     0
 40
0.0
 41
1.0
 50
0.0
 71
     0
 42
10.0
  3
simplex
  4
bigfont
  0
ENDTAB
  0
TABLE
  2
VIEW
 70
     0
  0
ENDTAB
  0
TABLE
  2
UCS
 70
     0
  0
ENDTAB
  0
TABLE
  2
APPID
 70
     1
  0
APPID
  2
ACAD
 70
     0
  0
ENDTAB
  0
TABLE
  2
DIMSTYLE
 70
     2
  0
DIMSTYLE
  2
ISO-25
 70
     0
  3

  4

  5

  6

  7

 40
1.0
 41
2.5
 42
0.625
 43
3.75
 44
1.25
 45
0.0
 46
0.0
 47
0.0
 48
0.0
140
2.5
141
2.5
142
0.0
143
0.03937007874016
144
1.0
145
0.0
146
1.0
147
0.625
 71
     0
 72
     0
 73
     0
 74
     0
 75
     0
 76
     0
 77
     1
 78
     8
170
     0
171
     3
172
     1
173
     0
174
     0
175
     0
176
     0
177
     0
178
     0
  0
DIMSTYLE
  2
STANDARD
 70
     0
  3

  4

  5

  6
1
  7
1
 40
1.0
 41
1.0
 42
1.0
 43
6.0
 44
1.0
 45
0.0
 46
0.0
 47
0.0
 48
0.0
140
2.5
141
0.0
142
0.0
143
25.399999999999999
144
1.0
145
0.0
146
1.0
147
0.5
 71
     0
 72
     0
 73
     0
 74
     0
 75
     0
 76
     0
 77
     1
 78
     8
170
     0
171
     2
172
     1
173
     1
174
     0
175
     0
176
     0
177
     0
178
     0
  0
ENDTAB
  0
ENDSEC
  0
SECTION
  2
BLOCKS
  0
BLOCK
  8
0
  2
$MODEL_SPACE
 70
     0
 10
0.0
 20
0.0
 30
0.0
  3
$MODEL_SPACE
  1

  0
ENDBLK
  5
21
  8
0
  0
BLOCK
 67
     1
  8
0
  2
$PAPER_SPACE
 70
     0
 10
0.0
 20
0.0
 30
0.0
  3
$PAPER_SPACE
  1

  0
ENDBLK
  5
1D
 67
     1
  8
0
  0
BLOCK
  8
0
  2
1
 70
     0
 10
0.0
 20
0.0
 30
0.0
  3
1
  1

  0
SOLID
  5
2C
  8
0
  6
BYBLOCK
 62
     0
 10
-1.811110924292052
 20
0.4852857095671653
 30
0.0
 11
-1.811110924292052
 21
-0.4852857095673642
 31
0.0
 12
0.0
 22
0.0
 32
0.0
 13
0.0
 23
0.0
 33
0.0
  0
ENDBLK
  5
2E
  8
0
  0
ENDSEC
  0
SECTION
  2
ENTITIES
  0
LINE
  5
8B
  8
1外形線
 10
149.91426537810381
 20
118.6925472340575
 30
0.0
 11
149.91426537810389
 21
39.899466146264523
 31
0.0
  0
LINE
  5
8C
  8
1外形線
 10
154.91426537810389
 20
118.6925472340575
 30
0.0
 11
154.91426537810389
 21
39.899466146264523
 31
0.0
  0
LINE
  5
8D
  8
1外形線
 10
110.1991277456259
 20
115.69254723405901
 30
0.0
 11
110.1991277456258
 21
79.092547234056894
 31
0.0
  0
LINE
  5
8E
  8
1外形線
 10
61.199127745625503
 20
64.867484419590539
 30
0.0
 11
61.199127745625503
 21
94.9430574912748
 31
0.0
  0
LINE
  5
8F
  8
1外形線
 10
60.199127745625951
 20
64.867484419590767
 30
0.0
 11
60.199127745625503
 21
94.9430574912748
 31
0.0
  0
LINE
  5
90
  8
1外形線
 10
39.399127745625769
 20
51.388815867686077
 30
0.0
 11
39.399127745625997
 21
88.892547234057673
 31
0.0
  0
ARC
  5
91
  8
1外形線
 10
106.702859111999
 20
106.0925472340584
 30
0.0
 40
30.0
 50
270.0
 51
275.71059313750101
  0
LINE
  5
92
  8
1外形線
 10
42.399127745624753
 20
47.892547234057531
 30
0.0
 11
78.999127745626595
 21
47.892547234057531
 31
0.0
  0
CIRCLE
  5
93
  8
1外形線
 10
60.699127745625503
 20
59.892547234057531
 30
0.0
 40
2.1000000000000001
  0
CIRCLE
  5
94
  8
1外形線
 10
60.699127745625503
 20
59.892547234057531
 30
0.0
 40
3.6000000000000001
  0
CIRCLE
  5
95
  8
1外形線
 10
60.699127745625503
 20
59.892547234057531
 30
0.0
 40
5.0
  0
LINE
  5
96
  8
1外形線
 10
39.548012039326117
 20
48.403704297055498
 30
0.0
 11
40.309078117528031
 21
40.793043515036942
 31
0.0
  0
ARC
  5
97
  8
1外形線
 10
41.199127745624359
 20
40.099466146264596
 30
0.0
 40
0.2
 50
262.45906757261611
 51
0.0
  0
ARC
  5
98
  8
1外形線
 10
41.304115307738073
 20
40.892547234057893
 30
0.0
 40
1.0
 50
185.71059313750061
 51
262.4590675726156
  0
LINE
  5
99
  8
1外形線
 10
41.399127745624753
 20
46.892547234057588
 30
0.0
 11
41.399127745624412
 21
40.099466146264596
 31
0.0
  0
ARC
  5
9A
  8
1外形線
 10
42.399127745624753
 20
46.892547234057531
 30
0.0
 40
1.0
 50
90.0
 51
179.9999999999967
  0
ARC
  5
9B
  8
1外形線
 10
69.399127745625776
 20
51.388815867685963
 30
0.0
 40
30.0
 50
180.0
 51
185.71059313750061
  0
LINE
  5
9C
  8
1外形線
 10
43.09912774562536
 20
68.892547234057588
 30
0.0
 11
43.09912774562536
 21
58.892547234057588
 31
0.0
  0
LINE
  5
9D
  8
1外形線
 10
41.899127745625307
 20
68.892547234057588
 30
0.0
 11
41.899127745625428
 21
58.892547234057588
 31
0.0
  0
LINE
  5
9E
  8
1外形線
 10
41.899127745625428
 20
58.892547234057588
 30
0.0
 11
43.099127745625708
 21
58.892547234057588
 31
0.0
  0
ARC
  5
9F
  8
1外形線
 10
60.699127745625731
 20
49.392547234057588
 30
0.0
 40
0.4999999999999006
 50
180.00000000000321
 51
0.0
  0
LINE
  5
A0
  8
1外形線
 10
61.19912774562561
 20
49.392547234057609
 30
0.0
 11
61.199127745625503
 21
54.917610048524523
 31
0.0
  0
LINE
  5
A1
  8
1外形線
 10
60.199127745625951
 20
49.392547234057588
 30
0.0
 11
60.199127745625951
 21
54.917610048524288
 31
0.0
  0
LINE
  5
A2
  8
1外形線
 10
41.899127745625307
 20
68.892547234057588
 30
0.0
 11
43.099127745625708
 21
68.892547234057588
 31
0.0
  0
LINE
  5
A3
  8
1外形線
 10
81.850243451924428
 20
48.403704297053679
 30
0.0
 11
81.089177373722634
 21
40.793043515036771
 31
0.0
  0
ARC
  5
A4
  8
1外形線
 10
80.19912774562664
 20
40.099466146264518
 30
0.0
 40
0.2
 50
180.0
 51
277.54093242739992
  0
ARC
  5
A5
  8
1外形線
 10
80.094140183512593
 20
40.892547234057787
 30
0.0
 40
1.0
 50
277.54093242740362
 51
354.28940686249939
  0
LINE
  5
A6
  8
1外形線
 10
79.999127745626595
 20
46.892547234057531
 30
0.0
 11
79.999127745626595
 21
40.099466146264518
 31
0.0
  0
ARC
  5
A7
  8
1外形線
 10
78.999127745626595
 20
46.892547234057531
 30
0.0
 40
1.0
 50
0.0
 51
90.0
  0
LINE
  5
A8
  8
1外形線
 10
106.702859111999
 20
76.092547234058458
 30
0.0
 11
83.699127745624935
 21
76.092547234058458
 31
0.0
  0
LINE
  5
A9
  8
1外形線
 10
79.499127745625913
 20
68.892547234057702
 30
0.0
 11
79.499127745625913
 21
58.892547234057702
 31
0.0
  0
LINE
  5
AA
  8
1外形線
 10
78.299127745625853
 20
68.892547234057702
 30
0.0
 11
78.299127745625853
 21
58.892547234057702
 31
0.0
  0
LINE
  5
AB
  8
1外形線
 10
81.999127745625003
 20
51.388815867684372
 30
0.0
 11
81.999127745625003
 21
74.392547234058469
 31
0.0
  0
ARC
  5
AC
  8
1外形線
 10
51.999127745625003
 20
51.388815867684428
 30
0.0
 40
30.0
 50
354.28940686249939
 51
0.0
  0
LINE
  5
AD
  8
1外形線
 10
79.499127745625913
 20
58.892547234057702
 30
0.0
 11
78.29912774562564
 21
58.892547234057702
 31
0.0
  0
LINE
  5
AE
  8
1外形線
 10
79.499127745625913
 20
68.892547234057702
 30
0.0
 11
78.29912774562564
 21
68.892547234057702
 31
0.0
  0
ARC
  5
AF
  8
1外形線
 10
83.699127745624935
 20
74.392547234058469
 30
0.0
 40
1.7
 50
90.0
 51
180.0
  0
LINE
  5
B0
  8
1外形線
 10
89.199127745625944
 20
79.792547234057736
 30
0.0
 11
99.199127745625972
 21
79.792547234057736
 31
0.0
  0
LINE
  5
B1
  8
1外形線
 10
89.199127745625944
 20
78.592547234057719
 30
0.0
 11
99.199127745625972
 21
78.592547234057719
 31
0.0
  0
LINE
  5
B2
  8
1外形線
 10
89.199127745625944
 20
78.592547234057719
 30
0.0
 11
89.199127745625944
 21
79.792547234058006
 31
0.0
  0
LINE
  5
B3
  8
1外形線
 10
99.199127745625972
 20
78.592547234057719
 30
0.0
 11
99.199127745625972
 21
79.792547234058006
 31
0.0
  0
LINE
  5
B4
  8
1外形線
 10
149.91426537810389
 20
78.092547234056894
 30
0.0
 11
154.91426537810389
 21
78.092547234056894
 31
0.0
  0
LINE
  5
B5
  8
1外形線
 10
154.91426537810389
 20
76.092547234058458
 30
0.0
 11
149.91426537810389
 21
76.09254723405823
 31
0.0
  0
LINE
  5
B6
  8
1外形線
 10
149.91426537810389
 20
39.899466146264523
 30
0.0
 11
154.91426537810389
 21
39.899466146264523
 31
0.0
  0
LINE
  5
B7
  8
1外形線
 10
149.91426537810389
 20
49.892547234058007
 30
0.0
 11
154.91426537810389
 21
49.892547234058007
 31
0.0
  0
ARC
  5
B8
  8
1外形線
 10
117.1991277456256
 20
77.997534796170697
 30
0.0
 40
1.0
 50
275.71059313750061
 51
352.45906757260411
  0
LINE
  5
B9
  8
1外形線
 10
109.6879706826296
 20
76.241431527758863
 30
0.0
 11
117.2986314646466
 21
77.002497605960713
 31
0.0
  0
LINE
  5
BA
  8
1外形線
 10
111.1991277456258
 20
78.092547234056894
 30
0.0
 11
117.9922088334189
 21
78.092547234056894
 31
0.0
  0
ARC
  5
BB
  8
1外形線
 10
111.1991277456258
 20
79.092547234056894
 30
0.0
 40
1.0
 50
180.0
 51
270.0
  0
ARC
  5
BC
  8
1外形線
 10
117.9922088334189
 20
77.892547234056906
 30
0.0
 40
0.2
 50
352.45906757260411
 51
90.0
  0
LINE
  5
BD
  8
1外形線
 10
147.91426537810389
 20
67.89254723405756
 30
0.0
 11
147.91426537810389
 21
59.89254723405756
 31
0.0
  0
ARC
  5
BE
  8
1外形線
 10
148.91426537810369
 20
59.89254723405756
 30
0.0
 40
1.0
 50
180.0
 51
270.0
  0
LINE
  5
BF
  8
1外形線
 10
148.91426537810389
 20
58.892547234057552
 30
0.0
 11
149.91426537810389
 21
58.892547234057552
 31
0.0
  0
ARC
  5
C0
  8
1外形線
 10
148.91426537810369
 20
67.89254723405756
 30
0.0
 40
1.0
 50
90.0
 51
180.0
  0
LINE
  5
C1
  8
1外形線
 10
148.91426537810389
 20
68.892547234057545
 30
0.0
 11
149.91426537810389
 21
68.892547234057545
 31
0.0
  0
LINE
  5
C2
  8
1外形線
 10
147.91426537810389
 20
79.792547234057622
 30
0.0
 11
147.91426537810389
 21
78.592547234057889
 31
0.0
  0
LINE
  5
C3
  8
1外形線
 10
147.91426537810389
 20
78.592547234057889
 30
0.0
 11
149.91426537810381
 21
78.592547234057633
 31
0.0
  0
LINE
  5
C4
  8
1外形線
 10
147.91426537810389
 20
79.792547234057849
 30
0.0
 11
149.91426537810389
 21
79.792547234057622
 31
0.0
  0
ARC
  5
C5
  8
1外形線
 10
106.7028591119975
 20
88.692547234057585
 30
0.0
 40
30.0
 50
84.289406862498979
 51
90.0
  0
LINE
  5
C6
  8
1外形線
 10
108.699127745626
 20
97.892547234057787
 30
0.0
 11
103.1740649311589
 21
97.892547234057986
 31
0.0
  0
LINE
  5
C7
  8
1外形線
 10
108.699127745626
 20
96.892547234057986
 30
0.0
 11
103.1740649311589
 21
96.892547234057986
 31
0.0
  0
ARC
  5
C8
  8
1外形線
 10
69.699127745625844
 20
88.392547234057574
 30
0.0
 40
30.300000000000001
 50
90.0
 51
180.0
  0
CIRCLE
  5
C9
  8
1外形線
 10
60.699127745625503
 20
97.392547234058
 30
0.0
 40
2.5
  0
LINE
  5
CA
  8
1外形線
 10
93.224190560092936
 20
97.892547234057986
 30
0.0
 11
63.148617488408661
 21
97.892547234057986
 31
0.0
  0
LINE
  5
CB
  8
1外形線
 10
93.224190560092936
 20
96.892547234057986
 30
0.0
 11
63.148617488408661
 21
96.892547234057986
 31
0.0
  0
CIRCLE
  5
CC
  8
1外形線
 10
98.199127745625944
 20
97.392547234058
 30
0.0
 40
3.6000000000000001
  0
CIRCLE
  5
CD
  8
1外形線
 10
98.199127745625944
 20
97.392547234058
 30
0.0
 40
5.0
  0
CIRCLE
  5
CE
  8
1外形線
 10
98.199127745625944
 20
97.392547234058
 30
0.0
 40
2.1000000000000001
  0
LINE
  5
CF
  8
1外形線
 10
106.7028591119975
 20
118.6925472340575
 30
0.0
 11
69.199127745625844
 21
118.6925472340575
 31
0.0
  0
LINE
  5
D0
  8
1外形線
 10
89.199127745625944
 20
116.1925472340582
 30
0.0
 11
99.199127745625972
 21
116.1925472340582
 31
0.0
  0
LINE
  5
D1
  8
1外形線
 10
89.199127745625944
 20
114.99254723405819
 30
0.0
 11
99.199127745625972
 21
114.99254723405819
 31
0.0
  0
LINE
  5
D2
  8
1外形線
 10
89.199127745625944
 20
116.1925472340582
 30
0.0
 11
89.199127745625944
 21
114.99254723405789
 31
0.0
  0
LINE
  5
D3
  8
1外形線
 10
99.199127745625972
 20
116.1925472340582
 30
0.0
 11
99.199127745625972
 21
114.99254723405789
 31
0.0
  0
LINE
  5
D4
  8
1外形線
 10
149.91426537810389
 20
116.69254723405901
 30
0.0
 11
154.91426537810409
 21
116.69254723405879
 31
0.0
  0
LINE
  5
D5
  8
1外形線
 10
154.91426537810389
 20
118.6925472340575
 30
0.0
 11
149.91426537810389
 21
118.6925472340575
 31
0.0
  0
ARC
  5
D6
  8
1外形線
 10
108.699127745626
 20
97.392547234057915
 30
0.0
 40
0.4999999999999006
 50
270.0
 51
89.999999999996746
  0
ARC
  5
D7
  8
1外形線
 10
117.1991277456256
 20
116.7875596719452
 30
0.0
 40
1.0
 50
7.5409324273958473
 51
84.289406862498979
  0
LINE
  5
D8
  8
1外形線
 10
109.68797068262801
 20
118.54366294035709
 30
0.0
 11
117.2986314646466
 21
117.7825968621552
 31
0.0
  0
LINE
  5
D9
  8
1外形線
 10
111.1991277456259
 20
116.69254723405901
 30
0.0
 11
117.9922088334189
 21
116.69254723405901
 31
0.0
  0
ARC
  5
DA
  8
1外形線
 10
111.1991277456259
 20
115.69254723405901
 30
0.0
 40
1.0
 50
90.0
 51
180.0
  0
ARC
  5
DB
  8
1外形線
 10
117.9922088334189
 20
116.89254723405899
 30
0.0
 40
0.2
 50
270.0
 51
7.5409324273958473
  0
LINE
  5
DC
  8
1外形線
 10
147.91426537810389
 20
114.99254723405831
 30
0.0
 11
147.91426537810389
 21
116.192547234058
 31
0.0
  0
LINE
  5
DD
  8
1外形線
 10
147.91426537810389
 20
114.99254723405809
 30
0.0
 11
149.91426537810389
 21
114.99254723405831
 31
0.0
  0
LINE
  5
DE
  8
1外形線
 10
147.91426537810389
 20
116.192547234058
 30
0.0
 11
149.91426537810381
 21
116.1925472340583
 31
0.0
  0
ENDSEC
  0
EOF
