  0
SECTION
  2
HEADER
  9
$ACADVER
  1
AC1009
  9
$INSBASE
 10
0.0
 20
0.0
 30
0.0
  9
$EXTMIN
 10
20.717761997079091
 20
-25.750029856048059
 30
-0.0015258207003583
  9
$EXTMAX
 10
615.43703137683963
 20
408.08463664145091
 30
0.0000000349246037
  9
$LIMMIN
 10
0.0
 20
0.0
  9
$LIMMAX
 10
420.0
 20
297.0
  9
$ORTHOMODE
 70
     0
  9
$REGENMODE
 70
     1
  9
$FILLMODE
 70
     1
  9
$QTEXTMODE
 70
     0
  9
$MIRRTEXT
 70
     1
  9
$DRAGMODE
 70
     2
  9
$LTSCALE
 40
1.0
  9
$OSMODE
 70
    37
  9
$ATTMODE
 70
     1
  9
$TEXTSIZE
 40
2.5
  9
$TRACEWID
 40
1.0
  9
$TEXTSTYLE
  7
STANDARD
  9
$CLAYER
  8
0
  9
$CELTYPE
  6
BYLAYER
  9
$CECOLOR
 62
   256
  9
$DIMSCALE
 40
1.0
  9
$DIMASZ
 40
2.5
  9
$DIMEXO
 40
0.625
  9
$DIMDLI
 40
3.75
  9
$DIMRND
 40
0.0
  9
$DIMDLE
 40
0.0
  9
$DIMEXE
 40
1.25
  9
$DIMTP
 40
0.0
  9
$DIMTM
 40
0.0
  9
$DIMTXT
 40
2.5
  9
$DIMCEN
 40
2.5
  9
$DIMTSZ
 40
0.0
  9
$DIMTOL
 70
     0
  9
$DIMLIM
 70
     0
  9
$DIMTIH
 70
     0
  9
$DIMTOH
 70
     0
  9
$DIMSE1
 70
     0
  9
$DIMSE2
 70
     0
  9
$DIMTAD
 70
     1
  9
$DIMZIN
 70
     8
  9
$DIMBLK
  1

  9
$DIMASO
 70
     1
  9
$DIMSHO
 70
     1
  9
$DIMPOST
  1

  9
$DIMAPOST
  1

  9
$DIMALT
 70
     0
  9
$DIMALTD
 70
     3
  9
$DIMALTF
 40
0.03937007874016
  9
$DIMLFAC
 40
1.0
  9
$DIMTOFL
 70
     1
  9
$DIMTVP
 40
0.0
  9
$DIMTIX
 70
     0
  9
$DIMSOXD
 70
     0
  9
$DIMSAH
 70
     0
  9
$DIMBLK1
  1

  9
$DIMBLK2
  1

  9
$DIMSTYLE
  2
ISO-25
  9
$DIMCLRD
 70
     0
  9
$DIMCLRE
 70
     0
  9
$DIMCLRT
 70
     0
  9
$DIMTFAC
 40
1.0
  9
$DIMGAP
 40
0.625
  9
$LUNITS
 70
     2
  9
$LUPREC
 70
     4
  9
$SKETCHINC
 40
1.0
  9
$FILLETRAD
 40
10.0
  9
$AUNITS
 70
     0
  9
$AUPREC
 70
     0
  9
$MENU
  1
.
  9
$ELEVATION
 40
0.0
  9
$PELEVATION
 40
0.0
  9
$THICKNESS
 40
0.0
  9
$LIMCHECK
 70
     0
  9
$BLIPMODE
 70
     0
  9
$CHAMFERA
 40
10.0
  9
$CHAMFERB
 40
10.0
  9
$SKPOLY
 70
     0
  9
$TDCREATE
 40
2452048.587873715
  9
$TDUPDATE
 40
2452048.6150880782
  9
$TDINDWG
 40
0.0272166782
  9
$TDUSRTIMER
 40
0.0272166782
  9
$USRTIMER
 70
     1
  9
$ANGBASE
 50
0.0
  9
$ANGDIR
 70
     0
  9
$PDMODE
 70
     0
  9
$PDSIZE
 40
0.0
  9
$PLINEWID
 40
0.0
  9
$COORDS
 70
     1
  9
$SPLFRAME
 70
     0
  9
$SPLINETYPE
 70
     6
  9
$SPLINESEGS
 70
     8
  9
$ATTDIA
 70
     0
  9
$ATTREQ
 70
     1
  9
$HANDLING
 70
-16383
  9
$HANDSEED
  5
669B
  9
$SURFTAB1
 70
     6
  9
$SURFTAB2
 70
     6
  9
$SURFTYPE
 70
     6
  9
$SURFU
 70
     6
  9
$SURFV
 70
     6
  9
$UCSNAME
  2

  9
$UCSORG
 10
0.0
 20
0.0
 30
0.0
  9
$UCSXDIR
 10
1.0
 20
0.0
 30
0.0
  9
$UCSYDIR
 10
0.0
 20
1.0
 30
0.0
  9
$PUCSNAME
  2

  9
$PUCSORG
 10
0.0
 20
0.0
 30
0.0
  9
$PUCSXDIR
 10
1.0
 20
0.0
 30
0.0
  9
$PUCSYDIR
 10
0.0
 20
1.0
 30
0.0
  9
$USERI1
 70
     0
  9
$USERI2
 70
     0
  9
$USERI3
 70
     0
  9
$USERI4
 70
     0
  9
$USERI5
 70
     0
  9
$USERR1
 40
0.0
  9
$USERR2
 40
0.0
  9
$USERR3
 40
0.0
  9
$USERR4
 40
0.0
  9
$USERR5
 40
0.0
  9
$WORLDVIEW
 70
     1
  9
$SHADEDGE
 70
     3
  9
$SHADEDIF
 70
    70
  9
$TILEMODE
 70
     1
  9
$MAXACTVP
 70
    64
  9
$PLIMCHECK
 70
     0
  9
$PEXTMIN
 10
1.0000000000000000E+020
 20
1.0000000000000000E+020
 30
1.0000000000000000E+020
  9
$PEXTMAX
 10
-1.0000000000000000E+020
 20
-1.0000000000000000E+020
 30
-1.0000000000000000E+020
  9
$PLIMMIN
 10
0.0
 20
0.0
  9
$PLIMMAX
 10
420.0
 20
297.0
  9
$UNITMODE
 70
     0
  9
$VISRETAIN
 70
     1
  9
$PLINEGEN
 70
     0
  9
$PSLTSCALE
 70
     1
  0
ENDSEC
  0
SECTION
  2
TABLES
  0
TABLE
  2
VPORT
 70
    49
  0
VPORT
  2
*ACTIVE
 70
     0
 10
0.0
 20
0.0
 11
1.0
 21
1.0
 12
243.19809294536361
 22
20.724196922940902
 13
0.0
 23
0.0
 14
10.0
 24
10.0
 15
10.0
 25
10.0
 16
0.0
 26
0.0
 36
1.0
 17
0.0
 27
0.0
 37
0.0
 40
1137.7171551220929
 41
0.8452830188679245
 42
50.0
 43
0.0
 44
0.0
 50
0.0
 51
0.0
 71
     0
 72
   100
 73
     1
 74
     3
 75
     0
 76
     0
 77
     0
 78
     0
  0
ENDTAB
  0
TABLE
  2
LTYPE
 70
     1
  0
LTYPE
  2
CONTINUOUS
 70
     0
  3
Solid line
 72
    65
 73
     0
 40
0.0
  0
ENDTAB
  0
TABLE
  2
LAYER
 70
     3
  0
LAYER
  2
0
 70
     0
 62
     7
  6
CONTINUOUS
  0
LAYER
  2
1外形線
 70
     0
 62
     3
  6
CONTINUOUS
  0
LAYER
  2
4太線
 70
     0
 62
     6
  6
CONTINUOUS
  0
ENDTAB
  0
TABLE
  2
STYLE
 70
     2
  0
STYLE
  2
STANDARD
 70
     0
 40
0.0
 41
1.0
 50
0.0
 71
     0
 42
2.5
  3
txt
  4

  0
STYLE
  2
KANJI
 70
     0
 40
0.0
 41
1.0
 50
0.0
 71
     0
 42
10.0
  3
simplex
  4
bigfont
  0
ENDTAB
  0
TABLE
  2
VIEW
 70
     0
  0
ENDTAB
  0
TABLE
  2
UCS
 70
     0
  0
ENDTAB
  0
TABLE
  2
APPID
 70
     1
  0
APPID
  2
ACAD
 70
     0
  0
ENDTAB
  0
TABLE
  2
DIMSTYLE
 70
     2
  0
DIMSTYLE
  2
ISO-25
 70
     0
  3

  4

  5

  6

  7

 40
1.0
 41
2.5
 42
0.625
 43
3.75
 44
1.25
 45
0.0
 46
0.0
 47
0.0
 48
0.0
140
2.5
141
2.5
142
0.0
143
0.03937007874016
144
1.0
145
0.0
146
1.0
147
0.625
 71
     0
 72
     0
 73
     0
 74
     0
 75
     0
 76
     0
 77
     1
 78
     8
170
     0
171
     3
172
     1
173
     0
174
     0
175
     0
176
     0
177
     0
178
     0
  0
DIMSTYLE
  2
STANDARD
 70
     0
  3

  4

  5

  6
1
  7
1
 40
1.0
 41
1.0
 42
1.0
 43
6.0
 44
1.0
 45
0.0
 46
0.0
 47
0.0
 48
0.0
140
2.5
141
0.0
142
0.0
143
25.399999999999999
144
1.0
145
0.0
146
1.0
147
0.5
 71
     0
 72
     0
 73
     0
 74
     0
 75
     0
 76
     0
 77
     1
 78
     8
170
     0
171
     2
172
     1
173
     1
174
     0
175
     0
176
     0
177
     0
178
     0
  0
ENDTAB
  0
ENDSEC
  0
SECTION
  2
BLOCKS
  0
BLOCK
  8
0
  2
$MODEL_SPACE
 70
     0
 10
0.0
 20
0.0
 30
0.0
  3
$MODEL_SPACE
  1

  0
ENDBLK
  5
21
  8
0
  0
BLOCK
 67
     1
  8
0
  2
$PAPER_SPACE
 70
     0
 10
0.0
 20
0.0
 30
0.0
  3
$PAPER_SPACE
  1

  0
ENDBLK
  5
1D
 67
     1
  8
0
  0
BLOCK
  8
0
  2
1
 70
     0
 10
0.0
 20
0.0
 30
0.0
  3
1
  1

  0
SOLID
  5
2C
  8
0
  6
BYBLOCK
 62
     0
 10
-1.811110924292052
 20
0.4852857095671653
 30
0.0
 11
-1.811110924292052
 21
-0.4852857095673642
 31
0.0
 12
0.0
 22
0.0
 32
0.0
 13
0.0
 23
0.0
 33
0.0
  0
ENDBLK
  5
2E
  8
0
  0
ENDSEC
  0
SECTION
  2
ENTITIES
  0
LINE
  5
6641
  8
1外形線
 10
108.1544264575637
 20
95.347902646495356
 30
0.0
 11
108.1544264575637
 21
58.747902646493174
 31
0.0
  0
ARC
  5
6642
  8
1外形線
 10
46.254426457563909
 20
59.047902646494492
 30
0.0
 40
2.5
 50
90.0
 51
270.0
  0
ARC
  5
6643
  8
1外形線
 10
51.054426457564091
 20
59.047902646494492
 30
0.0
 40
2.5
 50
270.0
 51
90.0
  0
LINE
  5
6644
  8
1外形線
 10
31.154426457564
 20
52.347902646494333
 30
0.0
 11
31.154426457563648
 21
101.7479026464941
 31
0.0
  0
LINE
  5
6645
  8
1外形線
 10
94.289052534654616
 20
54.517565122346213
 30
0.0
 11
88.045439030008197
 21
51.973870731564318
 31
0.0
  0
LINE
  5
6646
  8
1外形線
 10
31.154426457564
 20
22.866790599430601
 30
0.0
 11
116.1277181873739
 21
22.866790599430601
 31
0.0
  0
LINE
  5
6647
  8
1外形線
 10
31.154426457564
 20
27.86679059943063
 30
0.0
 11
116.1277181873732
 21
27.86679059943063
 31
0.0
  0
LINE
  5
6648
  8
1外形線
 10
33.154426457563773
 20
50.347902646494298
 30
0.0
 11
79.744907509110703
 21
50.347902646494298
 31
0.0
  0
LINE
  5
6649
  8
1外形線
 10
31.154426457564
 20
22.866790599430601
 30
0.0
 11
31.154426457564
 21
27.86679059943063
 31
0.0
  0
ARC
  5
664A
  8
1外形線
 10
33.154426457563773
 20
52.347902646494362
 30
0.0
 40
2.0
 50
180.0
 51
270.0000000000008
  0
ARC
  5
664B
  8
1外形線
 10
71.354426457563932
 20
28.866790599430662
 30
0.0
 40
1.0
 50
0.0000000000081422
 51
90.0
  0
ARC
  5
664C
  8
1外形線
 10
59.154426457564107
 20
28.866790599430662
 30
0.0
 40
1.0
 50
90.0
 51
180.0000000000081
  0
LINE
  5
664D
  8
1外形線
 10
58.154426457564227
 20
27.86679059943063
 30
0.0
 11
58.154426457564107
 21
28.866790599430509
 31
0.0
  0
LINE
  5
664E
  8
1外形線
 10
72.354426457564045
 20
27.86679059943063
 30
0.0
 11
72.354426457563932
 21
28.8667905994308
 31
0.0
  0
LINE
  5
664F
  8
1外形線
 10
84.054426457563636
 20
27.866790599430601
 30
0.0
 11
84.054426457563849
 21
22.866790599430601
 31
0.0
  0
LINE
  5
6650
  8
1外形線
 10
58.154426457563773
 20
52.647902646494231
 30
0.0
 11
72.354426457563591
 21
52.647902646494138
 31
0.0
  0
LINE
  5
6651
  8
1外形線
 10
58.154426457563552
 20
54.147902646494252
 30
0.0
 11
72.354426457563363
 21
54.147902646494202
 31
0.0
  0
LINE
  5
6652
  8
1外形線
 10
59.154426457564107
 20
29.866790599430662
 30
0.0
 11
71.354426457563932
 21
29.866790599430662
 31
0.0
  0
LINE
  5
6653
  8
1外形線
 10
51.054426457564091
 20
56.547902646494492
 30
0.0
 11
46.254426457563909
 21
56.547902646494492
 31
0.0
  0
LINE
  5
6654
  8
1外形線
 10
58.154426457563773
 20
52.647902646494231
 30
0.0
 11
58.154426457563552
 21
54.147902646494252
 31
0.0
  0
LINE
  5
6655
  8
1外形線
 10
72.354426457563591
 20
52.647902646494167
 30
0.0
 11
72.354426457563363
 21
54.147902646494231
 31
0.0
  0
ARC
  5
6656
  8
1外形線
 10
79.744907509110703
 20
72.347902646494305
 30
0.0
 40
22.0
 50
270.0
 51
292.16634582208292
  0
LINE
  5
6657
  8
1外形線
 10
143.1710290858847
 20
27.866790599430601
 30
0.0
 11
196.57102908588499
 21
27.866790599430601
 31
0.0
  0
LINE
  5
6658
  8
1外形線
 10
143.17102908588441
 20
22.866790599430601
 30
0.0
 11
196.57102908588499
 21
22.866790599430601
 31
0.0
  0
LINE
  5
6659
  8
1外形線
 10
97.554426457563636
 20
27.86679059943063
 30
0.0
 11
97.554426457563409
 21
22.866790599430569
 31
0.0
  0
LINE
  5
665A
  8
1外形線
 10
116.1277181873739
 20
27.86679059943063
 30
0.0
 11
116.1277181873739
 21
22.866790599430601
 31
0.0
  0
LINE
  5
665B
  8
1外形線
 10
107.6432693945677
 20
55.996786940194681
 30
0.0
 11
115.2539301765847
 21
56.757853018396588
 31
0.0
  0
LINE
  5
665C
  8
1外形線
 10
109.1544264575637
 20
57.747902646493174
 30
0.0
 11
115.9277181873739
 21
57.747902646493174
 31
0.0
  0
LINE
  5
665D
  8
1外形線
 10
104.6581578239371
 20
55.847902646494447
 30
0.0
 11
101.0803965062981
 21
55.847902646494447
 31
0.0
  0
ARC
  5
665E
  8
1外形線
 10
101.0803965062981
 20
37.84790264649444
 30
0.0
 40
18.0
 50
90.0
 51
112.1663458220829
  0
ARC
  5
665F
  8
1外形線
 10
104.6581578239371
 20
85.847902646494319
 30
0.0
 40
30.0
 50
270.0
 51
275.71059313750072
  0
ARC
  5
6660
  8
1外形線
 10
109.1544264575637
 20
58.747902646493174
 30
0.0
 40
1.0
 50
180.0
 51
270.0
  0
ARC
  5
6661
  8
1外形線
 10
115.1544264575637
 20
57.75289020860663
 30
0.0
 40
1.0
 50
275.71059313750101
 51
345.15325541949272
  0
ARC
  5
6662
  8
1外形線
 10
115.9277181873739
 20
57.547902646493192
 30
0.0
 40
0.2
 50
345.15325541949602
 51
90.0
  0
LINE
  5
6663
  8
1外形線
 10
145.77102908588481
 20
29.866790599430711
 30
0.0
 11
145.77102908588481
 21
27.866790599430711
 31
0.0
  0
LINE
  5
6664
  8
1外形線
 10
146.97102908588479
 20
29.866790599430601
 30
0.0
 11
146.9710290858846
 21
27.866790599430601
 31
0.0
  0
LINE
  5
6665
  8
1外形線
 10
143.17102908588441
 20
22.866790599430601
 30
0.0
 11
143.1710290858847
 21
27.866790599430601
 31
0.0
  0
LINE
  5
6666
  8
1外形線
 10
148.6710290858849
 20
22.866790599430601
 30
0.0
 11
148.6710290858849
 21
27.866790599430601
 31
0.0
  0
LINE
  5
6667
  8
1外形線
 10
150.57102908588359
 20
22.866790599430601
 30
0.0
 11
150.57102908588359
 21
27.866790599430601
 31
0.0
  0
LINE
  5
6668
  8
1外形線
 10
146.97102908588479
 20
29.866790599430711
 30
0.0
 11
145.77102908588481
 21
29.866790599430711
 31
0.0
  0
LINE
  5
6669
  8
1外形線
 10
192.77102908588429
 20
29.866790599430601
 30
0.0
 11
192.77102908588481
 21
27.866790599430601
 31
0.0
  0
LINE
  5
666A
  8
1外形線
 10
193.9710290858846
 20
29.866790599430711
 30
0.0
 11
193.9710290858846
 21
27.866790599430711
 31
0.0
  0
LINE
  5
666B
  8
1外形線
 10
191.0710290858845
 20
22.866790599430601
 30
0.0
 11
191.0710290858845
 21
27.866790599430601
 31
0.0
  0
LINE
  5
666C
  8
1外形線
 10
189.17102908588581
 20
22.866790599430601
 30
0.0
 11
189.17102908588581
 21
27.866790599430601
 31
0.0
  0
LINE
  5
666D
  8
1外形線
 10
196.57102908588499
 20
22.866790599430601
 30
0.0
 11
196.5710290858847
 21
27.866790599430601
 31
0.0
  0
LINE
  5
666E
  8
1外形線
 10
192.77102908588461
 20
29.866790599430711
 30
0.0
 11
193.9710290858846
 21
29.866790599430711
 31
0.0
  0
LINE
  5
666F
  8
1外形線
 10
94.289052534654616
 20
99.578240170642289
 30
0.0
 11
88.045439030008197
 21
102.1219345614242
 31
0.0
  0
LINE
  5
6670
  8
1外形線
 10
88.254426457563454
 20
79.547902646494265
 30
0.0
 11
93.054426457563636
 21
79.547902646494265
 31
0.0
  0
LINE
  5
6671
  8
1外形線
 10
93.054426457563636
 20
74.547902646494265
 30
0.0
 11
88.254426457563454
 21
74.547902646494265
 31
0.0
  0
ARC
  5
6672
  8
1外形線
 10
46.254426457563909
 20
95.047902646494038
 30
0.0
 40
2.5
 50
90.0
 51
270.0
  0
LINE
  5
6673
  8
1外形線
 10
64.679489272030764
 20
77.547902646495203
 30
0.0
 11
37.654426457564909
 21
77.54790264649597
 31
0.0
  0
LINE
  5
6674
  8
1外形線
 10
64.679489272030764
 20
76.547902646494123
 30
0.0
 11
37.654426457564909
 21
76.547902646494009
 31
0.0
  0
LINE
  5
6675
  8
1外形線
 10
33.154426457563773
 20
103.7479026464942
 30
0.0
 11
79.744907509110703
 21
103.7479026464942
 31
0.0
  0
ARC
  5
6676
  8
1外形線
 10
37.654426457564909
 20
77.047902646495146
 30
0.0
 40
0.5000000000010516
 50
90.0
 51
270.0
  0
ARC
  5
6677
  8
1外形線
 10
33.154426457563773
 20
101.7479026464941
 30
0.0
 40
2.0
 50
89.999999999999204
 51
180.0
  0
ARC
  5
6678
  8
1外形線
 10
51.054426457564091
 20
95.047902646494038
 30
0.0
 40
2.5
 50
270.0
 51
90.0
  0
CIRCLE
  5
6679
  8
1外形線
 10
69.654426457563773
 20
77.047902646494265
 30
0.0
 40
3.6000000000000001
  0
CIRCLE
  5
667A
  8
1外形線
 10
69.654426457563773
 20
77.047902646494265
 30
0.0
 40
2.1000000000000001
  0
CIRCLE
  5
667B
  8
1外形線
 10
69.654426457563773
 20
77.047902646494265
 30
0.0
 40
5.0
  0
LINE
  5
667C
  8
1外形線
 10
46.254426457563909
 20
61.547902646494492
 30
0.0
 11
51.054426457564091
 21
61.547902646494492
 31
0.0
  0
LINE
  5
667D
  8
1外形線
 10
46.254426457563909
 20
92.547902646494038
 30
0.0
 11
51.054426457564091
 21
92.547902646494038
 31
0.0
  0
ARC
  5
667E
  8
1外形線
 10
88.254426457563454
 20
77.047902646494265
 30
0.0
 40
2.5
 50
90.0
 51
270.0
  0
LINE
  5
667F
  8
1外形線
 10
85.804936714780183
 20
76.547902646494194
 30
0.0
 11
74.629363643096781
 21
76.547902646494151
 31
0.0
  0
LINE
  5
6680
  8
1外形線
 10
85.804936714780183
 20
77.547902646494634
 30
0.0
 11
74.629363643096781
 21
77.547902646494919
 31
0.0
  0
LINE
  5
6681
  8
1外形線
 10
58.154426457563552
 20
99.947902646494313
 30
0.0
 11
72.354426457563363
 21
99.947902646494313
 31
0.0
  0
LINE
  5
6682
  8
1外形線
 10
58.154426457563773
 20
101.4479026464943
 30
0.0
 11
72.354426457563591
 21
101.4479026464943
 31
0.0
  0
LINE
  5
6683
  8
1外形線
 10
51.054426457564091
 20
97.547902646494038
 30
0.0
 11
46.254426457563909
 21
97.547902646494038
 31
0.0
  0
LINE
  5
6684
  8
1外形線
 10
58.154426457563773
 20
101.4479026464943
 30
0.0
 11
58.154426457563552
 21
99.947902646494313
 31
0.0
  0
LINE
  5
6685
  8
1外形線
 10
72.354426457563591
 20
101.4479026464943
 30
0.0
 11
72.354426457563363
 21
99.947902646494313
 31
0.0
  0
ARC
  5
6686
  8
1外形線
 10
79.744907509110703
 20
81.747902646494254
 30
0.0
 40
22.0
 50
67.833654177917055
 51
90.0
  0
ARC
  5
6687
  8
1外形線
 10
79.744907509110703
 20
81.747902646494254
 30
0.0
 40
22.0
 50
67.833654177917055
 51
67.833654177917055
  0
ARC
  5
6688
  8
1外形線
 10
106.6544264575639
 20
77.047902646494151
 30
0.0
 40
0.4999999999999006
 50
270.0
 51
90.0
  0
ARC
  5
6689
  8
1外形線
 10
93.054426457563636
 20
77.047902646494265
 30
0.0
 40
2.5
 50
270.0
 51
90.0
  0
LINE
  5
668A
  8
1外形線
 10
106.6544264575639
 20
76.547902646494265
 30
0.0
 11
95.50391620034668
 21
76.547902646494236
 31
0.0
  0
LINE
  5
668B
  8
1外形線
 10
106.6544264575639
 20
77.547902646494094
 30
0.0
 11
95.50391620034668
 21
77.547902646494379
 31
0.0
  0
LINE
  5
668C
  8
1外形線
 10
109.1544264575637
 20
96.347902646495356
 30
0.0
 11
115.9277181873739
 21
96.347902646495314
 31
0.0
  0
LINE
  5
668D
  8
1外形線
 10
107.6432693945677
 20
98.099018352793735
 30
0.0
 11
115.2539301765847
 21
97.337952274591814
 31
0.0
  0
LINE
  5
668E
  8
1外形線
 10
104.6581578239371
 20
98.247902646494083
 30
0.0
 11
101.0803965062981
 21
98.247902646494083
 31
0.0
  0
ARC
  5
668F
  8
1外形線
 10
101.0803965062981
 20
116.247902646494
 30
0.0
 40
18.0
 50
247.833654177917
 51
270.0
  0
ARC
  5
6690
  8
1外形線
 10
104.6581578239371
 20
68.247902646494083
 30
0.0
 40
30.0
 50
84.289406862499206
 51
90.0
  0
ARC
  5
6691
  8
1外形線
 10
109.1544264575637
 20
95.347902646495356
 30
0.0
 40
1.0
 50
90.0
 51
180.0
  0
ARC
  5
6692
  8
1外形線
 10
115.1544264575637
 20
96.342915084381787
 30
0.0
 40
1.0
 50
14.84674458051578
 51
84.289406862499007
  0
ARC
  5
6693
  8
1外形線
 10
115.9277181873739
 20
96.547902646495345
 30
0.0
 40
0.2
 50
270.0
 51
14.84674458051578
  0
ENDSEC
  0
EOF
