  0
SECTION
  2
HEADER
  9
$ACADVER
  1
AC1009
  9
$INSBASE
 10
0.0
 20
0.0
 30
0.0
  9
$EXTMIN
 10
20.717761997079091
 20
-25.750029856048059
 30
-0.0015258207003583
  9
$EXTMAX
 10
615.43703137683963
 20
408.08463664145091
 30
0.0000000349246037
  9
$LIMMIN
 10
0.0
 20
0.0
  9
$LIMMAX
 10
420.0
 20
297.0
  9
$ORTHOMODE
 70
     0
  9
$REGENMODE
 70
     1
  9
$FILLMODE
 70
     1
  9
$QTEXTMODE
 70
     0
  9
$MIRRTEXT
 70
     1
  9
$DRAGMODE
 70
     2
  9
$LTSCALE
 40
1.0
  9
$OSMODE
 70
    37
  9
$ATTMODE
 70
     1
  9
$TEXTSIZE
 40
2.5
  9
$TRACEWID
 40
1.0
  9
$TEXTSTYLE
  7
STANDARD
  9
$CLAYER
  8
0
  9
$CELTYPE
  6
BYLAYER
  9
$CECOLOR
 62
   256
  9
$DIMSCALE
 40
1.0
  9
$DIMASZ
 40
2.5
  9
$DIMEXO
 40
0.625
  9
$DIMDLI
 40
3.75
  9
$DIMRND
 40
0.0
  9
$DIMDLE
 40
0.0
  9
$DIMEXE
 40
1.25
  9
$DIMTP
 40
0.0
  9
$DIMTM
 40
0.0
  9
$DIMTXT
 40
2.5
  9
$DIMCEN
 40
2.5
  9
$DIMTSZ
 40
0.0
  9
$DIMTOL
 70
     0
  9
$DIMLIM
 70
     0
  9
$DIMTIH
 70
     0
  9
$DIMTOH
 70
     0
  9
$DIMSE1
 70
     0
  9
$DIMSE2
 70
     0
  9
$DIMTAD
 70
     1
  9
$DIMZIN
 70
     8
  9
$DIMBLK
  1

  9
$DIMASO
 70
     1
  9
$DIMSHO
 70
     1
  9
$DIMPOST
  1

  9
$DIMAPOST
  1

  9
$DIMALT
 70
     0
  9
$DIMALTD
 70
     3
  9
$DIMALTF
 40
0.03937007874016
  9
$DIMLFAC
 40
1.0
  9
$DIMTOFL
 70
     1
  9
$DIMTVP
 40
0.0
  9
$DIMTIX
 70
     0
  9
$DIMSOXD
 70
     0
  9
$DIMSAH
 70
     0
  9
$DIMBLK1
  1

  9
$DIMBLK2
  1

  9
$DIMSTYLE
  2
ISO-25
  9
$DIMCLRD
 70
     0
  9
$DIMCLRE
 70
     0
  9
$DIMCLRT
 70
     0
  9
$DIMTFAC
 40
1.0
  9
$DIMGAP
 40
0.625
  9
$LUNITS
 70
     2
  9
$LUPREC
 70
     4
  9
$SKETCHINC
 40
1.0
  9
$FILLETRAD
 40
10.0
  9
$AUNITS
 70
     0
  9
$AUPREC
 70
     0
  9
$MENU
  1
.
  9
$ELEVATION
 40
0.0
  9
$PELEVATION
 40
0.0
  9
$THICKNESS
 40
0.0
  9
$LIMCHECK
 70
     0
  9
$BLIPMODE
 70
     0
  9
$CHAMFERA
 40
10.0
  9
$CHAMFERB
 40
10.0
  9
$SKPOLY
 70
     0
  9
$TDCREATE
 40
2452048.587873715
  9
$TDUPDATE
 40
2452048.615321632
  9
$TDINDWG
 40
0.0274502315
  9
$TDUSRTIMER
 40
0.0274502315
  9
$USRTIMER
 70
     1
  9
$ANGBASE
 50
0.0
  9
$ANGDIR
 70
     0
  9
$PDMODE
 70
     0
  9
$PDSIZE
 40
0.0
  9
$PLINEWID
 40
0.0
  9
$COORDS
 70
     1
  9
$SPLFRAME
 70
     0
  9
$SPLINETYPE
 70
     6
  9
$SPLINESEGS
 70
     8
  9
$ATTDIA
 70
     0
  9
$ATTREQ
 70
     1
  9
$HANDLING
 70
-16383
  9
$HANDSEED
  5
674C
  9
$SURFTAB1
 70
     6
  9
$SURFTAB2
 70
     6
  9
$SURFTYPE
 70
     6
  9
$SURFU
 70
     6
  9
$SURFV
 70
     6
  9
$UCSNAME
  2

  9
$UCSORG
 10
0.0
 20
0.0
 30
0.0
  9
$UCSXDIR
 10
1.0
 20
0.0
 30
0.0
  9
$UCSYDIR
 10
0.0
 20
1.0
 30
0.0
  9
$PUCSNAME
  2

  9
$PUCSORG
 10
0.0
 20
0.0
 30
0.0
  9
$PUCSXDIR
 10
1.0
 20
0.0
 30
0.0
  9
$PUCSYDIR
 10
0.0
 20
1.0
 30
0.0
  9
$USERI1
 70
     0
  9
$USERI2
 70
     0
  9
$USERI3
 70
     0
  9
$USERI4
 70
     0
  9
$USERI5
 70
     0
  9
$USERR1
 40
0.0
  9
$USERR2
 40
0.0
  9
$USERR3
 40
0.0
  9
$USERR4
 40
0.0
  9
$USERR5
 40
0.0
  9
$WORLDVIEW
 70
     1
  9
$SHADEDGE
 70
     3
  9
$SHADEDIF
 70
    70
  9
$TILEMODE
 70
     1
  9
$MAXACTVP
 70
    64
  9
$PLIMCHECK
 70
     0
  9
$PEXTMIN
 10
1.0000000000000000E+020
 20
1.0000000000000000E+020
 30
1.0000000000000000E+020
  9
$PEXTMAX
 10
-1.0000000000000000E+020
 20
-1.0000000000000000E+020
 30
-1.0000000000000000E+020
  9
$PLIMMIN
 10
0.0
 20
0.0
  9
$PLIMMAX
 10
420.0
 20
297.0
  9
$UNITMODE
 70
     0
  9
$VISRETAIN
 70
     1
  9
$PLINEGEN
 70
     0
  9
$PSLTSCALE
 70
     1
  0
ENDSEC
  0
SECTION
  2
TABLES
  0
TABLE
  2
VPORT
 70
    50
  0
VPORT
  2
*ACTIVE
 70
     0
 10
0.0
 20
0.0
 11
1.0
 21
1.0
 12
243.19809294536361
 22
20.724196922940902
 13
0.0
 23
0.0
 14
10.0
 24
10.0
 15
10.0
 25
10.0
 16
0.0
 26
0.0
 36
1.0
 17
0.0
 27
0.0
 37
0.0
 40
1137.7171551220929
 41
0.8452830188679245
 42
50.0
 43
0.0
 44
0.0
 50
0.0
 51
0.0
 71
     0
 72
   100
 73
     1
 74
     3
 75
     0
 76
     0
 77
     0
 78
     0
  0
ENDTAB
  0
TABLE
  2
LTYPE
 70
     1
  0
LTYPE
  2
CONTINUOUS
 70
     0
  3
Solid line
 72
    65
 73
     0
 40
0.0
  0
ENDTAB
  0
TABLE
  2
LAYER
 70
     3
  0
LAYER
  2
0
 70
     0
 62
     7
  6
CONTINUOUS
  0
LAYER
  2
1外形線
 70
     0
 62
     3
  6
CONTINUOUS
  0
LAYER
  2
4太線
 70
     0
 62
     6
  6
CONTINUOUS
  0
ENDTAB
  0
TABLE
  2
STYLE
 70
     2
  0
STYLE
  2
STANDARD
 70
     0
 40
0.0
 41
1.0
 50
0.0
 71
     0
 42
2.5
  3
txt
  4

  0
STYLE
  2
KANJI
 70
     0
 40
0.0
 41
1.0
 50
0.0
 71
     0
 42
10.0
  3
simplex
  4
bigfont
  0
ENDTAB
  0
TABLE
  2
VIEW
 70
     0
  0
ENDTAB
  0
TABLE
  2
UCS
 70
     0
  0
ENDTAB
  0
TABLE
  2
APPID
 70
     1
  0
APPID
  2
ACAD
 70
     0
  0
ENDTAB
  0
TABLE
  2
DIMSTYLE
 70
     2
  0
DIMSTYLE
  2
ISO-25
 70
     0
  3

  4

  5

  6

  7

 40
1.0
 41
2.5
 42
0.625
 43
3.75
 44
1.25
 45
0.0
 46
0.0
 47
0.0
 48
0.0
140
2.5
141
2.5
142
0.0
143
0.03937007874016
144
1.0
145
0.0
146
1.0
147
0.625
 71
     0
 72
     0
 73
     0
 74
     0
 75
     0
 76
     0
 77
     1
 78
     8
170
     0
171
     3
172
     1
173
     0
174
     0
175
     0
176
     0
177
     0
178
     0
  0
DIMSTYLE
  2
STANDARD
 70
     0
  3

  4

  5

  6
1
  7
1
 40
1.0
 41
1.0
 42
1.0
 43
6.0
 44
1.0
 45
0.0
 46
0.0
 47
0.0
 48
0.0
140
2.5
141
0.0
142
0.0
143
25.399999999999999
144
1.0
145
0.0
146
1.0
147
0.5
 71
     0
 72
     0
 73
     0
 74
     0
 75
     0
 76
     0
 77
     1
 78
     8
170
     0
171
     2
172
     1
173
     1
174
     0
175
     0
176
     0
177
     0
178
     0
  0
ENDTAB
  0
ENDSEC
  0
SECTION
  2
BLOCKS
  0
BLOCK
  8
0
  2
$MODEL_SPACE
 70
     0
 10
0.0
 20
0.0
 30
0.0
  3
$MODEL_SPACE
  1

  0
ENDBLK
  5
21
  8
0
  0
BLOCK
 67
     1
  8
0
  2
$PAPER_SPACE
 70
     0
 10
0.0
 20
0.0
 30
0.0
  3
$PAPER_SPACE
  1

  0
ENDBLK
  5
1D
 67
     1
  8
0
  0
BLOCK
  8
0
  2
1
 70
     0
 10
0.0
 20
0.0
 30
0.0
  3
1
  1

  0
SOLID
  5
2C
  8
0
  6
BYBLOCK
 62
     0
 10
-1.811110924292052
 20
0.4852857095671653
 30
0.0
 11
-1.811110924292052
 21
-0.4852857095673642
 31
0.0
 12
0.0
 22
0.0
 32
0.0
 13
0.0
 23
0.0
 33
0.0
  0
ENDBLK
  5
2E
  8
0
  0
ENDSEC
  0
SECTION
  2
ENTITIES
  0
ARC
  5
66F2
  8
1外形線
 10
98.814341637024995
 20
87.038555497991183
 30
0.0
 40
22.0
 50
67.470601997064477
 51
89.999999999999588
  0
LINE
  5
66F3
  8
1外形線
 10
102.44679159922821
 20
78.838555497991251
 30
0.0
 11
83.771218527545116
 21
78.838555497991194
 31
0.0
  0
LINE
  5
66F4
  8
1外形線
 10
102.4467915992285
 20
79.83855549799199
 30
0.0
 11
83.771218527544875
 21
79.838555497992616
 31
0.0
  0
ARC
  5
66F5
  8
1外形線
 10
98.814341637024995
 20
71.638555497991689
 30
0.0
 40
22.0
 50
270.0
 51
292.52939800293552
  0
LINE
  5
66F6
  8
1外形線
 10
33.2962813420122
 20
30.009383871004161
 30
0.0
 11
135.18619805767321
 21
30.009383871004161
 31
0.0
  0
LINE
  5
66F7
  8
1外形線
 10
33.2962813420122
 20
25.009383871004161
 30
0.0
 11
135.18619805767321
 21
25.009383871004161
 31
0.0
  0
CIRCLE
  5
66F8
  8
1外形線
 10
78.79628134201198
 20
79.33855549799091
 30
0.0
 40
2.1000000000000001
  0
CIRCLE
  5
66F9
  8
1外形線
 10
78.79628134201198
 20
79.33855549799091
 30
0.0
 40
3.6000000000000001
  0
CIRCLE
  5
66FA
  8
1外形線
 10
78.79628134201198
 20
79.33855549799091
 30
0.0
 40
5.0
  0
LINE
  5
66FB
  8
1外形線
 10
33.296281342011859
 20
107.0385554979914
 30
0.0
 11
33.296281342012087
 21
51.638555497991462
 31
0.0
  0
LINE
  5
66FC
  8
1外形線
 10
35.296281342012087
 20
49.638555497991462
 30
0.0
 11
98.814341637024995
 21
49.638555497991739
 31
0.0
  0
LINE
  5
66FD
  8
1外形線
 10
73.821344156479086
 20
79.838555497993013
 30
0.0
 11
35.79628134201311
 21
79.838555497994435
 31
0.0
  0
LINE
  5
66FE
  8
1外形線
 10
73.821344156478858
 20
78.838555497991138
 30
0.0
 11
35.79628134201311
 21
78.838555497991024
 31
0.0
  0
LINE
  5
66FF
  8
1外形線
 10
33.2962813420122
 20
30.009383871004161
 30
0.0
 11
33.296281342012087
 21
25.009383871004161
 31
0.0
  0
ARC
  5
6700
  8
1外形線
 10
35.296281342012087
 20
51.638555497991462
 30
0.0
 40
2.0
 50
180.0000000000002
 51
270.0
  0
ARC
  5
6701
  8
1外形線
 10
52.696281342012071
 20
58.338555497991528
 30
0.0
 40
2.5
 50
270.0
 51
90.0
  0
ARC
  5
6702
  8
1外形線
 10
47.896281342011889
 20
58.338555497991528
 30
0.0
 40
2.5
 50
90.0
 51
270.0
  0
LINE
  5
6703
  8
1外形線
 10
52.696281342012071
 20
55.838555497991528
 30
0.0
 11
47.896281342011889
 21
55.838555497991528
 31
0.0
  0
LINE
  5
6704
  8
1外形線
 10
47.896281342011889
 20
60.838555497991528
 30
0.0
 11
52.696281342012071
 21
60.838555497991528
 31
0.0
  0
ARC
  5
6705
  8
1外形線
 10
35.79628134201311
 20
79.338555497992047
 30
0.0
 40
0.5000000000010516
 50
90.0
 51
270.0
  0
LINE
  5
6706
  8
1外形線
 10
63.296281342011291
 20
32.009383871004161
 30
0.0
 11
88.496281342011343
 21
32.009383871004161
 31
0.0
  0
ARC
  5
6707
  8
1外形線
 10
63.296281342011291
 20
31.009383871004161
 30
0.0
 40
1.0
 50
90.0
 51
180.0
  0
LINE
  5
6708
  8
1外形線
 10
62.296281342011298
 20
31.009383871004161
 30
0.0
 11
62.296281342011298
 21
30.009383871004161
 31
0.0
  0
LINE
  5
6709
  8
1外形線
 10
89.496281342011343
 20
31.009383871004161
 30
0.0
 11
89.496281342011343
 21
30.009383871004129
 31
0.0
  0
ARC
  5
670A
  8
1外形線
 10
88.496281342011343
 20
31.009383871004161
 30
0.0
 40
1.0
 50
0.0
 51
90.0
  0
LINE
  5
670B
  8
1外形線
 10
62.296281342011412
 20
53.338555497991358
 30
0.0
 11
89.496281342011343
 21
53.338555497991479
 31
0.0
  0
LINE
  5
670C
  8
1外形線
 10
62.296281342011412
 20
52.138555497991433
 30
0.0
 11
89.496281342011343
 21
52.138555497991341
 31
0.0
  0
LINE
  5
670D
  8
1外形線
 10
62.296281342011412
 20
53.338555497991358
 30
0.0
 11
62.296281342011412
 21
52.138555497991412
 31
0.0
  0
LINE
  5
670E
  8
1外形線
 10
89.496281342011343
 20
53.338555497991358
 30
0.0
 11
89.49628134201123
 21
52.138555497991341
 31
0.0
  0
LINE
  5
670F
  8
1外形線
 10
35.296281342011859
 20
109.0385554979914
 30
0.0
 11
98.814341637024995
 21
109.038555497991
 31
0.0
  0
ARC
  5
6710
  8
1外形線
 10
35.296281342011859
 20
107.0385554979914
 30
0.0
 40
2.0
 50
89.999999999999588
 51
180.0000000000002
  0
LINE
  5
6711
  8
1外形線
 10
52.696281342012071
 20
102.83855549799129
 30
0.0
 11
47.896281342011889
 21
102.83855549799129
 31
0.0
  0
LINE
  5
6712
  8
1外形線
 10
47.896281342011889
 20
97.838555497991308
 30
0.0
 11
52.696281342012071
 21
97.838555497991308
 31
0.0
  0
ARC
  5
6713
  8
1外形線
 10
47.896281342011889
 20
100.33855549799129
 30
0.0
 40
2.5
 50
90.0
 51
270.0
  0
ARC
  5
6714
  8
1外形線
 10
52.696281342012071
 20
100.33855549799129
 30
0.0
 40
2.5
 50
270.0
 51
90.0
  0
LINE
  5
6715
  8
1外形線
 10
62.296281342011412
 20
106.5385554979909
 30
0.0
 11
89.496281342011343
 21
106.538555497991
 31
0.0
  0
LINE
  5
6716
  8
1外形線
 10
62.296281342011412
 20
105.338555497991
 30
0.0
 11
89.496281342011343
 21
105.3385554979908
 31
0.0
  0
LINE
  5
6717
  8
1外形線
 10
62.296281342011412
 20
105.338555497991
 30
0.0
 11
62.296281342011412
 21
106.5385554979908
 31
0.0
  0
LINE
  5
6718
  8
1外形線
 10
89.496281342011343
 20
105.338555497991
 30
0.0
 11
89.49628134201123
 21
106.538555497991
 31
0.0
  0
ARC
  5
6719
  8
1外形線
 10
109.6962813420116
 20
79.338555497991138
 30
0.0
 40
2.5
 50
270.0
 51
90.0
  0
LINE
  5
671A
  8
1外形線
 10
127.29628134201189
 20
100.7385554979911
 30
0.0
 11
127.29628134201199
 21
57.938555497991729
 31
0.0
  0
ARC
  5
671B
  8
1外形線
 10
104.89628134201141
 20
79.338555497991138
 30
0.0
 40
2.5
 50
90.0
 51
270.0
  0
LINE
  5
671C
  8
1外形線
 10
217.1115875631493
 20
30.009383871004101
 30
0.0
 11
157.71158756314989
 21
30.009383871004101
 31
0.0
  0
LINE
  5
671D
  8
1外形線
 10
217.1115875631493
 20
25.009383871004161
 30
0.0
 11
157.71158756314981
 21
25.009383871004161
 31
0.0
  0
LINE
  5
671E
  8
1外形線
 10
103.1962813420121
 20
30.009383871004161
 30
0.0
 11
103.1962813420121
 21
25.009383871004161
 31
0.0
  0
LINE
  5
671F
  8
1外形線
 10
116.6962813420116
 20
30.009383871004161
 30
0.0
 11
116.6962813420115
 21
25.009383871004129
 31
0.0
  0
LINE
  5
6720
  8
1外形線
 10
125.29628134201251
 20
25.009383871004161
 30
0.0
 11
125.29628134201251
 21
30.009383871004161
 31
0.0
  0
LINE
  5
6721
  8
1外形線
 10
135.18619805767321
 20
30.009383871004161
 30
0.0
 11
135.18619805767321
 21
25.009383871004161
 31
0.0
  0
LINE
  5
6722
  8
1外形線
 10
125.79628134201231
 20
78.838555497991365
 30
0.0
 11
112.1457710847947
 21
78.838555497991308
 31
0.0
  0
LINE
  5
6723
  8
1外形線
 10
125.79628134201231
 20
79.838555497991194
 30
0.0
 11
112.1457710847946
 21
79.838555497991706
 31
0.0
  0
ARC
  5
6724
  8
1外形線
 10
123.800012708385
 20
85.238555497991214
 30
0.0
 40
30.0
 50
270.0
 51
275.71059313750061
  0
ARC
  5
6725
  8
1外形線
 10
120.281504737001
 20
37.238555497991371
 30
0.0
 40
18.0
 50
90.0
 51
112.52939800293591
  0
LINE
  5
6726
  8
1外形線
 10
113.38467122889369
 20
53.864850562179527
 30
0.0
 11
107.24380481360041
 21
51.317528197317223
 31
0.0
  0
LINE
  5
6727
  8
1外形線
 10
123.800012708385
 20
55.2385554979912
 30
0.0
 11
120.281504737001
 21
55.2385554979912
 31
0.0
  0
LINE
  5
6728
  8
1外形線
 10
104.89628134201141
 20
76.838555497991138
 30
0.0
 11
109.6962813420116
 21
76.838555497991138
 31
0.0
  0
ARC
  5
6729
  8
1外形線
 10
134.29628134201189
 20
57.143543060103489
 30
0.0
 40
1.0
 50
275.71059313750141
 51
329.58666758538618
  0
LINE
  5
672A
  8
1外形線
 10
126.78512427901551
 20
55.387439791691541
 30
0.0
 11
134.395785061033
 21
56.148505869893512
 31
0.0
  0
LINE
  5
672B
  8
1外形線
 10
128.29628134201201
 20
56.938555497991558
 30
0.0
 11
134.98619805767319
 21
56.938555497991779
 31
0.0
  0
ARC
  5
672C
  8
1外形線
 10
128.29628134201189
 20
57.938555497991558
 30
0.0
 40
1.0
 50
179.9999999999998
 51
270.00000000000159
  0
ARC
  5
672D
  8
1外形線
 10
134.98619805767319
 20
56.738555497991769
 30
0.0
 40
0.2
 50
329.58666758538487
 51
90.0
  0
ARC
  5
672E
  8
1外形線
 10
125.79628134201231
 20
79.338555497991138
 30
0.0
 40
0.4999999999999006
 50
270.0
 51
90.0
  0
LINE
  5
672F
  8
1外形線
 10
157.71158756314981
 20
30.009383871004161
 30
0.0
 11
157.71158756314981
 21
25.009383871004221
 31
0.0
  0
LINE
  5
6730
  8
1外形線
 10
165.01158756314979
 20
30.009383871004161
 30
0.0
 11
165.01158756314979
 21
25.009383871004161
 31
0.0
  0
LINE
  5
6731
  8
1外形線
 10
163.31158756314929
 20
30.009383871004161
 30
0.0
 11
163.31158756314929
 21
25.009383871004161
 31
0.0
  0
LINE
  5
6732
  8
1外形線
 10
161.41158756314991
 20
32.009383871004161
 30
0.0
 11
161.41158756314991
 21
30.009383871004101
 31
0.0
  0
LINE
  5
6733
  8
1外形線
 10
160.21158756314989
 20
32.009383871004211
 30
0.0
 11
160.21158756314989
 21
30.009383871004101
 31
0.0
  0
LINE
  5
6734
  8
1外形線
 10
160.21158756314989
 20
32.009383871004211
 30
0.0
 11
161.41158756314991
 21
32.009383871004211
 31
0.0
  0
LINE
  5
6735
  8
1外形線
 10
209.8115875631492
 20
30.009383871004101
 30
0.0
 11
209.8115875631492
 21
25.009383871004101
 31
0.0
  0
LINE
  5
6736
  8
1外形線
 10
211.5115875631497
 20
30.009383871004101
 30
0.0
 11
211.5115875631497
 21
25.009383871004101
 31
0.0
  0
LINE
  5
6737
  8
1外形線
 10
214.61158756314919
 20
32.009383871004161
 30
0.0
 11
214.61158756314919
 21
30.00938387100404
 31
0.0
  0
LINE
  5
6738
  8
1外形線
 10
213.41158756314911
 20
32.009383871004097
 30
0.0
 11
213.41158756314911
 21
30.00938387100404
 31
0.0
  0
LINE
  5
6739
  8
1外形線
 10
214.61158756314919
 20
32.009383871004161
 30
0.0
 11
213.41158756314911
 21
32.009383871004161
 31
0.0
  0
LINE
  5
673A
  8
1外形線
 10
217.1115875631493
 20
30.009383871004101
 30
0.0
 11
217.1115875631493
 21
25.009383871004161
 31
0.0
  0
ARC
  5
673B
  8
1外形線
 10
123.800012708385
 20
73.438555497991473
 30
0.0
 40
30.0
 50
84.289406862499007
 51
90.0
  0
LINE
  5
673C
  8
1外形線
 10
109.6962813420116
 20
81.838555497991138
 30
0.0
 11
104.89628134201141
 21
81.838555497991138
 31
0.0
  0
ARC
  5
673D
  8
1外形線
 10
120.281504737001
 20
121.4385554979914
 30
0.0
 40
18.0
 50
247.47060199706399
 51
270.0
  0
LINE
  5
673E
  8
1外形線
 10
113.38467122889369
 20
104.8122604338033
 30
0.0
 11
107.24380481360031
 21
107.3595827986656
 31
0.0
  0
LINE
  5
673F
  8
1外形線
 10
123.800012708385
 20
103.4385554979915
 30
0.0
 11
120.281504737001
 21
103.4385554979915
 31
0.0
  0
LINE
  5
6740
  8
1外形線
 10
126.78512427901551
 20
103.2896712042911
 30
0.0
 11
134.395785061033
 21
102.5286051260891
 31
0.0
  0
LINE
  5
6741
  8
1外形線
 10
128.29628134201201
 20
101.7385554979911
 30
0.0
 11
134.98619805767319
 21
101.7385554979908
 31
0.0
  0
ARC
  5
6742
  8
1外形線
 10
128.29628134201189
 20
100.7385554979911
 30
0.0
 40
1.0
 50
89.999999999998366
 51
180.0000000000002
  0
ARC
  5
6743
  8
1外形線
 10
134.98619805767319
 20
101.9385554979909
 30
0.0
 40
0.2
 50
270.0
 51
30.413332414614811
  0
ARC
  5
6744
  8
1外形線
 10
134.29628134201189
 20
101.53356793587911
 30
0.0
 40
1.0
 50
30.41333241461373
 51
84.289406862498566
  0
ENDSEC
  0
EOF
