  0
SECTION
  2
HEADER
  9
$ACADVER
  1
AC1009
  9
$INSBASE
 10
0.0
 20
0.0
 30
0.0
  9
$EXTMIN
 10
29.76376785177024
 20
37.266448433946771
 30
0.0
  9
$EXTMAX
 10
270.5869059238812
 20
283.50272588910269
 30
0.0
  9
$LIMMIN
 10
0.0
 20
0.0
  9
$LIMMAX
 10
420.0
 20
297.0
  9
$ORTHOMODE
 70
     0
  9
$REGENMODE
 70
     1
  9
$FILLMODE
 70
     1
  9
$QTEXTMODE
 70
     0
  9
$MIRRTEXT
 70
     1
  9
$DRAGMODE
 70
     2
  9
$LTSCALE
 40
1.0
  9
$OSMODE
 70
    37
  9
$ATTMODE
 70
     1
  9
$TEXTSIZE
 40
2.5
  9
$TRACEWID
 40
1.0
  9
$TEXTSTYLE
  7
STANDARD
  9
$CLAYER
  8
0
  9
$CELTYPE
  6
BYLAYER
  9
$CECOLOR
 62
   256
  9
$DIMSCALE
 40
1.0
  9
$DIMASZ
 40
2.5
  9
$DIMEXO
 40
0.625
  9
$DIMDLI
 40
3.75
  9
$DIMRND
 40
0.0
  9
$DIMDLE
 40
0.0
  9
$DIMEXE
 40
1.25
  9
$DIMTP
 40
0.0
  9
$DIMTM
 40
0.0
  9
$DIMTXT
 40
2.5
  9
$DIMCEN
 40
2.5
  9
$DIMTSZ
 40
0.0
  9
$DIMTOL
 70
     0
  9
$DIMLIM
 70
     0
  9
$DIMTIH
 70
     0
  9
$DIMTOH
 70
     0
  9
$DIMSE1
 70
     0
  9
$DIMSE2
 70
     0
  9
$DIMTAD
 70
     1
  9
$DIMZIN
 70
     8
  9
$DIMBLK
  1

  9
$DIMASO
 70
     1
  9
$DIMSHO
 70
     1
  9
$DIMPOST
  1

  9
$DIMAPOST
  1

  9
$DIMALT
 70
     0
  9
$DIMALTD
 70
     3
  9
$DIMALTF
 40
0.03937007874016
  9
$DIMLFAC
 40
1.0
  9
$DIMTOFL
 70
     1
  9
$DIMTVP
 40
0.0
  9
$DIMTIX
 70
     0
  9
$DIMSOXD
 70
     0
  9
$DIMSAH
 70
     0
  9
$DIMBLK1
  1

  9
$DIMBLK2
  1

  9
$DIMSTYLE
  2
ISO-25
  9
$DIMCLRD
 70
     0
  9
$DIMCLRE
 70
     0
  9
$DIMCLRT
 70
     0
  9
$DIMTFAC
 40
1.0
  9
$DIMGAP
 40
0.625
  9
$LUNITS
 70
     2
  9
$LUPREC
 70
     4
  9
$SKETCHINC
 40
1.0
  9
$FILLETRAD
 40
10.0
  9
$AUNITS
 70
     0
  9
$AUPREC
 70
     0
  9
$MENU
  1
.
  9
$ELEVATION
 40
0.0
  9
$PELEVATION
 40
0.0
  9
$THICKNESS
 40
0.0
  9
$LIMCHECK
 70
     0
  9
$BLIPMODE
 70
     0
  9
$CHAMFERA
 40
10.0
  9
$CHAMFERB
 40
10.0
  9
$SKPOLY
 70
     0
  9
$TDCREATE
 40
2452451.594012036
  9
$TDUPDATE
 40
2452451.5942269331
  9
$TDINDWG
 40
0.0002152431
  9
$TDUSRTIMER
 40
0.0002152431
  9
$USRTIMER
 70
     1
  9
$ANGBASE
 50
0.0
  9
$ANGDIR
 70
     0
  9
$PDMODE
 70
     0
  9
$PDSIZE
 40
0.0
  9
$PLINEWID
 40
0.0
  9
$COORDS
 70
     1
  9
$SPLFRAME
 70
     0
  9
$SPLINETYPE
 70
     6
  9
$SPLINESEGS
 70
     8
  9
$ATTDIA
 70
     0
  9
$ATTREQ
 70
     1
  9
$HANDLING
 70
-16383
  9
$HANDSEED
  5
1A8
  9
$SURFTAB1
 70
     6
  9
$SURFTAB2
 70
     6
  9
$SURFTYPE
 70
     6
  9
$SURFU
 70
     6
  9
$SURFV
 70
     6
  9
$UCSNAME
  2

  9
$UCSORG
 10
0.0
 20
0.0
 30
0.0
  9
$UCSXDIR
 10
1.0
 20
0.0
 30
0.0
  9
$UCSYDIR
 10
0.0
 20
1.0
 30
0.0
  9
$PUCSNAME
  2

  9
$PUCSORG
 10
0.0
 20
0.0
 30
0.0
  9
$PUCSXDIR
 10
1.0
 20
0.0
 30
0.0
  9
$PUCSYDIR
 10
0.0
 20
1.0
 30
0.0
  9
$USERI1
 70
     0
  9
$USERI2
 70
     0
  9
$USERI3
 70
     0
  9
$USERI4
 70
     0
  9
$USERI5
 70
     0
  9
$USERR1
 40
0.0
  9
$USERR2
 40
0.0
  9
$USERR3
 40
0.0
  9
$USERR4
 40
0.0
  9
$USERR5
 40
0.0
  9
$WORLDVIEW
 70
     1
  9
$SHADEDGE
 70
     3
  9
$SHADEDIF
 70
    70
  9
$TILEMODE
 70
     1
  9
$MAXACTVP
 70
    64
  9
$PLIMCHECK
 70
     0
  9
$PEXTMIN
 10
1.0000000000000000E+020
 20
1.0000000000000000E+020
 30
1.0000000000000000E+020
  9
$PEXTMAX
 10
-1.0000000000000000E+020
 20
-1.0000000000000000E+020
 30
-1.0000000000000000E+020
  9
$PLIMMIN
 10
0.0
 20
0.0
  9
$PLIMMAX
 10
420.0
 20
297.0
  9
$UNITMODE
 70
     0
  9
$VISRETAIN
 70
     1
  9
$PLINEGEN
 70
     0
  9
$PSLTSCALE
 70
     1
  0
ENDSEC
  0
SECTION
  2
TABLES
  0
TABLE
  2
VPORT
 70
     3
  0
VPORT
  2
*ACTIVE
 70
     0
 10
0.0
 20
0.0
 11
1.0
 21
1.0
 12
209.99999999999989
 22
159.7959183673469
 13
0.0
 23
0.0
 14
10.0
 24
10.0
 15
10.0
 25
10.0
 16
0.0
 26
0.0
 36
1.0
 17
0.0
 27
0.0
 37
0.0
 40
319.5918367346938
 41
1.3141762452107271
 42
50.0
 43
0.0
 44
0.0
 50
0.0
 51
0.0
 71
     0
 72
   100
 73
     1
 74
     3
 75
     0
 76
     0
 77
     0
 78
     0
  0
ENDTAB
  0
TABLE
  2
LTYPE
 70
     1
  0
LTYPE
  2
CONTINUOUS
 70
     0
  3
Solid line
 72
    65
 73
     0
 40
0.0
  0
ENDTAB
  0
TABLE
  2
LAYER
 70
     2
  0
LAYER
  2
0
 70
     0
 62
     7
  6
CONTINUOUS
  0
LAYER
  2
1外形線
 70
     0
 62
     3
  6
CONTINUOUS
  0
ENDTAB
  0
TABLE
  2
STYLE
 70
     2
  0
STYLE
  2
STANDARD
 70
     0
 40
0.0
 41
1.0
 50
0.0
 71
     0
 42
2.5
  3
txt
  4

  0
STYLE
  2
KANJI
 70
     0
 40
0.0
 41
1.0
 50
0.0
 71
     0
 42
2.0
  3
simplex
  4
bigfont
  0
ENDTAB
  0
TABLE
  2
VIEW
 70
     0
  0
ENDTAB
  0
TABLE
  2
UCS
 70
     0
  0
ENDTAB
  0
TABLE
  2
APPID
 70
     1
  0
APPID
  2
ACAD
 70
     0
  0
ENDTAB
  0
TABLE
  2
DIMSTYLE
 70
     2
  0
DIMSTYLE
  2
ISO-25
 70
     0
  3

  4

  5

  6

  7

 40
1.0
 41
2.5
 42
0.625
 43
3.75
 44
1.25
 45
0.0
 46
0.0
 47
0.0
 48
0.0
140
2.5
141
2.5
142
0.0
143
0.03937007874016
144
1.0
145
0.0
146
1.0
147
0.625
 71
     0
 72
     0
 73
     0
 74
     0
 75
     0
 76
     0
 77
     1
 78
     8
170
     0
171
     3
172
     1
173
     0
174
     0
175
     0
176
     0
177
     0
178
     0
  0
DIMSTYLE
  2
STANDARD
 70
     0
  3

  4

  5

  6
1
  7
1
 40
1.0
 41
1.0
 42
1.0
 43
6.0
 44
1.0
 45
0.0
 46
0.0
 47
0.0
 48
0.0
140
2.5
141
0.0
142
0.0
143
25.399999999999999
144
1.0
145
0.0
146
1.0
147
0.5
 71
     0
 72
     0
 73
     0
 74
     0
 75
     0
 76
     0
 77
     1
 78
     8
170
     0
171
     2
172
     1
173
     1
174
     0
175
     0
176
     0
177
     0
178
     0
  0
ENDTAB
  0
ENDSEC
  0
SECTION
  2
BLOCKS
  0
BLOCK
  8
0
  2
$MODEL_SPACE
 70
     0
 10
0.0
 20
0.0
 30
0.0
  3
$MODEL_SPACE
  1

  0
ENDBLK
  5
21
  8
0
  0
BLOCK
 67
     1
  8
0
  2
$PAPER_SPACE
 70
     0
 10
0.0
 20
0.0
 30
0.0
  3
$PAPER_SPACE
  1

  0
ENDBLK
  5
1D
 67
     1
  8
0
  0
BLOCK
  8
0
  2
1
 70
     0
 10
0.0
 20
0.0
 30
0.0
  3
1
  1

  0
SOLID
  5
2C
  8
0
  6
BYBLOCK
 62
     0
 10
-1.811110924292052
 20
0.4852857095671653
 30
0.0
 11
-1.811110924292052
 21
-0.4852857095673642
 31
0.0
 12
0.0
 22
0.0
 32
0.0
 13
0.0
 23
0.0
 33
0.0
  0
ENDBLK
  5
2E
  8
0
  0
ENDSEC
  0
SECTION
  2
ENTITIES
  0
ARC
  5
EC
  8
1外形線
 10
261.01914088217512
 20
178.06778493153621
 30
0.0
 40
8.0
 50
1.7534048600725189
 51
89.999999999995524
  0
ARC
  5
ED
  8
1外形線
 10
139.65173743205369
 20
178.06778493153541
 30
0.0
 40
8.0
 50
1.7534048600717049
 51
90.000000000000398
  0
ARC
  5
EE
  8
1外形線
 10
208.65741528398109
 20
178.06778493153621
 30
0.0
 40
8.0
 50
90.000000000004476
 51
178.24659513992739
  0
ARC
  5
EF
  8
1外形線
 10
56.290011833860028
 20
178.06778493153541
 30
0.0
 40
8.0
 50
89.999999999999588
 51
178.2465951399283
  0
LINE
  5
F0
  8
1外形線
 10
78.470874632955997
 20
106.5385792903293
 30
0.0
 11
97.970874632956793
 21
106.5385792903293
 31
0.0
  0
CIRCLE
  5
F1
  8
1外形線
 10
97.970874632956907
 20
74.838579290329335
 30
0.0
 40
2.1000000000000001
  0
LINE
  5
F2
  8
1外形線
 10
117.4708746329578
 20
43.138579290329339
 30
0.0
 11
78.470874632955997
 21
43.138579290329233
 31
0.0
  0
LINE
  5
F3
  8
1外形線
 10
138.97193767747311
 20
39.337516245812253
 30
0.0
 11
56.969811588440621
 21
39.337516245812253
 31
0.0
  0
LINE
  5
F4
  8
1外形線
 10
56.970874632956907
 20
41.338579290329342
 30
0.0
 11
138.97087463295691
 21
41.338579290329342
 31
0.0
  0
LINE
  5
F5
  8
1外形線
 10
56.970874632956907
 20
108.33857929032931
 30
0.0
 11
138.97087463295691
 21
108.33857929032931
 31
0.0
  0
LINE
  5
F6
  8
1外形線
 10
138.97193767747311
 20
110.3396423348464
 30
0.0
 11
56.969811588440621
 21
110.3396423348464
 31
0.0
  0
LINE
  5
F7
  8
1外形線
 10
29.9708746329569
 20
135.06778493153629
 30
0.0
 11
165.97087463295679
 21
135.06778493153629
 31
0.0
  0
LINE
  5
F8
  8
1外形線
 10
44.970874632957013
 20
92.338579290329335
 30
0.0
 11
44.970874632956793
 21
57.338579290329328
 31
0.0
  0
LINE
  5
F9
  8
1外形線
 10
29.9708746329569
 20
55.743566852441752
 30
0.0
 11
29.9708746329569
 21
93.933591728216925
 31
0.0
  0
ARC
  5
FA
  8
1外形線
 10
43.9708746329569
 20
50.838579290329442
 30
0.0
 40
5.0
 50
359.9999999999992
 51
90.000000000000398
  0
ARC
  5
FB
  8
1外形線
 10
56.969811588440621
 20
49.337516245812253
 30
0.0
 40
10.0
 50
180.0
 51
270.0
  0
ARC
  5
FC
  8
1外形線
 10
56.970874632956907
 20
49.338579290329328
 30
0.0
 40
8.0
 50
180.0
 51
270.0
  0
LINE
  5
FD
  8
1外形線
 10
38.482031695952742
 20
53.987463584029797
 30
0.0
 11
30.871370913935721
 21
54.748529662231711
 31
0.0
  0
LINE
  5
FE
  8
1外形線
 10
29.9708746329569
 20
55.838579290329342
 30
0.0
 11
43.9708746329569
 21
55.838579290329442
 31
0.0
  0
ARC
  5
FF
  8
1外形線
 10
30.9708746329569
 20
55.743566852441752
 30
0.0
 40
1.0
 50
180.0
 51
264.28940686249888
  0
ARC
  5
100
  8
1外形線
 10
43.969811588440621
 20
50.838579290329442
 30
0.0
 40
3.0
 50
0.0
 51
90.0
  0
LINE
  5
101
  8
1外形線
 10
48.9708746329569
 20
49.338579290329328
 30
0.0
 11
48.9708746329569
 21
55.338579290329328
 31
0.0
  0
LINE
  5
102
  8
1外形線
 10
46.969811588440621
 20
49.337516245812253
 30
0.0
 11
46.969811588440621
 21
50.838579290329442
 31
0.0
  0
LINE
  5
103
  8
1外形線
 10
41.467143266583321
 20
53.838579290329449
 30
0.0
 11
43.969811588440621
 21
53.838579290329449
 31
0.0
  0
ARC
  5
104
  8
1外形線
 10
41.467143266583321
 20
83.838579290329449
 30
0.0
 40
30.0
 50
264.28940686249888
 51
270.0
  0
ARC
  5
105
  8
1外形線
 10
47.970874632956907
 20
55.338579290329328
 30
0.0
 40
1.0
 50
0.0
 51
90.0
  0
ARC
  5
106
  8
1外形線
 10
45.970874632956793
 20
57.338579290329328
 30
0.0
 40
1.0
 50
180.0
 51
270.0
  0
LINE
  5
107
  8
1外形線
 10
47.970874632956907
 20
56.338579290329342
 30
0.0
 11
45.970874632956793
 21
56.338579290329342
 31
0.0
  0
ARC
  5
108
  8
1外形線
 10
62.220874632954747
 20
48.338579290329392
 30
0.0
 40
2.25
 50
90.0
 51
270.0
  0
LINE
  5
109
  8
1外形線
 10
62.220874632954747
 20
50.588579290329328
 30
0.0
 11
67.720874632954747
 21
50.588579290329328
 31
0.0
  0
LINE
  5
10A
  8
1外形線
 10
67.720874632954747
 20
46.088579290329449
 30
0.0
 11
62.220874632954747
 21
46.088579290329449
 31
0.0
  0
ARC
  5
10B
  8
1外形線
 10
67.720874632954747
 20
48.338579290329392
 30
0.0
 40
2.25
 50
270.0
 51
90.0
  0
LINE
  5
10C
  8
1外形線
 10
78.470874632955997
 20
41.338579290329342
 30
0.0
 11
78.470874632955997
 21
43.138579290329233
 31
0.0
  0
CIRCLE
  5
10D
  8
1外形線
 10
81.970874632956907
 20
51.638579290329403
 30
0.0
 40
3.0
  0
ARC
  5
10E
  8
1外形線
 10
56.970874632956907
 20
100.33857929032931
 30
0.0
 40
8.0
 50
90.0
 51
180.0
  0
ARC
  5
10F
  8
1外形線
 10
56.969811588440621
 20
100.3396423348464
 30
0.0
 40
10.0
 50
90.0
 51
180.0
  0
ARC
  5
110
  8
1外形線
 10
43.9708746329569
 20
98.838579290329221
 30
0.0
 40
5.0
 50
269.9999999999996
 51
0.0000000000008142
  0
LINE
  5
111
  8
1外形線
 10
44.970874632956679
 20
65.338579290329335
 30
0.0
 11
30.970874632956789
 21
65.338579290329562
 31
0.0
  0
ARC
  5
112
  8
1外形線
 10
30.970874632956789
 20
66.338579290329093
 30
0.0
 40
1.0
 50
180.0
 51
270.0
  0
LINE
  5
113
  8
1外形線
 10
44.970874632956679
 20
84.338579290329392
 30
0.0
 11
30.970874632956789
 21
84.338579290329434
 31
0.0
  0
ARC
  5
114
  8
1外形線
 10
30.970874632956789
 20
83.338579290328994
 30
0.0
 40
1.0
 50
90.0
 51
180.0
  0
LINE
  5
115
  8
1外形線
 10
38.482031695952742
 20
95.689694996628873
 30
0.0
 11
30.871370913935721
 21
94.928628918426966
 31
0.0
  0
LINE
  5
116
  8
1外形線
 10
29.9708746329569
 20
93.838579290329335
 30
0.0
 11
43.9708746329569
 21
93.838579290329221
 31
0.0
  0
ARC
  5
117
  8
1外形線
 10
30.9708746329569
 20
93.933591728216925
 30
0.0
 40
1.0
 50
95.710593137501007
 51
180.0
  0
LINE
  5
118
  8
1外形線
 10
46.969811588440621
 20
100.3396423348464
 30
0.0
 11
46.969811588440621
 21
98.838579290329221
 31
0.0
  0
LINE
  5
119
  8
1外形線
 10
48.9708746329569
 20
100.33857929032931
 30
0.0
 11
48.9708746329569
 21
94.338579290329335
 31
0.0
  0
LINE
  5
11A
  8
1外形線
 10
41.467143266583321
 20
95.838579290329207
 30
0.0
 11
43.969811588440621
 21
95.838579290329207
 31
0.0
  0
ARC
  5
11B
  8
1外形線
 10
41.467143266583321
 20
65.838579290329221
 30
0.0
 40
30.0
 50
90.0
 51
95.710593137500595
  0
ARC
  5
11C
  8
1外形線
 10
47.970874632956907
 20
94.338579290329335
 30
0.0
 40
1.0
 50
270.0
 51
0.0000000000004071
  0
ARC
  5
11D
  8
1外形線
 10
45.970874632956793
 20
92.338579290329335
 30
0.0
 40
1.0
 50
90.0
 51
180.0
  0
LINE
  5
11E
  8
1外形線
 10
47.970874632956907
 20
93.338579290329335
 30
0.0
 11
45.970874632956793
 21
93.338579290329335
 31
0.0
  0
ARC
  5
11F
  8
1外形線
 10
43.969811588440621
 20
98.838579290329221
 30
0.0
 40
3.0
 50
270.0
 51
0.0
  0
ARC
  5
120
  8
1外形線
 10
62.220874632954747
 20
101.33857929032921
 30
0.0
 40
2.25
 50
90.0
 51
270.0
  0
ARC
  5
121
  8
1外形線
 10
67.720874632954747
 20
101.33857929032921
 30
0.0
 40
2.25
 50
270.0
 51
90.0
  0
LINE
  5
122
  8
1外形線
 10
67.720874632954747
 20
99.088579290329335
 30
0.0
 11
62.220874632954747
 21
99.088579290329335
 31
0.0
  0
LINE
  5
123
  8
1外形線
 10
62.220874632954747
 20
103.58857929032909
 30
0.0
 11
67.720874632954747
 21
103.58857929032909
 31
0.0
  0
LINE
  5
124
  8
1外形線
 10
78.470874632955997
 20
108.33857929032931
 30
0.0
 11
78.470874632955997
 21
106.5385792903293
 31
0.0
  0
CIRCLE
  5
125
  8
1外形線
 10
81.970874632956907
 20
98.038579290329267
 30
0.0
 40
3.0
  0
LINE
  5
126
  8
1外形線
 10
48.293757639543628
 20
178.31256822319821
 30
0.0
 11
46.969937742859088
 21
135.06778493153629
 31
0.0
  0
LINE
  5
127
  8
1外形線
 10
29.9708746329569
 20
135.06778493153629
 30
0.0
 11
29.9708746329569
 21
171.66279736942781
 31
0.0
  0
LINE
  5
128
  8
1外形線
 10
38.482031695953651
 20
173.41890063783961
 30
0.0
 11
30.871370913936168
 21
172.65783455963779
 31
0.0
  0
ARC
  5
129
  8
1外形線
 10
30.970874632957131
 20
171.66279736942781
 30
0.0
 40
1.0
 50
95.710593137499757
 51
180.0
  0
LINE
  5
12A
  8
1外形線
 10
45.238940570979821
 20
173.56778493153519
 30
0.0
 11
41.467143266583541
 21
173.5677849315353
 31
0.0
  0
ARC
  5
12B
  8
1外形線
 10
41.467143266583768
 20
143.56778493153999
 30
0.0
 40
30.0
 50
90.0
 51
95.710593137499757
  0
ARC
  5
12C
  8
1外形線
 10
45.238940570979928
 20
176.5677849315351
 30
0.0
 40
3.0
 50
269.9999999999992
 51
358.24659513992822
  0
LINE
  5
12D
  8
1外形線
 10
165.97087463295679
 20
55.743566852441752
 30
0.0
 11
165.97087463295679
 21
93.933591728216925
 31
0.0
  0
LINE
  5
12E
  8
1外形線
 10
150.97087463295671
 20
92.338579290329335
 30
0.0
 11
150.97087463295699
 21
57.338579290329328
 31
0.0
  0
ARC
  5
12F
  8
1外形線
 10
138.97087463295691
 20
49.338579290329328
 30
0.0
 40
8.0
 50
270.0
 51
0.0
  0
ARC
  5
130
  8
1外形線
 10
138.97193767747311
 20
49.337516245812253
 30
0.0
 40
10.0
 50
270.0
 51
0.0
  0
LINE
  5
131
  8
1外形線
 10
117.4708746329578
 20
41.338579290329342
 30
0.0
 11
117.4708746329578
 21
43.138579290329339
 31
0.0
  0
CIRCLE
  5
132
  8
1外形線
 10
113.97087463295691
 20
51.638579290329403
 30
0.0
 40
3.0
  0
ARC
  5
133
  8
1外形線
 10
133.72087463295901
 20
48.338579290329392
 30
0.0
 40
2.25
 50
270.0
 51
90.0
  0
ARC
  5
134
  8
1外形線
 10
128.22087463295901
 20
48.338579290329392
 30
0.0
 40
2.25
 50
90.0
 51
270.0
  0
LINE
  5
135
  8
1外形線
 10
128.22087463295901
 20
46.088579290329449
 30
0.0
 11
133.72087463295901
 21
46.088579290329449
 31
0.0
  0
LINE
  5
136
  8
1外形線
 10
133.72087463295901
 20
50.588579290329328
 30
0.0
 11
128.22087463295901
 21
50.588579290329328
 31
0.0
  0
LINE
  5
137
  8
1外形線
 10
157.45971756996099
 20
53.987463584029797
 30
0.0
 11
165.07037835197801
 21
54.748529662231711
 31
0.0
  0
LINE
  5
138
  8
1外形線
 10
165.97087463295679
 20
55.838579290329342
 30
0.0
 11
151.97087463295691
 21
55.838579290329442
 31
0.0
  0
ARC
  5
139
  8
1外形線
 10
151.97087463295691
 20
50.838579290329442
 30
0.0
 40
5.0
 50
89.999999999999588
 51
180.0000000000008
  0
ARC
  5
13A
  8
1外形線
 10
151.97193767747311
 20
50.838579290329442
 30
0.0
 40
3.0
 50
90.0
 51
180.0
  0
LINE
  5
13B
  8
1外形線
 10
146.97087463295691
 20
49.338579290329328
 30
0.0
 11
146.97087463295691
 21
55.338579290329328
 31
0.0
  0
LINE
  5
13C
  8
1外形線
 10
148.97193767747311
 20
49.337516245812253
 30
0.0
 11
148.97193767747311
 21
50.838579290329442
 31
0.0
  0
ARC
  5
13D
  8
1外形線
 10
149.97087463295699
 20
57.338579290329328
 30
0.0
 40
1.0
 50
270.0
 51
0.0000000000004071
  0
LINE
  5
13E
  8
1外形線
 10
147.97087463295691
 20
56.338579290329342
 30
0.0
 11
149.97087463295699
 21
56.338579290329342
 31
0.0
  0
ARC
  5
13F
  8
1外形線
 10
147.97087463295691
 20
55.338579290329328
 30
0.0
 40
1.0
 50
90.0
 51
180.0
  0
ARC
  5
140
  8
1外形線
 10
154.47460599933041
 20
83.838579290329449
 30
0.0
 40
30.0
 50
270.0
 51
275.71059313750061
  0
LINE
  5
141
  8
1外形線
 10
154.47460599933041
 20
53.838579290329449
 30
0.0
 11
151.97193767747311
 21
53.838579290329449
 31
0.0
  0
ARC
  5
142
  8
1外形線
 10
164.97087463295691
 20
55.743566852441752
 30
0.0
 40
1.0
 50
275.71059313750101
 51
0.0
  0
ARC
  5
143
  8
1外形線
 10
138.97193767747311
 20
100.3396423348464
 30
0.0
 40
10.0
 50
0.0
 51
90.0
  0
ARC
  5
144
  8
1外形線
 10
138.97087463295691
 20
100.33857929032931
 30
0.0
 40
8.0
 50
0.0
 51
90.0
  0
LINE
  5
145
  8
1外形線
 10
117.4708746329578
 20
108.33857929032931
 30
0.0
 11
117.4708746329578
 21
106.5385792903293
 31
0.0
  0
LINE
  5
146
  8
1外形線
 10
117.4708746329578
 20
106.5385792903293
 30
0.0
 11
97.970874632957035
 21
106.5385792903293
 31
0.0
  0
CIRCLE
  5
147
  8
1外形線
 10
113.97087463295691
 20
98.038579290329267
 30
0.0
 40
3.0
  0
ARC
  5
148
  8
1外形線
 10
133.72087463295901
 20
101.33857929032921
 30
0.0
 40
2.25
 50
270.0
 51
90.0
  0
ARC
  5
149
  8
1外形線
 10
128.22087463295901
 20
101.33857929032921
 30
0.0
 40
2.25
 50
90.0
 51
270.0
  0
LINE
  5
14A
  8
1外形線
 10
128.22087463295901
 20
99.088579290329335
 30
0.0
 11
133.72087463295901
 21
99.088579290329335
 31
0.0
  0
LINE
  5
14B
  8
1外形線
 10
133.72087463295901
 20
103.58857929032909
 30
0.0
 11
128.22087463295901
 21
103.58857929032909
 31
0.0
  0
LINE
  5
14C
  8
1外形線
 10
150.97087463295711
 20
65.338579290329335
 30
0.0
 11
164.97087463295699
 21
65.338579290329562
 31
0.0
  0
ARC
  5
14D
  8
1外形線
 10
164.97087463295699
 20
66.338579290329093
 30
0.0
 40
1.0
 50
270.0
 51
0.0
  0
LINE
  5
14E
  8
1外形線
 10
150.97087463295711
 20
84.338579290329392
 30
0.0
 11
164.97087463295699
 21
84.338579290329434
 31
0.0
  0
ARC
  5
14F
  8
1外形線
 10
164.97087463295699
 20
83.338579290328994
 30
0.0
 40
1.0
 50
0.0
 51
90.0
  0
LINE
  5
150
  8
1外形線
 10
157.45971756996099
 20
95.689694996628873
 30
0.0
 11
165.07037835197801
 21
94.928628918426966
 31
0.0
  0
LINE
  5
151
  8
1外形線
 10
165.97087463295679
 20
93.838579290329335
 30
0.0
 11
151.97087463295691
 21
93.838579290329221
 31
0.0
  0
LINE
  5
152
  8
1外形線
 10
148.97193767747311
 20
100.3396423348464
 30
0.0
 11
148.97193767747311
 21
98.838579290329221
 31
0.0
  0
LINE
  5
153
  8
1外形線
 10
146.97087463295691
 20
100.33857929032931
 30
0.0
 11
146.97087463295691
 21
94.338579290329335
 31
0.0
  0
ARC
  5
154
  8
1外形線
 10
151.97087463295691
 20
98.838579290329221
 30
0.0
 40
5.0
 50
179.99999999999909
 51
270.0000000000004
  0
ARC
  5
155
  8
1外形線
 10
151.97193767747311
 20
98.838579290329221
 30
0.0
 40
3.0
 50
180.0
 51
270.0
  0
ARC
  5
156
  8
1外形線
 10
149.97087463295699
 20
92.338579290329335
 30
0.0
 40
1.0
 50
0.0
 51
90.0
  0
LINE
  5
157
  8
1外形線
 10
147.97087463295691
 20
93.338579290329335
 30
0.0
 11
149.97087463295699
 21
93.338579290329335
 31
0.0
  0
ARC
  5
158
  8
1外形線
 10
147.97087463295691
 20
94.338579290329335
 30
0.0
 40
1.0
 50
179.9999999999996
 51
270.0
  0
ARC
  5
159
  8
1外形線
 10
154.47460599933041
 20
65.838579290329221
 30
0.0
 40
30.0
 50
84.289406862499391
 51
90.0
  0
LINE
  5
15A
  8
1外形線
 10
154.47460599933041
 20
95.838579290329207
 30
0.0
 11
151.97193767747311
 21
95.838579290329207
 31
0.0
  0
ARC
  5
15B
  8
1外形線
 10
164.97087463295691
 20
93.933591728216925
 30
0.0
 40
1.0
 50
0.0
 51
84.289406862498979
  0
LINE
  5
15C
  8
1外形線
 10
165.97087463295679
 20
135.06778493153629
 30
0.0
 11
165.97087463295679
 21
171.66279736942781
 31
0.0
  0
LINE
  5
15D
  8
1外形線
 10
147.6479916263701
 20
178.31256822319821
 30
0.0
 11
148.971811523056
 21
135.06778493153629
 31
0.0
  0
LINE
  5
15E
  8
1外形線
 10
157.45971756996011
 20
173.41890063783961
 30
0.0
 11
165.07037835197761
 21
172.65783455963779
 31
0.0
  0
LINE
  5
15F
  8
1外形線
 10
150.70280869493399
 20
173.56778493153519
 30
0.0
 11
154.47460599933021
 21
173.5677849315353
 31
0.0
  0
ARC
  5
160
  8
1外形線
 10
150.70280869493379
 20
176.5677849315351
 30
0.0
 40
3.0
 50
181.75340486007161
 51
270.0000000000008
  0
ARC
  5
161
  8
1外形線
 10
154.47460599933001
 20
143.56778493153999
 30
0.0
 40
30.0
 50
84.289406862500243
 51
90.0
  0
ARC
  5
162
  8
1外形線
 10
164.97087463295659
 20
171.66279736942781
 30
0.0
 40
1.0
 50
0.0
 51
84.289406862500243
  0
LINE
  5
163
  8
1外形線
 10
242.83827808307711
 20
139.56778493153621
 30
0.0
 11
234.83827808307711
 21
139.56778493153621
 31
0.0
  0
LINE
  5
164
  8
1外形線
 10
244.33827808307711
 20
137.56778493153601
 30
0.0
 11
225.33827808307711
 21
137.5677849315361
 31
0.0
  0
ARC
  5
165
  8
1外形線
 10
234.838278083078
 20
154.56778493153541
 30
0.0
 40
12.0
 50
215.68533471264769
 51
324.31466528735268
  0
ARC
  5
166
  8
1外形線
 10
234.83827808307851
 20
152.56778493153621
 30
0.0
 40
19.0
 50
0.0
 51
180.0
  0
ARC
  5
167
  8
1外形線
 10
234.83827808307851
 20
152.56778493153621
 30
0.0
 40
21.0
 50
0.0
 51
180.0
  0
LINE
  5
168
  8
1外形線
 10
270.33921497317579
 20
135.0677849315361
 30
0.0
 11
199.3373411929804
 21
135.06778493153629
 31
0.0
  0
LINE
  5
169
  8
1外形線
 10
199.3373411929804
 20
135.06778493153629
 30
0.0
 11
200.6611610896646
 21
178.31256822319909
 31
0.0
  0
LINE
  5
16A
  8
1外形線
 10
220.83827808307819
 20
137.5677849315361
 30
0.0
 11
215.838278083078
 21
137.56778493153621
 31
0.0
  0
LINE
  5
16B
  8
1外形線
 10
215.838278083078
 20
135.06778493153621
 30
0.0
 11
215.838278083078
 21
152.56778493153621
 31
0.0
  0
LINE
  5
16C
  8
1外形線
 10
213.838278083078
 20
135.06778493153621
 30
0.0
 11
213.838278083078
 21
152.56778493153621
 31
0.0
  0
LINE
  5
16D
  8
1外形線
 10
225.33827808307711
 20
141.06778493153621
 30
0.0
 11
225.33827808307711
 21
137.56778493153621
 31
0.0
  0
LINE
  5
16E
  8
1外形線
 10
220.8382780830778
 20
146.5677849315361
 30
0.0
 11
220.83827808307819
 21
137.56778493153621
 31
0.0
  0
LINE
  5
16F
  8
1外形線
 10
226.83827808307711
 20
139.56778493153621
 30
0.0
 11
234.83827808307711
 21
139.56778493153621
 31
0.0
  0
LINE
  5
170
  8
1外形線
 10
225.33827808307711
 20
141.06778493153621
 30
0.0
 11
226.83827808307711
 21
141.06778493153621
 31
0.0
  0
LINE
  5
171
  8
1外形線
 10
226.83827808307711
 20
141.06778493153621
 30
0.0
 11
226.83827808307711
 21
139.56778493153621
 31
0.0
  0
LINE
  5
172
  8
1外形線
 10
225.09148373826869
 20
147.56778493153621
 30
0.0
 11
221.8382780830778
 21
147.56778493153621
 31
0.0
  0
ARC
  5
173
  8
1外形線
 10
221.8382780830778
 20
146.56778493153621
 30
0.0
 40
1.0
 50
90.0
 51
180.00000000000239
  0
LINE
  5
174
  8
1外形線
 10
270.33921497317579
 20
135.06778493153629
 30
0.0
 11
269.0153950764917
 21
178.31256822319909
 31
0.0
  0
LINE
  5
175
  8
1外形線
 10
255.838278083078
 20
135.06778493153621
 30
0.0
 11
255.838278083078
 21
152.56778493153621
 31
0.0
  0
LINE
  5
176
  8
1外形線
 10
244.33827808307711
 20
141.06778493153621
 30
0.0
 11
244.33827808307711
 21
137.56778493153621
 31
0.0
  0
LINE
  5
177
  8
1外形線
 10
248.8382780830776
 20
146.5677849315361
 30
0.0
 11
248.83827808307711
 21
137.56778493153621
 31
0.0
  0
LINE
  5
178
  8
1外形線
 10
253.838278083078
 20
135.06778493153621
 30
0.0
 11
253.838278083078
 21
152.56778493153621
 31
0.0
  0
LINE
  5
179
  8
1外形線
 10
253.838278083078
 20
137.5677849315359
 30
0.0
 11
248.838278083077
 21
137.56778493153601
 31
0.0
  0
LINE
  5
17A
  8
1外形線
 10
244.33827808307711
 20
141.06778493153621
 30
0.0
 11
242.83827808307711
 21
141.06778493153621
 31
0.0
  0
LINE
  5
17B
  8
1外形線
 10
242.83827808307711
 20
141.06778493153621
 30
0.0
 11
242.83827808307711
 21
139.56778493153621
 31
0.0
  0
ARC
  5
17C
  8
1外形線
 10
247.8382780830776
 20
146.56778493153621
 30
0.0
 40
1.0
 50
359.9999999999975
 51
90.0
  0
LINE
  5
17D
  8
1外形線
 10
244.5850724278867
 20
147.56778493153621
 30
0.0
 11
247.8382780830776
 21
147.5677849315361
 31
0.0
  0
CIRCLE
  5
17E
  8
1外形線
 10
97.970874632956907
 20
245.93059503272019
 30
0.0
 40
21.0
  0
CIRCLE
  5
17F
  8
1外形線
 10
97.970874632956907
 20
245.93059503272019
 30
0.0
 40
24.0
  0
LINE
  5
180
  8
1外形線
 10
56.969811588440621
 20
281.43165807723727
 30
0.0
 11
138.97193767747311
 21
281.43165807723727
 31
0.0
  0
LINE
  5
181
  8
1外形線
 10
139.65173743205369
 20
186.0677849315355
 30
0.0
 11
56.290011833860028
 21
186.06778493153541
 31
0.0
  0
LINE
  5
182
  8
1外形線
 10
56.969811588440621
 20
210.42953198820311
 30
0.0
 11
138.97193767747311
 21
210.42953198820311
 31
0.0
  0
LINE
  5
183
  8
1外形線
 10
46.969811588440621
 20
220.42953198820311
 30
0.0
 11
46.969811588440621
 21
271.43165807723727
 31
0.0
  0
LINE
  5
184
  8
1外形線
 10
29.9708746329569
 20
226.8355825948326
 30
0.0
 11
29.9708746329569
 21
265.02560747060778
 31
0.0
  0
ARC
  5
185
  8
1外形線
 10
56.969811588440621
 20
220.42953198820311
 30
0.0
 40
10.0
 50
180.0
 51
270.0
  0
LINE
  5
186
  8
1外形線
 10
38.482031695952742
 20
225.07947932642071
 30
0.0
 11
30.871370913935721
 21
225.84054540462259
 31
0.0
  0
ARC
  5
187
  8
1外形線
 10
30.9708746329569
 20
226.8355825948326
 30
0.0
 40
1.0
 50
180.0
 51
264.28940686249888
  0
ARC
  5
188
  8
1外形線
 10
43.969811588440621
 20
221.9305950327203
 30
0.0
 40
3.0
 50
0.0
 51
90.0
  0
LINE
  5
189
  8
1外形線
 10
41.467143266583321
 20
224.9305950327203
 30
0.0
 11
43.969811588440621
 21
224.9305950327203
 31
0.0
  0
ARC
  5
18A
  8
1外形線
 10
41.467143266583321
 20
254.9305950327203
 30
0.0
 40
30.0
 50
264.28940686249888
 51
270.0
  0
ARC
  5
18B
  8
1外形線
 10
56.969811588440621
 20
271.43165807723727
 30
0.0
 40
10.0
 50
90.0
 51
180.0
  0
LINE
  5
18C
  8
1外形線
 10
38.482031695952742
 20
266.78171073901967
 30
0.0
 11
30.871370913935721
 21
266.02064466081782
 31
0.0
  0
ARC
  5
18D
  8
1外形線
 10
30.9708746329569
 20
265.02560747060778
 30
0.0
 40
1.0
 50
95.710593137501007
 51
180.0
  0
ARC
  5
18E
  8
1外形線
 10
43.969811588440621
 20
269.93059503272008
 30
0.0
 40
3.0
 50
270.0
 51
0.0
  0
LINE
  5
18F
  8
1外形線
 10
41.467143266583321
 20
266.93059503272008
 30
0.0
 11
43.969811588440621
 21
266.93059503272008
 31
0.0
  0
ARC
  5
190
  8
1外形線
 10
41.467143266583321
 20
236.93059503272011
 30
0.0
 40
30.0
 50
90.0
 51
95.710593137500595
  0
LINE
  5
191
  8
1外形線
 10
165.97087463295679
 20
226.8355825948326
 30
0.0
 11
165.97087463295679
 21
265.02560747060778
 31
0.0
  0
LINE
  5
192
  8
1外形線
 10
148.97193767747311
 20
271.43165807723727
 30
0.0
 11
148.97193767747311
 21
220.42953198820311
 31
0.0
  0
ARC
  5
193
  8
1外形線
 10
138.97193767747311
 20
220.42953198820311
 30
0.0
 40
10.0
 50
270.0
 51
0.0
  0
LINE
  5
194
  8
1外形線
 10
157.45971756996099
 20
225.07947932642071
 30
0.0
 11
165.07037835197801
 21
225.84054540462259
 31
0.0
  0
ARC
  5
195
  8
1外形線
 10
151.97193767747311
 20
221.9305950327203
 30
0.0
 40
3.0
 50
90.0
 51
180.0
  0
ARC
  5
196
  8
1外形線
 10
154.47460599933041
 20
254.9305950327203
 30
0.0
 40
30.0
 50
270.0
 51
275.71059313750061
  0
LINE
  5
197
  8
1外形線
 10
154.47460599933041
 20
224.9305950327203
 30
0.0
 11
151.97193767747311
 21
224.9305950327203
 31
0.0
  0
ARC
  5
198
  8
1外形線
 10
164.97087463295691
 20
226.8355825948326
 30
0.0
 40
1.0
 50
275.71059313750101
 51
0.0
  0
ARC
  5
199
  8
1外形線
 10
138.97193767747311
 20
271.43165807723727
 30
0.0
 40
10.0
 50
0.0
 51
90.0
  0
LINE
  5
19A
  8
1外形線
 10
157.45971756996099
 20
266.78171073901967
 30
0.0
 11
165.07037835197801
 21
266.02064466081782
 31
0.0
  0
ARC
  5
19B
  8
1外形線
 10
151.97193767747311
 20
269.93059503272008
 30
0.0
 40
3.0
 50
180.0
 51
270.0
  0
ARC
  5
19C
  8
1外形線
 10
154.47460599933041
 20
236.93059503272011
 30
0.0
 40
30.0
 50
84.289406862499391
 51
90.0
  0
LINE
  5
19D
  8
1外形線
 10
154.47460599933041
 20
266.93059503272008
 30
0.0
 11
151.97193767747311
 21
266.93059503272008
 31
0.0
  0
ARC
  5
19E
  8
1外形線
 10
164.97087463295691
 20
265.02560747060778
 30
0.0
 40
1.0
 50
0.0
 51
84.289406862498979
  0
LINE
  5
19F
  8
1外形線
 10
234.838278083078
 20
186.06778493153541
 30
0.0
 11
261.01914088217569
 21
186.06778493153621
 31
0.0
  0
LINE
  5
1A0
  8
1外形線
 10
234.838278083078
 20
186.06778493153541
 30
0.0
 11
208.65741528398041
 21
186.06778493153621
 31
0.0
  0
ENDSEC
  0
EOF
