  0
SECTION
  2
HEADER
  9
$ACADVER
  1
AC1009
  9
$INSBASE
 10
0.0
 20
0.0
 30
0.0
  9
$EXTMIN
 10
40.773475815192008
 20
31.739463498376789
 30
0.0
  9
$EXTMAX
 10
280.66253980885102
 20
279.87454846992091
 30
0.0
  9
$LIMMIN
 10
0.0
 20
0.0
  9
$LIMMAX
 10
420.0
 20
297.0
  9
$ORTHOMODE
 70
     0
  9
$REGENMODE
 70
     1
  9
$FILLMODE
 70
     1
  9
$QTEXTMODE
 70
     0
  9
$MIRRTEXT
 70
     1
  9
$DRAGMODE
 70
     2
  9
$LTSCALE
 40
1.0
  9
$OSMODE
 70
    37
  9
$ATTMODE
 70
     1
  9
$TEXTSIZE
 40
2.5
  9
$TRACEWID
 40
1.0
  9
$TEXTSTYLE
  7
STANDARD
  9
$CLAYER
  8
0
  9
$CELTYPE
  6
BYLAYER
  9
$CECOLOR
 62
   256
  9
$DIMSCALE
 40
1.0
  9
$DIMASZ
 40
2.5
  9
$DIMEXO
 40
0.625
  9
$DIMDLI
 40
3.75
  9
$DIMRND
 40
0.0
  9
$DIMDLE
 40
0.0
  9
$DIMEXE
 40
1.25
  9
$DIMTP
 40
0.0
  9
$DIMTM
 40
0.0
  9
$DIMTXT
 40
2.5
  9
$DIMCEN
 40
2.5
  9
$DIMTSZ
 40
0.0
  9
$DIMTOL
 70
     0
  9
$DIMLIM
 70
     0
  9
$DIMTIH
 70
     0
  9
$DIMTOH
 70
     0
  9
$DIMSE1
 70
     0
  9
$DIMSE2
 70
     0
  9
$DIMTAD
 70
     1
  9
$DIMZIN
 70
     8
  9
$DIMBLK
  1

  9
$DIMASO
 70
     1
  9
$DIMSHO
 70
     1
  9
$DIMPOST
  1

  9
$DIMAPOST
  1

  9
$DIMALT
 70
     0
  9
$DIMALTD
 70
     3
  9
$DIMALTF
 40
0.03937007874016
  9
$DIMLFAC
 40
1.0
  9
$DIMTOFL
 70
     1
  9
$DIMTVP
 40
0.0
  9
$DIMTIX
 70
     0
  9
$DIMSOXD
 70
     0
  9
$DIMSAH
 70
     0
  9
$DIMBLK1
  1

  9
$DIMBLK2
  1

  9
$DIMSTYLE
  2
ISO-25
  9
$DIMCLRD
 70
     0
  9
$DIMCLRE
 70
     0
  9
$DIMCLRT
 70
     0
  9
$DIMTFAC
 40
1.0
  9
$DIMGAP
 40
0.625
  9
$LUNITS
 70
     2
  9
$LUPREC
 70
     4
  9
$SKETCHINC
 40
1.0
  9
$FILLETRAD
 40
10.0
  9
$AUNITS
 70
     0
  9
$AUPREC
 70
     0
  9
$MENU
  1
.
  9
$ELEVATION
 40
0.0
  9
$PELEVATION
 40
0.0
  9
$THICKNESS
 40
0.0
  9
$LIMCHECK
 70
     0
  9
$BLIPMODE
 70
     0
  9
$CHAMFERA
 40
10.0
  9
$CHAMFERB
 40
10.0
  9
$SKPOLY
 70
     0
  9
$TDCREATE
 40
2452451.5943925688
  9
$TDUPDATE
 40
2452451.594551933
  9
$TDINDWG
 40
0.0001597106
  9
$TDUSRTIMER
 40
0.0001595949
  9
$USRTIMER
 70
     1
  9
$ANGBASE
 50
0.0
  9
$ANGDIR
 70
     0
  9
$PDMODE
 70
     0
  9
$PDSIZE
 40
0.0
  9
$PLINEWID
 40
0.0
  9
$COORDS
 70
     1
  9
$SPLFRAME
 70
     0
  9
$SPLINETYPE
 70
     6
  9
$SPLINESEGS
 70
     8
  9
$ATTDIA
 70
     0
  9
$ATTREQ
 70
     1
  9
$HANDLING
 70
-16383
  9
$HANDSEED
  5
19E
  9
$SURFTAB1
 70
     6
  9
$SURFTAB2
 70
     6
  9
$SURFTYPE
 70
     6
  9
$SURFU
 70
     6
  9
$SURFV
 70
     6
  9
$UCSNAME
  2

  9
$UCSORG
 10
0.0
 20
0.0
 30
0.0
  9
$UCSXDIR
 10
1.0
 20
0.0
 30
0.0
  9
$UCSYDIR
 10
0.0
 20
1.0
 30
0.0
  9
$PUCSNAME
  2

  9
$PUCSORG
 10
0.0
 20
0.0
 30
0.0
  9
$PUCSXDIR
 10
1.0
 20
0.0
 30
0.0
  9
$PUCSYDIR
 10
0.0
 20
1.0
 30
0.0
  9
$USERI1
 70
     0
  9
$USERI2
 70
     0
  9
$USERI3
 70
     0
  9
$USERI4
 70
     0
  9
$USERI5
 70
     0
  9
$USERR1
 40
0.0
  9
$USERR2
 40
0.0
  9
$USERR3
 40
0.0
  9
$USERR4
 40
0.0
  9
$USERR5
 40
0.0
  9
$WORLDVIEW
 70
     1
  9
$SHADEDGE
 70
     3
  9
$SHADEDIF
 70
    70
  9
$TILEMODE
 70
     1
  9
$MAXACTVP
 70
    64
  9
$PLIMCHECK
 70
     0
  9
$PEXTMIN
 10
1.0000000000000000E+020
 20
1.0000000000000000E+020
 30
1.0000000000000000E+020
  9
$PEXTMAX
 10
-1.0000000000000000E+020
 20
-1.0000000000000000E+020
 30
-1.0000000000000000E+020
  9
$PLIMMIN
 10
0.0
 20
0.0
  9
$PLIMMAX
 10
420.0
 20
297.0
  9
$UNITMODE
 70
     0
  9
$VISRETAIN
 70
     1
  9
$PLINEGEN
 70
     0
  9
$PSLTSCALE
 70
     1
  0
ENDSEC
  0
SECTION
  2
TABLES
  0
TABLE
  2
VPORT
 70
     3
  0
VPORT
  2
*ACTIVE
 70
     0
 10
0.0
 20
0.0
 11
1.0
 21
1.0
 12
209.99999999999989
 22
159.7959183673469
 13
0.0
 23
0.0
 14
10.0
 24
10.0
 15
10.0
 25
10.0
 16
0.0
 26
0.0
 36
1.0
 17
0.0
 27
0.0
 37
0.0
 40
319.5918367346938
 41
1.3141762452107271
 42
50.0
 43
0.0
 44
0.0
 50
0.0
 51
0.0
 71
     0
 72
   100
 73
     1
 74
     3
 75
     0
 76
     0
 77
     0
 78
     0
  0
ENDTAB
  0
TABLE
  2
LTYPE
 70
     1
  0
LTYPE
  2
CONTINUOUS
 70
     0
  3
Solid line
 72
    65
 73
     0
 40
0.0
  0
ENDTAB
  0
TABLE
  2
LAYER
 70
     2
  0
LAYER
  2
0
 70
     0
 62
     7
  6
CONTINUOUS
  0
LAYER
  2
1外形線
 70
     0
 62
     3
  6
CONTINUOUS
  0
ENDTAB
  0
TABLE
  2
STYLE
 70
     2
  0
STYLE
  2
STANDARD
 70
     0
 40
0.0
 41
1.0
 50
0.0
 71
     0
 42
2.5
  3
txt
  4

  0
STYLE
  2
KANJI
 70
     0
 40
0.0
 41
1.0
 50
0.0
 71
     0
 42
2.0
  3
simplex
  4
bigfont
  0
ENDTAB
  0
TABLE
  2
VIEW
 70
     0
  0
ENDTAB
  0
TABLE
  2
UCS
 70
     0
  0
ENDTAB
  0
TABLE
  2
APPID
 70
     1
  0
APPID
  2
ACAD
 70
     0
  0
ENDTAB
  0
TABLE
  2
DIMSTYLE
 70
     2
  0
DIMSTYLE
  2
ISO-25
 70
     0
  3

  4

  5

  6

  7

 40
1.0
 41
2.5
 42
0.625
 43
3.75
 44
1.25
 45
0.0
 46
0.0
 47
0.0
 48
0.0
140
2.5
141
2.5
142
0.0
143
0.03937007874016
144
1.0
145
0.0
146
1.0
147
0.625
 71
     0
 72
     0
 73
     0
 74
     0
 75
     0
 76
     0
 77
     1
 78
     8
170
     0
171
     3
172
     1
173
     0
174
     0
175
     0
176
     0
177
     0
178
     0
  0
DIMSTYLE
  2
STANDARD
 70
     0
  3

  4

  5

  6
1
  7
1
 40
1.0
 41
1.0
 42
1.0
 43
6.0
 44
1.0
 45
0.0
 46
0.0
 47
0.0
 48
0.0
140
2.5
141
0.0
142
0.0
143
25.399999999999999
144
1.0
145
0.0
146
1.0
147
0.5
 71
     0
 72
     0
 73
     0
 74
     0
 75
     0
 76
     0
 77
     1
 78
     8
170
     0
171
     2
172
     1
173
     1
174
     0
175
     0
176
     0
177
     0
178
     0
  0
ENDTAB
  0
ENDSEC
  0
SECTION
  2
BLOCKS
  0
BLOCK
  8
0
  2
$MODEL_SPACE
 70
     0
 10
0.0
 20
0.0
 30
0.0
  3
$MODEL_SPACE
  1

  0
ENDBLK
  5
21
  8
0
  0
BLOCK
 67
     1
  8
0
  2
$PAPER_SPACE
 70
     0
 10
0.0
 20
0.0
 30
0.0
  3
$PAPER_SPACE
  1

  0
ENDBLK
  5
1D
 67
     1
  8
0
  0
BLOCK
  8
0
  2
1
 70
     0
 10
0.0
 20
0.0
 30
0.0
  3
1
  1

  0
SOLID
  5
2C
  8
0
  6
BYBLOCK
 62
     0
 10
-1.811110924292052
 20
0.4852857095671653
 30
0.0
 11
-1.811110924292052
 21
-0.4852857095673642
 31
0.0
 12
0.0
 22
0.0
 32
0.0
 13
0.0
 23
0.0
 33
0.0
  0
ENDBLK
  5
2E
  8
0
  0
ENDSEC
  0
SECTION
  2
ENTITIES
  0
ARC
  5
E7
  8
1外形線
 10
271.08336788405859
 20
177.64891997342019
 30
0.0
 40
8.0
 50
1.534341499700935
 51
90.0
  0
ARC
  5
E8
  8
1外形線
 10
150.63914484456231
 20
177.64891997342011
 30
0.0
 40
8.0
 50
1.5343414997021561
 51
90.0
  0
ARC
  5
E9
  8
1外形線
 10
67.322020348194997
 20
177.64891997342011
 30
0.0
 40
8.0
 50
90.0
 51
178.46565850029779
  0
ARC
  5
EA
  8
1外形線
 10
218.76624338769079
 20
177.64891997342019
 30
0.0
 40
8.0
 50
90.0
 51
178.46565850029901
  0
LINE
  5
EB
  8
1外形線
 10
176.98058259637861
 20
47.036277428969122
 30
0.0
 11
176.98058259637901
 21
91.226302304748629
 31
0.0
  0
LINE
  5
EC
  8
1外形線
 10
161.9805825963787
 20
89.63128986685939
 30
0.0
 11
161.98058259637881
 21
48.631289866858019
 31
0.0
  0
LINE
  5
ED
  8
1外形線
 10
40.98058259637866
 20
47.036277428969122
 30
0.0
 11
40.980582596378213
 21
91.226302304748629
 31
0.0
  0
LINE
  5
EE
  8
1外形線
 10
55.980582596378561
 20
89.63128986685939
 30
0.0
 11
55.980582596378561
 21
48.631289866858019
 31
0.0
  0
CIRCLE
  5
EF
  8
1外形線
 10
92.980582596378667
 20
45.431289866858947
 30
0.0
 40
3.0
  0
LINE
  5
F0
  8
1外形線
 10
149.98135405253069
 20
33.630518410706422
 30
0.0
 11
67.97981114022673
 21
33.630518410706479
 31
0.0
  0
LINE
  5
F1
  8
1外形線
 10
128.48058259637921
 20
37.43128986685894
 30
0.0
 11
89.480582596378085
 21
37.43128986685894
 31
0.0
  0
LINE
  5
F2
  8
1外形線
 10
67.980582596378653
 20
35.631289866858872
 30
0.0
 11
149.9805825963783
 21
35.631289866858872
 31
0.0
  0
LINE
  5
F3
  8
1外形線
 10
49.491739659375412
 20
45.280174160557522
 30
0.0
 11
41.881078877358391
 21
46.04124023875908
 31
0.0
  0
LINE
  5
F4
  8
1外形線
 10
40.98058259637866
 20
47.131289866858758
 30
0.0
 11
55.067411026234019
 21
47.131289866858758
 31
0.0
  0
ARC
  5
F5
  8
1外形線
 10
41.980582596379342
 20
47.036277428969122
 30
0.0
 40
1.0
 50
180.00000000000159
 51
264.28940686249928
  0
ARC
  5
F6
  8
1外形線
 10
73.08058259637653
 20
42.631289866858928
 30
0.0
 40
2.25
 50
90.0
 51
270.0
  0
ARC
  5
F7
  8
1外形線
 10
67.979811140226616
 20
43.630518410706493
 30
0.0
 40
10.0
 50
186.62238662352391
 51
270.0
  0
ARC
  5
F8
  8
1外形線
 10
67.980582596379008
 20
43.631289866858879
 30
0.0
 40
8.0
 50
180.0
 51
270.0
  0
ARC
  5
F9
  8
1外形線
 10
58.980582596379008
 20
46.63128986685826
 30
0.0
 40
1.0
 50
0.0
 51
90.000000000003254
  0
ARC
  5
FA
  8
1外形線
 10
55.067411026234019
 20
42.131289866858758
 30
0.0
 40
5.0
 50
6.6258095648232782
 51
90.0
  0
ARC
  5
FB
  8
1外形線
 10
56.980582596378547
 20
48.631289866858019
 30
0.0
 40
1.0
 50
180.0
 51
270.00000000000318
  0
LINE
  5
FC
  8
1外形線
 10
52.476851230005082
 20
45.131289866858872
 30
0.0
 11
55.06654998073202
 21
45.131289866858872
 31
0.0
  0
ARC
  5
FD
  8
1外形線
 10
52.476851230005082
 20
75.131289866857173
 30
0.0
 40
30.0
 50
264.28940686249928
 51
270.00000000000318
  0
ARC
  5
FE
  8
1外形線
 10
55.06654998073202
 20
42.131289866858872
 30
0.0
 40
3.0
 50
6.62238662352439
 51
90.0
  0
LINE
  5
FF
  8
1外形線
 10
56.980582596378547
 20
47.631289866858019
 30
0.0
 11
58.980582596378952
 21
47.631289866858161
 31
0.0
  0
LINE
  5
100
  8
1外形線
 10
59.980582596379001
 20
43.631289866858879
 30
0.0
 11
59.980582596379001
 21
46.63128986685826
 31
0.0
  0
ARC
  5
101
  8
1外形線
 10
78.880582596376485
 20
42.631289866858928
 30
0.0
 40
2.25
 50
270.0
 51
90.0
  0
LINE
  5
102
  8
1外形線
 10
78.880582596376485
 20
40.381289866858928
 30
0.0
 11
73.08058259637653
 21
40.381289866858928
 31
0.0
  0
LINE
  5
103
  8
1外形線
 10
89.480582596378085
 20
37.43128986685894
 30
0.0
 11
89.480582596378269
 21
35.631289866858872
 31
0.0
  0
LINE
  5
104
  8
1外形線
 10
73.08058259637653
 20
44.881289866858928
 30
0.0
 11
78.880582596376485
 21
44.881289866858928
 31
0.0
  0
LINE
  5
105
  8
1外形線
 10
139.08058259638079
 20
40.381289866858928
 30
0.0
 11
144.8805825963808
 21
40.381289866858928
 31
0.0
  0
LINE
  5
106
  8
1外形線
 10
144.8805825963808
 20
44.881289866858928
 30
0.0
 11
139.08058259638079
 21
44.881289866858928
 31
0.0
  0
ARC
  5
107
  8
1外形線
 10
139.08058259638079
 20
42.631289866858928
 30
0.0
 40
2.25
 50
90.0
 51
270.0
  0
LINE
  5
108
  8
1外形線
 10
128.48058259637921
 20
37.43128986685894
 30
0.0
 11
128.48058259637901
 21
35.631289866858872
 31
0.0
  0
CIRCLE
  5
109
  8
1外形線
 10
124.9805825963786
 20
45.431289866858947
 30
0.0
 40
3.0
  0
ARC
  5
10A
  8
1外形線
 10
165.4843139627522
 20
75.131289866857173
 30
0.0
 40
30.0
 50
269.9999999999967
 51
275.71059313750061
  0
LINE
  5
10B
  8
1外形線
 10
176.98058259637861
 20
47.131289866858758
 30
0.0
 11
162.89375416652331
 21
47.131289866858758
 31
0.0
  0
ARC
  5
10C
  8
1外形線
 10
144.8805825963808
 20
42.631289866858928
 30
0.0
 40
2.25
 50
270.0
 51
90.0
  0
ARC
  5
10D
  8
1外形線
 10
149.9805825963783
 20
43.631289866858879
 30
0.0
 40
8.0
 50
270.0
 51
0.0000000000012213
  0
ARC
  5
10E
  8
1外形線
 10
149.98135405253069
 20
43.630518410706493
 30
0.0
 40
10.0
 50
270.0
 51
353.37761337647601
  0
ARC
  5
10F
  8
1外形線
 10
160.9805825963787
 20
48.631289866858019
 30
0.0
 40
1.0
 50
269.9999999999967
 51
0.0
  0
ARC
  5
110
  8
1外形線
 10
162.89461521202529
 20
42.131289866858872
 30
0.0
 40
3.0
 50
90.0
 51
173.37761337647561
  0
ARC
  5
111
  8
1外形線
 10
162.89375416652331
 20
42.131289866858758
 30
0.0
 40
5.0
 50
90.0
 51
173.3741904351767
  0
ARC
  5
112
  8
1外形線
 10
158.9805825963783
 20
46.631289866858253
 30
0.0
 40
1.0
 50
89.999999999996746
 51
180.0
  0
LINE
  5
113
  8
1外形線
 10
157.9805825963783
 20
43.631289866858879
 30
0.0
 11
157.98058259637821
 21
46.631289866858253
 31
0.0
  0
LINE
  5
114
  8
1外形線
 10
160.9805825963787
 20
47.631289866858019
 30
0.0
 11
158.9805825963783
 21
47.631289866858147
 31
0.0
  0
LINE
  5
115
  8
1外形線
 10
165.4843139627522
 20
45.131289866858872
 30
0.0
 11
162.89461521202529
 21
45.131289866858872
 31
0.0
  0
LINE
  5
116
  8
1外形線
 10
168.46942553338189
 20
45.280174160557522
 30
0.0
 11
176.08008631539889
 21
46.04124023875908
 31
0.0
  0
ARC
  5
117
  8
1外形線
 10
175.9805825963779
 20
47.036277428969122
 30
0.0
 40
1.0
 50
275.71059313750061
 51
359.99999999999829
  0
LINE
  5
118
  8
1外形線
 10
176.98058259637881
 20
127.6489199734204
 30
0.0
 11
40.98058259637844
 21
127.6489199734206
 31
0.0
  0
LINE
  5
119
  8
1外形線
 10
149.98135405253069
 20
104.6320613230112
 30
0.0
 11
67.979811140226616
 21
104.6320613230112
 31
0.0
  0
LINE
  5
11A
  8
1外形線
 10
128.48058259637941
 20
100.8312898668589
 30
0.0
 11
89.480582596377928
 21
100.8312898668589
 31
0.0
  0
LINE
  5
11B
  8
1外形線
 10
67.980582596379008
 20
102.63128986685879
 30
0.0
 11
149.9805825963783
 21
102.63128986685879
 31
0.0
  0
CIRCLE
  5
11C
  8
1外形線
 10
92.980582596378667
 20
92.83128986685881
 30
0.0
 40
3.0
  0
LINE
  5
11D
  8
1外形線
 10
49.491739659375412
 20
92.982405573160236
 30
0.0
 11
41.881078877358391
 21
92.221339494958684
 31
0.0
  0
LINE
  5
11E
  8
1外形線
 10
55.980582596378561
 20
81.631289866858936
 30
0.0
 11
41.980582596378547
 21
81.631289866859035
 31
0.0
  0
LINE
  5
11F
  8
1外形線
 10
40.98058259637866
 20
91.131289866858978
 30
0.0
 11
55.067411026234019
 21
91.131289866858978
 31
0.0
  0
LINE
  5
120
  8
1外形線
 10
55.980582596378561
 20
56.631289866858822
 30
0.0
 11
41.980582596378547
 21
56.631289866859163
 31
0.0
  0
ARC
  5
121
  8
1外形線
 10
41.980582596378547
 20
57.631289866858701
 30
0.0
 40
1.0
 50
180.0
 51
270.0
  0
ARC
  5
122
  8
1外形線
 10
41.980582596378547
 20
80.631289866858594
 30
0.0
 40
1.0
 50
90.0
 51
180.0
  0
ARC
  5
123
  8
1外形線
 10
41.980582596379342
 20
91.226302304748629
 30
0.0
 40
1.0
 50
95.710593137500595
 51
179.99999999999829
  0
ARC
  5
124
  8
1外形線
 10
73.08058259637653
 20
95.631289866858708
 30
0.0
 40
2.25
 50
90.0
 51
270.0
  0
ARC
  5
125
  8
1外形線
 10
67.979811140226616
 20
94.632061323011271
 30
0.0
 40
10.0
 50
90.0
 51
173.37761337647601
  0
ARC
  5
126
  8
1外形線
 10
67.980582596379008
 20
94.631289866858864
 30
0.0
 40
8.0
 50
90.0
 51
180.0
  0
ARC
  5
127
  8
1外形線
 10
58.980582596379008
 20
91.631289866859376
 30
0.0
 40
1.0
 50
270.0
 51
0.0
  0
ARC
  5
128
  8
1外形線
 10
55.067411026234019
 20
96.131289866859007
 30
0.0
 40
5.0
 50
270.0
 51
353.37419043517667
  0
ARC
  5
129
  8
1外形線
 10
55.06654998073202
 20
96.131289866858879
 30
0.0
 40
3.0
 50
270.0
 51
353.37761337647561
  0
LINE
  5
12A
  8
1外形線
 10
52.476851230005082
 20
93.131289866858864
 30
0.0
 11
55.06654998073202
 21
93.131289866858864
 31
0.0
  0
ARC
  5
12B
  8
1外形線
 10
52.476851230005082
 20
63.131289866860577
 30
0.0
 40
30.0
 50
89.999999999996746
 51
95.710593137500595
  0
ARC
  5
12C
  8
1外形線
 10
56.980582596378547
 20
89.63128986685939
 30
0.0
 40
1.0
 50
90.0
 51
180.0
  0
LINE
  5
12D
  8
1外形線
 10
56.980582596378547
 20
90.63128986685939
 30
0.0
 11
58.980582596379008
 21
90.63128986685939
 31
0.0
  0
LINE
  5
12E
  8
1外形線
 10
59.980582596379001
 20
94.631289866858864
 30
0.0
 11
59.980582596379001
 21
91.631289866859376
 31
0.0
  0
LINE
  5
12F
  8
1外形線
 10
89.480582596377928
 20
100.8312898668589
 30
0.0
 11
89.480582596377886
 21
102.63128986685879
 31
0.0
  0
ARC
  5
130
  8
1外形線
 10
78.880582596376485
 20
95.631289866858708
 30
0.0
 40
2.25
 50
270.0
 51
90.0
  0
LINE
  5
131
  8
1外形線
 10
78.880582596376485
 20
93.381289866858822
 30
0.0
 11
73.08058259637653
 21
93.381289866858822
 31
0.0
  0
LINE
  5
132
  8
1外形線
 10
73.08058259637653
 20
97.881289866858708
 30
0.0
 11
78.880582596376485
 21
97.881289866858708
 31
0.0
  0
LINE
  5
133
  8
1外形線
 10
49.491739659375177
 20
172.00003567972399
 30
0.0
 11
41.881078877357702
 21
171.2389696015222
 31
0.0
  0
LINE
  5
134
  8
1外形線
 10
40.98058259637844
 20
127.6489199734204
 30
0.0
 11
40.98058259637844
 21
170.2439324113123
 31
0.0
  0
ARC
  5
135
  8
1外形線
 10
41.980582596378667
 20
170.2439324113123
 30
0.0
 40
1.0
 50
95.710593137500595
 51
180.0
  0
LINE
  5
136
  8
1外形線
 10
57.979865250532548
 20
127.6489199734206
 30
0.0
 11
59.324888702768021
 21
177.86312885678001
 31
0.0
  0
ARC
  5
137
  8
1外形線
 10
56.251110660341169
 20
175.14891997341991
 30
0.0
 40
3.0
 50
270.0
 51
358.46565850029862
  0
LINE
  5
138
  8
1外形線
 10
56.251110660341169
 20
172.14891997341991
 30
0.0
 11
52.476851230005082
 21
172.14891997341991
 31
0.0
  0
ARC
  5
139
  8
1外形線
 10
52.476851230005309
 20
142.14891997342451
 30
0.0
 40
30.0
 50
90.0
 51
95.710593137500595
  0
LINE
  5
13A
  8
1外形線
 10
144.8805825963808
 20
97.881289866858708
 30
0.0
 11
139.08058259638079
 21
97.881289866858708
 31
0.0
  0
LINE
  5
13B
  8
1外形線
 10
139.08058259638079
 20
93.381289866858822
 30
0.0
 11
144.8805825963808
 21
93.381289866858822
 31
0.0
  0
CIRCLE
  5
13C
  8
1外形線
 10
108.9805825963786
 20
69.131289866858879
 30
0.0
 40
2.1000000000000001
  0
LINE
  5
13D
  8
1外形線
 10
128.48058259637941
 20
100.8312898668589
 30
0.0
 11
128.48058259637929
 21
102.63128986685879
 31
0.0
  0
CIRCLE
  5
13E
  8
1外形線
 10
124.9805825963786
 20
92.83128986685881
 30
0.0
 40
3.0
  0
ARC
  5
13F
  8
1外形線
 10
139.08058259638079
 20
95.631289866858708
 30
0.0
 40
2.25
 50
90.0
 51
270.0
  0
LINE
  5
140
  8
1外形線
 10
161.9805825963787
 20
81.631289866858936
 30
0.0
 11
175.9805825963787
 21
81.631289866859035
 31
0.0
  0
LINE
  5
141
  8
1外形線
 10
161.9805825963787
 20
56.631289866858822
 30
0.0
 11
175.9805825963787
 21
56.631289866859163
 31
0.0
  0
ARC
  5
142
  8
1外形線
 10
175.9805825963787
 20
57.631289866858701
 30
0.0
 40
1.0
 50
270.0
 51
0.0
  0
ARC
  5
143
  8
1外形線
 10
175.9805825963787
 20
80.631289866858594
 30
0.0
 40
1.0
 50
0.0
 51
90.0
  0
LINE
  5
144
  8
1外形線
 10
176.98058259637861
 20
91.131289866858978
 30
0.0
 11
162.89375416652331
 21
91.131289866858978
 31
0.0
  0
ARC
  5
145
  8
1外形線
 10
165.4843139627522
 20
63.131289866860577
 30
0.0
 40
30.0
 50
84.289406862499391
 51
90.000000000003254
  0
ARC
  5
146
  8
1外形線
 10
149.98135405253069
 20
94.632061323011271
 30
0.0
 40
10.0
 50
6.6223866235239859
 51
90.0
  0
ARC
  5
147
  8
1外形線
 10
149.9805825963783
 20
94.631289866858864
 30
0.0
 40
8.0
 50
0.0
 51
90.0
  0
ARC
  5
148
  8
1外形線
 10
144.8805825963808
 20
95.631289866858708
 30
0.0
 40
2.25
 50
270.0
 51
90.0
  0
ARC
  5
149
  8
1外形線
 10
162.89375416652331
 20
96.131289866859007
 30
0.0
 40
5.0
 50
186.62580956482319
 51
270.0
  0
ARC
  5
14A
  8
1外形線
 10
162.89461521202529
 20
96.131289866858879
 30
0.0
 40
3.0
 50
186.62238662352431
 51
270.0
  0
LINE
  5
14B
  8
1外形線
 10
157.9805825963783
 20
94.631289866858864
 30
0.0
 11
157.9805825963783
 21
91.631289866859376
 31
0.0
  0
ARC
  5
14C
  8
1外形線
 10
160.9805825963787
 20
89.63128986685939
 30
0.0
 40
1.0
 50
0.0
 51
90.0
  0
ARC
  5
14D
  8
1外形線
 10
158.9805825963783
 20
91.631289866859376
 30
0.0
 40
1.0
 50
180.0
 51
270.0
  0
LINE
  5
14E
  8
1外形線
 10
160.9805825963787
 20
90.63128986685939
 30
0.0
 11
158.9805825963783
 21
90.63128986685939
 31
0.0
  0
LINE
  5
14F
  8
1外形線
 10
165.4843139627522
 20
93.131289866858864
 30
0.0
 11
162.89461521202529
 21
93.131289866858864
 31
0.0
  0
LINE
  5
150
  8
1外形線
 10
168.46942553338189
 20
92.982405573160236
 30
0.0
 11
176.08008631539889
 21
92.221339494958684
 31
0.0
  0
ARC
  5
151
  8
1外形線
 10
175.9805825963779
 20
91.226302304748629
 30
0.0
 40
1.0
 50
0.0000000000016284
 51
84.289406862499391
  0
LINE
  5
152
  8
1外形線
 10
176.98058259637881
 20
127.6489199734204
 30
0.0
 11
176.98058259637881
 21
170.2439324113123
 31
0.0
  0
LINE
  5
153
  8
1外形線
 10
159.98129994222401
 20
127.6489199734205
 30
0.0
 11
158.63627648998931
 21
177.86312885678001
 31
0.0
  0
ARC
  5
154
  8
1外形線
 10
165.484313962752
 20
142.14891997342451
 30
0.0
 40
30.0
 50
84.289406862499391
 51
90.0
  0
ARC
  5
155
  8
1外形線
 10
161.71005453241611
 20
175.14891997341991
 30
0.0
 40
3.0
 50
181.5343414997013
 51
270.0
  0
LINE
  5
156
  8
1外形線
 10
161.71005453241611
 20
172.14891997341991
 30
0.0
 11
165.4843139627522
 21
172.14891997341991
 31
0.0
  0
LINE
  5
157
  8
1外形線
 10
168.46942553338209
 20
172.00003567972399
 30
0.0
 11
176.0800863153996
 21
171.2389696015222
 31
0.0
  0
ARC
  5
158
  8
1外形線
 10
175.98058259637861
 20
170.2439324113123
 30
0.0
 40
1.0
 50
0.0
 51
84.289406862499391
  0
LINE
  5
159
  8
1外形線
 10
233.92480563587671
 20
132.14891997342309
 30
0.0
 11
255.92480563587461
 21
132.14891997341769
 31
0.0
  0
ARC
  5
15A
  8
1外形線
 10
244.92480563587461
 20
151.1489199734211
 30
0.0
 40
16.0
 50
223.43253655779279
 51
316.56746344220721
  0
LINE
  5
15B
  8
1外形線
 10
232.42480563587611
 20
129.64891997342039
 30
0.0
 11
257.42480563587458
 21
129.64891997342039
 31
0.0
  0
ARC
  5
15C
  8
1外形線
 10
244.92480563587461
 20
148.14891997342031
 30
0.0
 40
23.999999999999879
 50
0.0
 51
180.0
  0
ARC
  5
15D
  8
1外形線
 10
244.92480563587461
 20
148.14891997342031
 30
0.0
 40
21.999999999999879
 50
0.0
 51
180.0
  0
LINE
  5
15E
  8
1外形線
 10
209.42408829003111
 20
127.6489199734204
 30
0.0
 11
280.4255229817183
 21
127.6489199734205
 31
0.0
  0
LINE
  5
15F
  8
1外形線
 10
209.42408829003111
 20
127.6489199734204
 30
0.0
 11
210.76911174226379
 21
177.86312885677989
 31
0.0
  0
LINE
  5
160
  8
1外形線
 10
233.92480563587711
 20
133.64891997342309
 30
0.0
 11
233.92480563587671
 21
132.14891997342309
 31
0.0
  0
LINE
  5
161
  8
1外形線
 10
232.42480563587719
 20
133.64891997342349
 30
0.0
 11
232.424805635876
 21
129.64891997342039
 31
0.0
  0
LINE
  5
162
  8
1外形線
 10
230.92480563587449
 20
130.14891997342039
 30
0.0
 11
230.92480563587461
 21
139.14891997342039
 31
0.0
  0
LINE
  5
163
  8
1外形線
 10
220.92480563587469
 20
127.6489199734205
 30
0.0
 11
220.92480563587469
 21
148.14891997342031
 31
0.0
  0
LINE
  5
164
  8
1外形線
 10
222.92480563587469
 20
127.6489199734205
 30
0.0
 11
222.92480563587469
 21
148.14891997342031
 31
0.0
  0
LINE
  5
165
  8
1外形線
 10
230.92480563587449
 20
130.14891997342039
 30
0.0
 11
222.92480563587449
 21
130.14891997342031
 31
0.0
  0
ARC
  5
166
  8
1外形線
 10
231.92480563587461
 20
139.14891997342039
 30
0.0
 40
1.0
 50
90.0
 51
180.0
  0
LINE
  5
167
  8
1外形線
 10
231.92480563587461
 20
140.1489199734205
 30
0.0
 11
233.3058555972531
 21
140.1489199734205
 31
0.0
  0
LINE
  5
168
  8
1外形線
 10
232.42480563587719
 20
133.64891997342349
 30
0.0
 11
233.92480563587711
 21
133.64891997342309
 31
0.0
  0
LINE
  5
169
  8
1外形線
 10
280.42552298171819
 20
127.6489199734204
 30
0.0
 11
279.08049952948551
 21
177.86312885677989
 31
0.0
  0
LINE
  5
16A
  8
1外形線
 10
258.92480563587458
 20
130.14891997342039
 30
0.0
 11
266.92480563587469
 21
130.14891997342031
 31
0.0
  0
LINE
  5
16B
  8
1外形線
 10
257.42480563587458
 20
133.64891997342039
 30
0.0
 11
257.42480563587458
 21
129.64891997342039
 31
0.0
  0
LINE
  5
16C
  8
1外形線
 10
255.92480563587461
 20
133.64891997342039
 30
0.0
 11
255.92480563587461
 21
132.14891997342039
 31
0.0
  0
LINE
  5
16D
  8
1外形線
 10
258.92480563587458
 20
130.1489199734205
 30
0.0
 11
258.92480563587458
 21
139.14891997342039
 31
0.0
  0
ARC
  5
16E
  8
1外形線
 10
257.92480563587458
 20
139.14891997342039
 30
0.0
 40
1.0
 50
0.0
 51
90.0
  0
LINE
  5
16F
  8
1外形線
 10
257.92480563587458
 20
140.1489199734205
 30
0.0
 11
256.54375567449608
 21
140.1489199734205
 31
0.0
  0
LINE
  5
170
  8
1外形線
 10
257.42480563587458
 20
133.64891997342039
 30
0.0
 11
255.92480563587461
 21
133.64891997342039
 31
0.0
  0
LINE
  5
171
  8
1外形線
 10
266.92480563587469
 20
127.6489199734205
 30
0.0
 11
266.92480563587469
 21
148.14891997342031
 31
0.0
  0
LINE
  5
172
  8
1外形線
 10
268.92480563587469
 20
127.6489199734205
 30
0.0
 11
268.92480563587469
 21
148.14891997342031
 31
0.0
  0
CIRCLE
  5
173
  8
1外形線
 10
108.9805825963786
 20
242.30270920190301
 30
0.0
 40
24.0
  0
LINE
  5
174
  8
1外形線
 10
150.63914484456231
 20
185.64891997341951
 30
0.0
 11
67.322020348194997
 21
185.64891997341999
 31
0.0
  0
LINE
  5
175
  8
1外形線
 10
67.979811140226843
 20
206.80193774575071
 30
0.0
 11
149.98135405253061
 21
206.80193774575071
 31
0.0
  0
LINE
  5
176
  8
1外形線
 10
67.979811140226843
 20
277.80348065805549
 30
0.0
 11
149.98135405253069
 21
277.80348065805549
 31
0.0
  0
CIRCLE
  5
177
  8
1外形線
 10
108.9805825963786
 20
242.30270920190301
 30
0.0
 40
20.0
  0
LINE
  5
178
  8
1外形線
 10
40.98058259637866
 20
220.20769676401329
 30
0.0
 11
40.98058259637844
 21
242.30270920190301
 31
0.0
  0
LINE
  5
179
  8
1外形線
 10
57.979811140226843
 20
267.80348065805549
 30
0.0
 11
57.979811140226843
 21
216.80193774575071
 31
0.0
  0
LINE
  5
17A
  8
1外形線
 10
49.491739659375412
 20
218.45159349560171
 30
0.0
 11
41.881078877358391
 21
219.21265957380331
 31
0.0
  0
ARC
  5
17B
  8
1外形線
 10
41.980582596379342
 20
220.20769676401329
 30
0.0
 40
1.0
 50
180.00000000000159
 51
264.28940686249928
  0
ARC
  5
17C
  8
1外形線
 10
67.979811140226843
 20
216.80193774575071
 30
0.0
 40
10.0
 50
180.0
 51
270.0
  0
ARC
  5
17D
  8
1外形線
 10
55.06654998073202
 20
215.30270920190301
 30
0.0
 40
3.0
 50
6.62238662352439
 51
90.0
  0
LINE
  5
17E
  8
1外形線
 10
52.476851230005082
 20
218.3027092019031
 30
0.0
 11
55.06654998073202
 21
218.3027092019031
 31
0.0
  0
ARC
  5
17F
  8
1外形線
 10
52.476851230005082
 20
248.30270920190139
 30
0.0
 40
30.0
 50
264.28940686249928
 51
270.00000000000318
  0
LINE
  5
180
  8
1外形線
 10
49.491739659375412
 20
266.1538249082044
 30
0.0
 11
41.881078877358391
 21
265.39275883000289
 31
0.0
  0
LINE
  5
181
  8
1外形線
 10
40.98058259637866
 20
264.39772163979279
 30
0.0
 11
40.98058259637844
 21
242.30270920190301
 31
0.0
  0
ARC
  5
182
  8
1外形線
 10
41.980582596379342
 20
264.39772163979279
 30
0.0
 40
1.0
 50
95.710593137500595
 51
179.99999999999829
  0
ARC
  5
183
  8
1外形線
 10
67.979811140226843
 20
267.80348065805549
 30
0.0
 40
10.0
 50
90.0
 51
180.0
  0
LINE
  5
184
  8
1外形線
 10
52.476851230005082
 20
266.3027092019031
 30
0.0
 11
55.06654998073202
 21
266.3027092019031
 31
0.0
  0
ARC
  5
185
  8
1外形線
 10
52.476851230005082
 20
236.3027092019048
 30
0.0
 40
30.0
 50
89.999999999996746
 51
95.710593137500595
  0
ARC
  5
186
  8
1外形線
 10
55.06654998073202
 20
269.30270920190299
 30
0.0
 40
3.0
 50
270.0
 51
353.37761337647561
  0
LINE
  5
187
  8
1外形線
 10
176.98058259637861
 20
220.20769676401329
 30
0.0
 11
176.98058259637881
 21
242.30270920190301
 31
0.0
  0
LINE
  5
188
  8
1外形線
 10
159.98135405253041
 20
267.80348065805549
 30
0.0
 11
159.98135405253041
 21
216.80193774575071
 31
0.0
  0
ARC
  5
189
  8
1外形線
 10
149.98135405253069
 20
216.80193774575071
 30
0.0
 40
10.0
 50
270.0
 51
0.0
  0
ARC
  5
18A
  8
1外形線
 10
165.4843139627522
 20
248.30270920190139
 30
0.0
 40
30.0
 50
269.9999999999967
 51
275.71059313750061
  0
ARC
  5
18B
  8
1外形線
 10
162.89461521202529
 20
215.30270920190301
 30
0.0
 40
3.0
 50
90.0
 51
173.37761337647561
  0
LINE
  5
18C
  8
1外形線
 10
165.4843139627522
 20
218.3027092019031
 30
0.0
 11
162.89461521202529
 21
218.3027092019031
 31
0.0
  0
LINE
  5
18D
  8
1外形線
 10
168.46942553338189
 20
218.45159349560171
 30
0.0
 11
176.08008631539889
 21
219.21265957380331
 31
0.0
  0
ARC
  5
18E
  8
1外形線
 10
175.9805825963779
 20
220.20769676401329
 30
0.0
 40
1.0
 50
275.71059313750061
 51
359.99999999999829
  0
ARC
  5
18F
  8
1外形線
 10
149.98135405253069
 20
267.80348065805549
 30
0.0
 40
10.0
 50
0.0
 51
90.0
  0
ARC
  5
190
  8
1外形線
 10
165.4843139627522
 20
236.3027092019048
 30
0.0
 40
30.0
 50
84.289406862499391
 51
90.000000000003254
  0
ARC
  5
191
  8
1外形線
 10
162.89461521202529
 20
269.30270920190299
 30
0.0
 40
3.0
 50
186.62238662352431
 51
270.0
  0
LINE
  5
192
  8
1外形線
 10
165.4843139627522
 20
266.3027092019031
 30
0.0
 11
162.89461521202529
 21
266.3027092019031
 31
0.0
  0
LINE
  5
193
  8
1外形線
 10
176.98058259637861
 20
264.39772163979279
 30
0.0
 11
176.98058259637881
 21
242.30270920190301
 31
0.0
  0
LINE
  5
194
  8
1外形線
 10
168.46942553338189
 20
266.1538249082044
 30
0.0
 11
176.08008631539889
 21
265.39275883000289
 31
0.0
  0
ARC
  5
195
  8
1外形線
 10
175.9805825963779
 20
264.39772163979279
 30
0.0
 40
1.0
 50
0.0000000000016284
 51
84.289406862499391
  0
LINE
  5
196
  8
1外形線
 10
271.0833678840583
 20
185.64891997342141
 30
0.0
 11
218.76624338769059
 21
185.64891997342019
 31
0.0
  0
ENDSEC
  0
EOF
