  0
SECTION
  2
HEADER
  9
$ACADVER
  1
AC1009
  9
$INSBASE
 10
0.0
 20
0.0
 30
0.0
  9
$EXTMIN
 10
42.663218174895832
 20
35.936065974247491
 30
0.0
  9
$EXTMAX
 10
266.07447097868402
 20
293.35539053149478
 30
0.0
  9
$LIMMIN
 10
0.0
 20
0.0
  9
$LIMMAX
 10
420.0
 20
297.0
  9
$ORTHOMODE
 70
     0
  9
$REGENMODE
 70
     1
  9
$FILLMODE
 70
     1
  9
$QTEXTMODE
 70
     0
  9
$MIRRTEXT
 70
     1
  9
$DRAGMODE
 70
     2
  9
$LTSCALE
 40
1.0
  9
$OSMODE
 70
    37
  9
$ATTMODE
 70
     1
  9
$TEXTSIZE
 40
2.5
  9
$TRACEWID
 40
1.0
  9
$TEXTSTYLE
  7
STANDARD
  9
$CLAYER
  8
0
  9
$CELTYPE
  6
BYLAYER
  9
$CECOLOR
 62
   256
  9
$DIMSCALE
 40
1.0
  9
$DIMASZ
 40
2.5
  9
$DIMEXO
 40
0.625
  9
$DIMDLI
 40
3.75
  9
$DIMRND
 40
0.0
  9
$DIMDLE
 40
0.0
  9
$DIMEXE
 40
1.25
  9
$DIMTP
 40
0.0
  9
$DIMTM
 40
0.0
  9
$DIMTXT
 40
2.5
  9
$DIMCEN
 40
2.5
  9
$DIMTSZ
 40
0.0
  9
$DIMTOL
 70
     0
  9
$DIMLIM
 70
     0
  9
$DIMTIH
 70
     0
  9
$DIMTOH
 70
     0
  9
$DIMSE1
 70
     0
  9
$DIMSE2
 70
     0
  9
$DIMTAD
 70
     1
  9
$DIMZIN
 70
     8
  9
$DIMBLK
  1

  9
$DIMASO
 70
     1
  9
$DIMSHO
 70
     1
  9
$DIMPOST
  1

  9
$DIMAPOST
  1

  9
$DIMALT
 70
     0
  9
$DIMALTD
 70
     3
  9
$DIMALTF
 40
0.03937007874016
  9
$DIMLFAC
 40
1.0
  9
$DIMTOFL
 70
     1
  9
$DIMTVP
 40
0.0
  9
$DIMTIX
 70
     0
  9
$DIMSOXD
 70
     0
  9
$DIMSAH
 70
     0
  9
$DIMBLK1
  1

  9
$DIMBLK2
  1

  9
$DIMSTYLE
  2
ISO-25
  9
$DIMCLRD
 70
     0
  9
$DIMCLRE
 70
     0
  9
$DIMCLRT
 70
     0
  9
$DIMTFAC
 40
1.0
  9
$DIMGAP
 40
0.625
  9
$LUNITS
 70
     2
  9
$LUPREC
 70
     4
  9
$SKETCHINC
 40
1.0
  9
$FILLETRAD
 40
10.0
  9
$AUNITS
 70
     0
  9
$AUPREC
 70
     0
  9
$MENU
  1
.
  9
$ELEVATION
 40
0.0
  9
$PELEVATION
 40
0.0
  9
$THICKNESS
 40
0.0
  9
$LIMCHECK
 70
     0
  9
$BLIPMODE
 70
     0
  9
$CHAMFERA
 40
10.0
  9
$CHAMFERB
 40
10.0
  9
$SKPOLY
 70
     0
  9
$TDCREATE
 40
2452048.5609755442
  9
$TDUPDATE
 40
2452048.5644345712
  9
$TDINDWG
 40
0.0034594907
  9
$TDUSRTIMER
 40
0.0034594907
  9
$USRTIMER
 70
     1
  9
$ANGBASE
 50
0.0
  9
$ANGDIR
 70
     0
  9
$PDMODE
 70
     0
  9
$PDSIZE
 40
0.0
  9
$PLINEWID
 40
0.0
  9
$COORDS
 70
     1
  9
$SPLFRAME
 70
     0
  9
$SPLINETYPE
 70
     6
  9
$SPLINESEGS
 70
     8
  9
$ATTDIA
 70
     0
  9
$ATTREQ
 70
     1
  9
$HANDLING
 70
-16383
  9
$HANDSEED
  5
15C
  9
$SURFTAB1
 70
     6
  9
$SURFTAB2
 70
     6
  9
$SURFTYPE
 70
     6
  9
$SURFU
 70
     6
  9
$SURFV
 70
     6
  9
$UCSNAME
  2

  9
$UCSORG
 10
0.0
 20
0.0
 30
0.0
  9
$UCSXDIR
 10
1.0
 20
0.0
 30
0.0
  9
$UCSYDIR
 10
0.0
 20
1.0
 30
0.0
  9
$PUCSNAME
  2

  9
$PUCSORG
 10
0.0
 20
0.0
 30
0.0
  9
$PUCSXDIR
 10
1.0
 20
0.0
 30
0.0
  9
$PUCSYDIR
 10
0.0
 20
1.0
 30
0.0
  9
$USERI1
 70
     0
  9
$USERI2
 70
     0
  9
$USERI3
 70
     0
  9
$USERI4
 70
     0
  9
$USERI5
 70
     0
  9
$USERR1
 40
0.0
  9
$USERR2
 40
0.0
  9
$USERR3
 40
0.0
  9
$USERR4
 40
0.0
  9
$USERR5
 40
0.0
  9
$WORLDVIEW
 70
     1
  9
$SHADEDGE
 70
     3
  9
$SHADEDIF
 70
    70
  9
$TILEMODE
 70
     1
  9
$MAXACTVP
 70
    64
  9
$PLIMCHECK
 70
     0
  9
$PEXTMIN
 10
1.0000000000000000E+020
 20
1.0000000000000000E+020
 30
1.0000000000000000E+020
  9
$PEXTMAX
 10
-1.0000000000000000E+020
 20
-1.0000000000000000E+020
 30
-1.0000000000000000E+020
  9
$PLIMMIN
 10
0.0
 20
0.0
  9
$PLIMMAX
 10
420.0
 20
297.0
  9
$UNITMODE
 70
     0
  9
$VISRETAIN
 70
     1
  9
$PLINEGEN
 70
     0
  9
$PSLTSCALE
 70
     1
  0
ENDSEC
  0
SECTION
  2
TABLES
  0
TABLE
  2
VPORT
 70
     3
  0
VPORT
  2
*ACTIVE
 70
     0
 10
0.0
 20
0.0
 11
1.0
 21
1.0
 12
261.5498120300752
 22
148.5
 13
0.0
 23
0.0
 14
10.0
 24
10.0
 15
10.0
 25
10.0
 16
0.0
 26
0.0
 36
1.0
 17
0.0
 27
0.0
 37
0.0
 40
313.208044545093
 41
1.670231729055258
 42
50.0
 43
0.0
 44
0.0
 50
0.0
 51
0.0
 71
     0
 72
   100
 73
     1
 74
     3
 75
     0
 76
     0
 77
     0
 78
     0
  0
ENDTAB
  0
TABLE
  2
LTYPE
 70
     1
  0
LTYPE
  2
CONTINUOUS
 70
     0
  3
Solid line
 72
    65
 73
     0
 40
0.0
  0
ENDTAB
  0
TABLE
  2
LAYER
 70
     2
  0
LAYER
  2
0
 70
     0
 62
     7
  6
CONTINUOUS
  0
LAYER
  2
1外形線
 70
     0
 62
     3
  6
CONTINUOUS
  0
ENDTAB
  0
TABLE
  2
STYLE
 70
     2
  0
STYLE
  2
STANDARD
 70
     0
 40
0.0
 41
1.0
 50
0.0
 71
     0
 42
2.5
  3
txt
  4

  0
STYLE
  2
KANJI
 70
     0
 40
0.0
 41
1.0
 50
0.0
 71
     0
 42
10.0
  3
simplex
  4
bigfont
  0
ENDTAB
  0
TABLE
  2
VIEW
 70
     0
  0
ENDTAB
  0
TABLE
  2
UCS
 70
     0
  0
ENDTAB
  0
TABLE
  2
APPID
 70
     1
  0
APPID
  2
ACAD
 70
     0
  0
ENDTAB
  0
TABLE
  2
DIMSTYLE
 70
     2
  0
DIMSTYLE
  2
ISO-25
 70
     0
  3

  4

  5

  6

  7

 40
1.0
 41
2.5
 42
0.625
 43
3.75
 44
1.25
 45
0.0
 46
0.0
 47
0.0
 48
0.0
140
2.5
141
2.5
142
0.0
143
0.03937007874016
144
1.0
145
0.0
146
1.0
147
0.625
 71
     0
 72
     0
 73
     0
 74
     0
 75
     0
 76
     0
 77
     1
 78
     8
170
     0
171
     3
172
     1
173
     0
174
     0
175
     0
176
     0
177
     0
178
     0
  0
DIMSTYLE
  2
STANDARD
 70
     0
  3

  4

  5

  6
1
  7
1
 40
1.0
 41
1.0
 42
1.0
 43
6.0
 44
1.0
 45
0.0
 46
0.0
 47
0.0
 48
0.0
140
2.5
141
0.0
142
0.0
143
25.399999999999999
144
1.0
145
0.0
146
1.0
147
0.5
 71
     0
 72
     0
 73
     0
 74
     0
 75
     0
 76
     0
 77
     1
 78
     8
170
     0
171
     2
172
     1
173
     1
174
     0
175
     0
176
     0
177
     0
178
     0
  0
ENDTAB
  0
ENDSEC
  0
SECTION
  2
BLOCKS
  0
BLOCK
  8
0
  2
$MODEL_SPACE
 70
     0
 10
0.0
 20
0.0
 30
0.0
  3
$MODEL_SPACE
  1

  0
ENDBLK
  5
21
  8
0
  0
BLOCK
 67
     1
  8
0
  2
$PAPER_SPACE
 70
     0
 10
0.0
 20
0.0
 30
0.0
  3
$PAPER_SPACE
  1

  0
ENDBLK
  5
1D
 67
     1
  8
0
  0
BLOCK
  8
0
  2
1
 70
     0
 10
0.0
 20
0.0
 30
0.0
  3
1
  1

  0
SOLID
  5
2C
  8
0
  6
BYBLOCK
 62
     0
 10
-1.811110924292052
 20
0.4852857095671653
 30
0.0
 11
-1.811110924292052
 21
-0.4852857095673642
 31
0.0
 12
0.0
 22
0.0
 32
0.0
 13
0.0
 23
0.0
 33
0.0
  0
ENDBLK
  5
2E
  8
0
  0
ENDSEC
  0
SECTION
  2
ENTITIES
  0
ARC
  5
C6
  8
1外形線
 10
104.911955516425
 20
78.184803315776662
 30
0.0
 40
35.0
 50
36.869897645843608
 51
90.0
  0
ARC
  5
C7
  8
1外形線
 10
89.911955516424996
 20
78.184803315776549
 30
0.0
 40
24.0
 50
90.0
 51
180.0
  0
ARC
  5
C8
  8
1外形線
 10
84.911955516424996
 20
78.184803315776662
 30
0.0
 40
35.0
 50
90.0
 51
180.0
  0
ARC
  5
C9
  8
1外形線
 10
84.911955516424996
 20
78.184803315776662
 30
0.0
 40
35.0
 50
180.0
 51
270.0
  0
ARC
  5
CA
  8
1外形線
 10
89.911955516424996
 20
78.184803315776662
 30
0.0
 40
24.0
 50
180.0
 51
270.0
  0
CIRCLE
  5
CB
  8
1外形線
 10
56.911955516425003
 20
78.184803315776833
 30
0.0
 40
2.1000000000000001
  0
LINE
  5
CC
  8
1外形線
 10
58.911955516425003
 20
78.184803315776662
 30
0.0
 11
58.911955516425003
 21
78.184803315776662
 31
0.0
  0
LINE
  5
CD
  8
1外形線
 10
169.91195551642539
 20
97.279815753664309
 30
0.0
 11
169.91195551642539
 21
59.089790877889747
 31
0.0
  0
LINE
  5
CE
  8
1外形線
 10
154.91195551642539
 20
68.684803315777458
 30
0.0
 11
154.91195551642539
 21
59.184803315777231
 31
0.0
  0
LINE
  5
CF
  8
1外形線
 10
154.91195551642531
 20
78.184803315777231
 30
0.0
 11
154.91195551642551
 21
59.184803315777231
 31
0.0
  0
LINE
  5
D0
  8
1外形線
 10
109.91195551642539
 20
60.184803315776769
 30
0.0
 11
109.91195551642529
 21
78.184803315777231
 31
0.0
  0
LINE
  5
D1
  8
1外形線
 10
110.91195551642539
 20
59.184803315777572
 30
0.0
 11
169.91195551642539
 21
59.184803315777508
 31
0.0
  0
ARC
  5
D2
  8
1外形線
 10
104.911955516425
 20
78.184803315776662
 30
0.0
 40
35.0
 50
270.0
 51
323.13010235415601
  0
LINE
  5
D3
  8
1外形線
 10
124.91195551642539
 20
60.684803315776882
 30
0.0
 11
122.91195551642539
 21
60.684803315776882
 31
0.0
  0
LINE
  5
D4
  8
1外形線
 10
89.911955516424996
 20
54.184803315776662
 30
0.0
 11
99.911955516424996
 21
54.184803315776662
 31
0.0
  0
LINE
  5
D5
  8
1外形線
 10
84.911955516424896
 20
43.184803315776662
 30
0.0
 11
99.911955516424996
 21
43.184803315776662
 31
0.0
  0
LINE
  5
D6
  8
1外形線
 10
104.911955516425
 20
43.184803315776662
 30
0.0
 11
99.911955516424996
 21
43.184803315776662
 31
0.0
  0
ARC
  5
D7
  8
1外形線
 10
99.911955516424996
 20
78.184803315776662
 30
0.0
 40
24.0
 50
270.0
 51
300.5584317859346
  0
ARC
  5
D8
  8
1外形線
 10
110.91195551642539
 20
60.184803315776769
 30
0.0
 40
1.0
 50
180.0
 51
270.0000000000004
  0
ARC
  5
D9
  8
1外形線
 10
118.21496073414799
 20
47.184803315776662
 30
0.0
 40
12.0
 50
90.0
 51
120.5584317859346
  0
LINE
  5
DA
  8
1外形線
 10
122.91195551642549
 20
59.184803315776769
 30
0.0
 11
122.91195551642539
 21
60.684803315776833
 31
0.0
  0
LINE
  5
DB
  8
1外形線
 10
158.41568688279881
 20
57.184803315777458
 30
0.0
 11
132.91195551642551
 21
57.184803315777508
 31
0.0
  0
LINE
  5
DC
  8
1外形線
 10
153.41195551642551
 20
60.484803315776901
 30
0.0
 11
138.41195551642539
 21
60.484803315776901
 31
0.0
  0
LINE
  5
DD
  8
1外形線
 10
136.91195551642539
 20
60.684803315776882
 30
0.0
 11
134.91195551642539
 21
60.684803315776882
 31
0.0
  0
LINE
  5
DE
  8
1外形線
 10
134.91195551642539
 20
59.18480331577689
 30
0.0
 11
134.91195551642539
 21
60.684803315776882
 31
0.0
  0
LINE
  5
DF
  8
1外形線
 10
124.91195551642549
 20
59.184803315776833
 30
0.0
 11
124.91195551642539
 21
60.684803315776882
 31
0.0
  0
LINE
  5
E0
  8
1外形線
 10
138.41195551642539
 20
60.484803315776901
 30
0.0
 11
138.41195551642539
 21
59.18480331577689
 31
0.0
  0
LINE
  5
E1
  8
1外形線
 10
136.91195551642539
 20
60.684803315776882
 30
0.0
 11
136.91195551642539
 21
59.18480331577689
 31
0.0
  0
LINE
  5
E2
  8
1外形線
 10
161.40079845342959
 20
57.33368760947787
 30
0.0
 11
169.01145923544661
 21
58.094753687679763
 31
0.0
  0
ARC
  5
E3
  8
1外形線
 10
158.41568688279881
 20
87.184803315777458
 30
0.0
 40
30.0
 50
270.0
 51
275.71059313750101
  0
LINE
  5
E4
  8
1外形線
 10
153.41195551642551
 20
60.484803315776901
 30
0.0
 11
153.41195551642551
 21
59.184803315777231
 31
0.0
  0
ARC
  5
E5
  8
1外形線
 10
168.91195551642539
 20
59.089790877889747
 30
0.0
 40
1.0
 50
275.71059313750061
 51
0.0
  0
LINE
  5
E6
  8
1外形線
 10
110.91195551642539
 20
97.184803315776549
 30
0.0
 11
169.91195551642539
 21
97.184803315776605
 31
0.0
  0
LINE
  5
E7
  8
1外形線
 10
124.91195551642539
 20
95.684803315777586
 30
0.0
 11
122.91195551642539
 21
95.684803315777586
 31
0.0
  0
ARC
  5
E8
  8
1外形線
 10
124.0119555164253
 20
78.184803315777273
 30
0.0
 40
2.0999999999999992
 50
90.0
 51
270.0
  0
LINE
  5
E9
  8
1外形線
 10
109.91195551642539
 20
96.184803315777685
 30
0.0
 11
109.91195551642529
 21
78.184803315777231
 31
0.0
  0
LINE
  5
EA
  8
1外形線
 10
89.911955516424996
 20
102.18480331577651
 30
0.0
 11
99.911955516424996
 21
102.18480331577651
 31
0.0
  0
ARC
  5
EB
  8
1外形線
 10
99.911955516424996
 20
78.184803315776549
 30
0.0
 40
24.0
 50
59.441568214065349
 51
90.0
  0
ARC
  5
EC
  8
1外形線
 10
110.91195551642539
 20
96.184803315777685
 30
0.0
 40
1.0
 50
89.999999999999588
 51
180.0
  0
ARC
  5
ED
  8
1外形線
 10
118.21496073414799
 20
109.18480331577661
 30
0.0
 40
12.0
 50
239.44156821406531
 51
270.0
  0
LINE
  5
EE
  8
1外形線
 10
122.91195551642549
 20
97.184803315777685
 30
0.0
 11
122.91195551642539
 21
95.684803315777629
 31
0.0
  0
LINE
  5
EF
  8
1外形線
 10
154.91195551642531
 20
78.184803315777231
 30
0.0
 11
154.91195551642551
 21
97.184803315777231
 31
0.0
  0
LINE
  5
F0
  8
1外形線
 10
128.81195551642529
 20
76.084803315777151
 30
0.0
 11
126.41195551642529
 21
76.084803315777194
 31
0.0
  0
LINE
  5
F1
  8
1外形線
 10
128.81195551642529
 20
80.28480331577714
 30
0.0
 11
126.41195551642529
 21
80.28480331577714
 31
0.0
  0
LINE
  5
F2
  8
1外形線
 10
124.0119555164254
 20
76.084803315777151
 30
0.0
 11
126.41195551642539
 21
76.084803315777194
 31
0.0
  0
LINE
  5
F3
  8
1外形線
 10
124.0119555164254
 20
80.28480331577714
 30
0.0
 11
126.41195551642539
 21
80.28480331577714
 31
0.0
  0
ARC
  5
F4
  8
1外形線
 10
128.81195551642529
 20
78.184803315777344
 30
0.0
 40
2.0999999999999992
 50
270.0
 51
90.0
  0
CIRCLE
  5
F5
  8
1外形線
 10
144.41195551642539
 20
78.184803315777231
 30
0.0
 40
2.1000000000000001
  0
LINE
  5
F6
  8
1外形線
 10
154.91195551642531
 20
68.684803315777003
 30
0.0
 11
168.91195551642539
 21
68.68480331577689
 31
0.0
  0
ARC
  5
F7
  8
1外形線
 10
168.91195551642539
 20
69.684803315777344
 30
0.0
 40
1.0
 50
270.0
 51
0.0
  0
LINE
  5
F8
  8
1外形線
 10
158.4156868827983
 20
99.184803315776676
 30
0.0
 11
132.911955516425
 21
99.184803315776605
 31
0.0
  0
LINE
  5
F9
  8
1外形線
 10
153.41195551642539
 20
95.88480331577756
 30
0.0
 11
138.41195551642539
 21
95.884803315777603
 31
0.0
  0
LINE
  5
FA
  8
1外形線
 10
136.91195551642539
 20
95.684803315777586
 30
0.0
 11
134.91195551642539
 21
95.684803315777586
 31
0.0
  0
LINE
  5
FB
  8
1外形線
 10
134.91195551642539
 20
97.184803315777586
 30
0.0
 11
134.91195551642539
 21
95.684803315777586
 31
0.0
  0
LINE
  5
FC
  8
1外形線
 10
124.91195551642549
 20
97.184803315777629
 30
0.0
 11
124.91195551642539
 21
95.684803315777586
 31
0.0
  0
LINE
  5
FD
  8
1外形線
 10
136.91195551642539
 20
95.684803315777586
 30
0.0
 11
136.91195551642539
 21
97.184803315777586
 31
0.0
  0
LINE
  5
FE
  8
1外形線
 10
138.41195551642539
 20
95.884803315777603
 30
0.0
 11
138.41195551642539
 21
97.184803315777586
 31
0.0
  0
LINE
  5
FF
  8
1外形線
 10
154.91195551642539
 20
87.684803315777003
 30
0.0
 11
154.91195551642539
 21
97.184803315777231
 31
0.0
  0
LINE
  5
100
  8
1外形線
 10
154.91195551642539
 20
87.684803315777003
 30
0.0
 11
168.91195551642539
 21
87.684803315776819
 31
0.0
  0
ARC
  5
101
  8
1外形線
 10
168.91195551642539
 20
86.684803315777287
 30
0.0
 40
1.0
 50
0.0
 51
90.0
  0
LINE
  5
102
  8
1外形線
 10
161.40079845342891
 20
99.035919022076257
 30
0.0
 11
169.01145923544661
 21
98.274852943874365
 31
0.0
  0
ARC
  5
103
  8
1外形線
 10
158.4156868827983
 20
69.184803315776662
 30
0.0
 40
30.0
 50
84.289406862499391
 51
90.0
  0
LINE
  5
104
  8
1外形線
 10
153.41195551642539
 20
95.88480331577756
 30
0.0
 11
153.41195551642551
 21
97.184803315777231
 31
0.0
  0
ARC
  5
105
  8
1外形線
 10
168.91195551642539
 20
97.279815753664309
 30
0.0
 40
1.0
 50
0.0
 51
84.289406862498979
  0
ARC
  5
106
  8
1外形線
 10
89.911955516424996
 20
255.0504388464976
 30
0.0
 40
26.0
 50
90.0
 51
270.0
  0
ARC
  5
107
  8
1外形線
 10
84.911955516424996
 20
255.05043884649771
 30
0.0
 40
35.0
 50
90.0
 51
269.9999999999996
  0
LINE
  5
108
  8
1外形線
 10
169.91195551642539
 20
274.14545128438539
 30
0.0
 11
169.91195551642539
 21
235.95542640861089
 31
0.0
  0
LINE
  5
109
  8
1外形線
 10
51.911955516425003
 20
146.01858376168721
 30
0.0
 11
130.911955516425
 21
146.0185837616869
 31
0.0
  0
LINE
  5
10A
  8
1外形線
 10
49.911955516424989
 20
143.71858376168731
 30
0.0
 11
169.9119555164244
 21
143.71858376168711
 31
0.0
  0
ARC
  5
10B
  8
1外形線
 10
78.911955516425095
 20
168.9424991891203
 30
0.0
 40
15.0
 50
94.961509095257767
 51
180.0
  0
ARC
  5
10C
  8
1外形線
 10
63.411955516424989
 20
146.51858376168721
 30
0.0
 40
0.5
 50
270.0
 51
0.0
  0
ARC
  5
10D
  8
1外形線
 10
51.911955516425003
 20
144.0185837616873
 30
0.0
 40
2.0
 50
90.0
 51
180.0
  0
LINE
  5
10E
  8
1外形線
 10
49.911955516424989
 20
144.0185837616873
 30
0.0
 11
49.911955516424989
 21
143.71858376168731
 31
0.0
  0
LINE
  5
10F
  8
1外形線
 10
63.911955516425003
 20
146.51858376168721
 30
0.0
 11
63.911955516425003
 21
168.94249918912041
 31
0.0
  0
LINE
  5
110
  8
1外形線
 10
169.9119555164244
 20
143.7185837616874
 30
0.0
 11
169.9119555164242
 21
180.3135961995751
 31
0.0
  0
ARC
  5
111
  8
1外形線
 10
130.911955516425
 20
144.0185837616871
 30
0.0
 40
2.0
 50
0.0
 51
90.0
  0
LINE
  5
112
  8
1外形線
 10
84.911955516424996
 20
113.18480331577661
 30
0.0
 11
99.911955516424996
 21
113.18480331577661
 31
0.0
  0
LINE
  5
113
  8
1外形線
 10
104.911955516425
 20
113.18480331577661
 30
0.0
 11
99.911955516424996
 21
113.18480331577661
 31
0.0
  0
LINE
  5
114
  8
1外形線
 10
132.911955516425
 20
144.0185837616871
 30
0.0
 11
132.911955516425
 21
143.7185837616872
 31
0.0
  0
ARC
  5
115
  8
1外形線
 10
94.911955516425223
 20
-15.364310234731301
 30
0.0
 40
200.0
 50
81.083203747008994
 51
94.961509095257767
  0
LINE
  5
116
  8
1外形線
 10
125.9119555164251
 20
182.21858376168731
 30
0.0
 11
158.91444309400649
 21
182.21858376168731
 31
0.0
  0
LINE
  5
117
  8
1外形線
 10
160.9045174744264
 20
182.119327565887
 30
0.0
 11
169.01145923544539
 21
181.30863338978509
 31
0.0
  0
ARC
  5
118
  8
1外形線
 10
158.9144430940064
 20
162.21858376168731
 30
0.0
 40
20.0
 50
84.289406862500243
 51
90.0
  0
ARC
  5
119
  8
1外形線
 10
168.9119555164244
 20
180.3135961995751
 30
0.0
 40
1.0
 50
0.0
 51
84.289406862500243
  0
ARC
  5
11A
  8
1外形線
 10
104.911955516425
 20
255.05043884649771
 30
0.0
 40
35.0
 50
270.0
 51
323.13010235415601
  0
ARC
  5
11B
  8
1外形線
 10
99.911955516424996
 20
255.0504388464978
 30
0.0
 40
26.0
 50
270.0
 51
300.5584317859346
  0
LINE
  5
11C
  8
1外形線
 10
89.911955516424996
 20
229.05043884649771
 30
0.0
 11
99.911955516424996
 21
229.05043884649771
 31
0.0
  0
LINE
  5
11D
  8
1外形線
 10
84.911955516424896
 20
220.05043884649771
 30
0.0
 11
104.9119555164248
 21
220.05043884649771
 31
0.0
  0
LINE
  5
11E
  8
1外形線
 10
158.41568688279739
 20
234.05043884649771
 30
0.0
 11
118.21496073414799
 21
234.05043884649771
 31
0.0
  0
ARC
  5
11F
  8
1外形線
 10
118.21496073414799
 20
224.05043884649771
 30
0.0
 40
10.0
 50
90.0
 51
120.5584317859346
  0
LINE
  5
120
  8
1外形線
 10
161.40079845342959
 20
234.199323140199
 30
0.0
 11
169.01145923544661
 21
234.96038921840091
 31
0.0
  0
ARC
  5
121
  8
1外形線
 10
158.41568688279901
 20
264.05043884649859
 30
0.0
 40
30.0
 50
270.0
 51
275.71059313750101
  0
ARC
  5
122
  8
1外形線
 10
168.91195551642539
 20
235.95542640861089
 30
0.0
 40
1.0
 50
275.71059313750061
 51
0.0
  0
ARC
  5
123
  8
1外形線
 10
104.911955516425
 20
255.05043884649771
 30
0.0
 40
35.0
 50
36.869897645843608
 51
90.0
  0
LINE
  5
124
  8
1外形線
 10
158.41568688279739
 20
276.05043884649768
 30
0.0
 11
118.21496073414799
 21
276.05043884649768
 31
0.0
  0
LINE
  5
125
  8
1外形線
 10
89.911955516424996
 20
281.05043884649768
 30
0.0
 11
99.911955516424996
 21
281.05043884649768
 31
0.0
  0
LINE
  5
126
  8
1外形線
 10
84.911955516424996
 20
290.05043884649768
 30
0.0
 11
104.911955516425
 21
290.05043884649768
 31
0.0
  0
ARC
  5
127
  8
1外形線
 10
99.911955516424996
 20
255.0504388464976
 30
0.0
 40
26.0
 50
59.441568214065349
 51
90.0
  0
ARC
  5
128
  8
1外形線
 10
118.21496073414799
 20
286.05043884649768
 30
0.0
 40
10.0
 50
239.44156821406531
 51
270.0
  0
LINE
  5
129
  8
1外形線
 10
161.400798453428
 20
275.90155455279728
 30
0.0
 11
169.01145923544661
 21
275.14048847459549
 31
0.0
  0
ARC
  5
12A
  8
1外形線
 10
158.41568688279739
 20
246.05043884649771
 30
0.0
 40
30.0
 50
84.289406862498979
 51
90.0
  0
ARC
  5
12B
  8
1外形線
 10
168.91195551642539
 20
274.14545128438539
 30
0.0
 40
1.0
 50
0.0
 51
84.289406862498979
  0
ARC
  5
12C
  8
1外形線
 10
257.1602574163108
 20
146.51858376168721
 30
0.0
 40
0.5
 50
180.0
 51
270.0
  0
ARC
  5
12D
  8
1外形線
 10
252.1602574163108
 20
146.5185837616871
 30
0.0
 40
0.5
 50
180.0
 51
270.0
  0
ARC
  5
12E
  8
1外形線
 10
263.66025741631091
 20
144.0185837616871
 30
0.0
 40
2.0
 50
0.0
 51
90.0
  0
LINE
  5
12F
  8
1外形線
 10
251.6602574163108
 20
161.218583761692
 30
0.0
 11
251.6602574163108
 21
143.718583761692
 31
0.0
  0
LINE
  5
130
  8
1外形線
 10
249.6602574163108
 20
161.218583761692
 30
0.0
 11
249.6602574163108
 21
143.72096068584341
 31
0.0
  0
ARC
  5
131
  8
1外形線
 10
204.1602574163108
 20
146.51858376168721
 30
0.0
 40
0.5
 50
270.0
 51
0.0
  0
ARC
  5
132
  8
1外形線
 10
209.1602574163108
 20
146.5185837616871
 30
0.0
 40
0.5
 50
270.0
 51
0.0
  0
ARC
  5
133
  8
1外形線
 10
197.66025741631071
 20
144.0185837616871
 30
0.0
 40
2.0
 50
90.0
 51
180.0
  0
LINE
  5
134
  8
1外形線
 10
211.6602574163108
 20
161.218583761692
 30
0.0
 11
211.6602574163108
 21
143.72096068584341
 31
0.0
  0
LINE
  5
135
  8
1外形線
 10
209.6602574163108
 20
161.218583761692
 30
0.0
 11
209.6602574163108
 21
143.7212108883862
 31
0.0
  0
ARC
  5
136
  8
1外形線
 10
230.6602574163108
 20
161.218583761692
 30
0.0
 40
21.0
 50
0.0
 51
180.0
  0
LINE
  5
137
  8
1外形線
 10
230.6602574163108
 20
143.718583761692
 30
0.0
 11
195.6602574163108
 21
143.718583761692
 31
0.0
  0
LINE
  5
138
  8
1外形線
 10
209.1602574163108
 20
146.0185837616871
 30
0.0
 11
197.66025741631071
 21
146.0185837616871
 31
0.0
  0
LINE
  5
139
  8
1外形線
 10
195.6602574163108
 20
143.718583761692
 30
0.0
 11
195.66025741631071
 21
144.0185837616871
 31
0.0
  0
LINE
  5
13A
  8
1外形線
 10
230.6602574163108
 20
143.718583761692
 30
0.0
 11
265.6602574163108
 21
143.718583761692
 31
0.0
  0
LINE
  5
13B
  8
1外形線
 10
252.1602574163108
 20
146.0185837616871
 30
0.0
 11
263.66025741631091
 21
146.0185837616871
 31
0.0
  0
LINE
  5
13C
  8
1外形線
 10
265.6602574163108
 20
143.718583761692
 30
0.0
 11
265.66025741631091
 21
144.0185837616871
 31
0.0
  0
ARC
  5
13D
  8
1外形線
 10
230.6602574163108
 20
-15.364310234731301
 30
0.0
 40
200.0
 50
86.591213318909865
 51
93.408786681090135
  0
ARC
  5
13E
  8
1外形線
 10
230.6602574163108
 20
161.218583761692
 30
0.0
 40
19.0
 50
0.0
 51
180.0
  0
LINE
  5
13F
  8
1外形線
 10
230.6602574163108
 20
148.2185837616926
 30
0.0
 11
222.66025741631131
 21
148.2185837616926
 31
0.0
  0
ARC
  5
140
  8
1外形線
 10
230.66025741631179
 20
163.21858376169129
 30
0.0
 40
12.0
 50
238.31446444543991
 51
269.9999999999979
  0
LINE
  5
141
  8
1外形線
 10
224.3571752739627
 20
153.00725889628751
 30
0.0
 11
214.1602574163108
 21
153.00725889628751
 31
0.0
  0
LINE
  5
142
  8
1外形線
 10
240.16025741631131
 20
146.2185837616926
 30
0.0
 11
221.16025741631131
 21
146.2185837616926
 31
0.0
  0
LINE
  5
143
  8
1外形線
 10
204.6602574163108
 20
146.51858376168721
 30
0.0
 11
204.66025741631091
 21
169.30837318108951
 31
0.0
  0
LINE
  5
144
  8
1外形線
 10
211.6602574163108
 20
151.7185837616926
 30
0.0
 11
213.6602574163108
 21
152.8732843000719
 31
0.0
  0
LINE
  5
145
  8
1外形線
 10
222.66025741631131
 20
149.7185837616926
 30
0.0
 11
221.16025741631131
 21
149.7185837616926
 31
0.0
  0
LINE
  5
146
  8
1外形線
 10
222.66025741631131
 20
149.71858376169251
 30
0.0
 11
222.66025741631131
 21
148.2185837616926
 31
0.0
  0
LINE
  5
147
  8
1外形線
 10
221.16025741631131
 20
149.71858376169251
 30
0.0
 11
221.16025741631131
 21
146.2185837616926
 31
0.0
  0
ARC
  5
148
  8
1外形線
 10
214.16025741631091
 20
152.00725889628751
 30
0.0
 40
1.0
 50
90.0
 51
119.9999999999995
  0
ARC
  5
149
  8
1外形線
 10
219.6602574163108
 20
169.30837318108951
 30
0.0
 40
15.0
 50
93.408786681089737
 51
180.0
  0
LINE
  5
14A
  8
1外形線
 10
256.66025741631069
 20
146.51858376168721
 30
0.0
 11
256.66025741631069
 21
169.30837318108951
 31
0.0
  0
LINE
  5
14B
  8
1外形線
 10
249.6602574163108
 20
151.7185837616926
 30
0.0
 11
247.6602574163108
 21
152.8732843000719
 31
0.0
  0
LINE
  5
14C
  8
1外形線
 10
249.6602574163108
 20
151.7185837616926
 30
0.0
 11
247.6602574163108
 21
152.8732843000719
 31
0.0
  0
ARC
  5
14D
  8
1外形線
 10
230.66025741631091
 20
163.21858376169129
 30
0.0
 40
12.0
 50
270.00000000000199
 51
301.6855355545585
  0
LINE
  5
14E
  8
1外形線
 10
238.6602574163112
 20
148.2185837616926
 30
0.0
 11
230.6602574163108
 21
148.2185837616926
 31
0.0
  0
ARC
  5
14F
  8
1外形線
 10
247.16025741631091
 20
152.00725889628751
 30
0.0
 40
1.0
 50
60.000000000000419
 51
90.0
  0
LINE
  5
150
  8
1外形線
 10
240.16025741631131
 20
149.7185837616926
 30
0.0
 11
238.6602574163112
 21
149.7185837616926
 31
0.0
  0
LINE
  5
151
  8
1外形線
 10
238.6602574163112
 20
149.7185837616926
 30
0.0
 11
238.6602574163112
 21
148.2185837616926
 31
0.0
  0
LINE
  5
152
  8
1外形線
 10
240.16025741631131
 20
149.7185837616926
 30
0.0
 11
240.16025741631131
 21
146.2185837616926
 31
0.0
  0
LINE
  5
153
  8
1外形線
 10
247.1602574163108
 20
153.00725889628751
 30
0.0
 11
236.96333955865899
 21
153.00725889628751
 31
0.0
  0
ARC
  5
154
  8
1外形線
 10
241.6602574163108
 20
169.30837318108951
 30
0.0
 40
15.0
 50
0.0
 51
86.591213318909865
  0
ENDSEC
  0
EOF
