  0
SECTION
  2
HEADER
  9
$ACADVER
  1
AC1009
  9
$INSBASE
 10
0.0
 20
0.0
 30
0.0
  9
$EXTMIN
 10
51.673279846638131
 20
18.662201640967051
 30
-0.0015258207003583
  9
$EXTMAX
 10
301.90063560602789
 20
325.28787303889152
 30
0.0000000349246037
  9
$LIMMIN
 10
0.0
 20
0.0
  9
$LIMMAX
 10
420.0
 20
297.0
  9
$ORTHOMODE
 70
     0
  9
$REGENMODE
 70
     1
  9
$FILLMODE
 70
     1
  9
$QTEXTMODE
 70
     0
  9
$MIRRTEXT
 70
     1
  9
$DRAGMODE
 70
     2
  9
$LTSCALE
 40
1.0
  9
$OSMODE
 70
    37
  9
$ATTMODE
 70
     1
  9
$TEXTSIZE
 40
2.5
  9
$TRACEWID
 40
1.0
  9
$TEXTSTYLE
  7
STANDARD
  9
$CLAYER
  8
0
  9
$CELTYPE
  6
BYLAYER
  9
$CECOLOR
 62
   256
  9
$DIMSCALE
 40
1.0
  9
$DIMASZ
 40
2.5
  9
$DIMEXO
 40
0.625
  9
$DIMDLI
 40
3.75
  9
$DIMRND
 40
0.0
  9
$DIMDLE
 40
0.0
  9
$DIMEXE
 40
1.25
  9
$DIMTP
 40
0.0
  9
$DIMTM
 40
0.0
  9
$DIMTXT
 40
2.5
  9
$DIMCEN
 40
2.5
  9
$DIMTSZ
 40
0.0
  9
$DIMTOL
 70
     0
  9
$DIMLIM
 70
     0
  9
$DIMTIH
 70
     0
  9
$DIMTOH
 70
     0
  9
$DIMSE1
 70
     0
  9
$DIMSE2
 70
     0
  9
$DIMTAD
 70
     1
  9
$DIMZIN
 70
     8
  9
$DIMBLK
  1

  9
$DIMASO
 70
     1
  9
$DIMSHO
 70
     1
  9
$DIMPOST
  1

  9
$DIMAPOST
  1

  9
$DIMALT
 70
     0
  9
$DIMALTD
 70
     3
  9
$DIMALTF
 40
0.03937007874016
  9
$DIMLFAC
 40
1.0
  9
$DIMTOFL
 70
     1
  9
$DIMTVP
 40
0.0
  9
$DIMTIX
 70
     0
  9
$DIMSOXD
 70
     0
  9
$DIMSAH
 70
     0
  9
$DIMBLK1
  1

  9
$DIMBLK2
  1

  9
$DIMSTYLE
  2
ISO-25
  9
$DIMCLRD
 70
     0
  9
$DIMCLRE
 70
     0
  9
$DIMCLRT
 70
     0
  9
$DIMTFAC
 40
1.0
  9
$DIMGAP
 40
0.625
  9
$LUNITS
 70
     2
  9
$LUPREC
 70
     4
  9
$SKETCHINC
 40
1.0
  9
$FILLETRAD
 40
10.0
  9
$AUNITS
 70
     0
  9
$AUPREC
 70
     0
  9
$MENU
  1
.
  9
$ELEVATION
 40
0.0
  9
$PELEVATION
 40
0.0
  9
$THICKNESS
 40
0.0
  9
$LIMCHECK
 70
     0
  9
$BLIPMODE
 70
     0
  9
$CHAMFERA
 40
10.0
  9
$CHAMFERB
 40
10.0
  9
$SKPOLY
 70
     0
  9
$TDCREATE
 40
2452048.5652731592
  9
$TDUPDATE
 40
2452048.5656616781
  9
$TDINDWG
 40
0.0003889815
  9
$TDUSRTIMER
 40
0.0003889815
  9
$USRTIMER
 70
     1
  9
$ANGBASE
 50
0.0
  9
$ANGDIR
 70
     0
  9
$PDMODE
 70
     0
  9
$PDSIZE
 40
0.0
  9
$PLINEWID
 40
0.0
  9
$COORDS
 70
     1
  9
$SPLFRAME
 70
     0
  9
$SPLINETYPE
 70
     6
  9
$SPLINESEGS
 70
     8
  9
$ATTDIA
 70
     0
  9
$ATTREQ
 70
     1
  9
$HANDLING
 70
-16383
  9
$HANDSEED
  5
14E
  9
$SURFTAB1
 70
     6
  9
$SURFTAB2
 70
     6
  9
$SURFTYPE
 70
     6
  9
$SURFU
 70
     6
  9
$SURFV
 70
     6
  9
$UCSNAME
  2

  9
$UCSORG
 10
0.0
 20
0.0
 30
0.0
  9
$UCSXDIR
 10
1.0
 20
0.0
 30
0.0
  9
$UCSYDIR
 10
0.0
 20
1.0
 30
0.0
  9
$PUCSNAME
  2

  9
$PUCSORG
 10
0.0
 20
0.0
 30
0.0
  9
$PUCSXDIR
 10
1.0
 20
0.0
 30
0.0
  9
$PUCSYDIR
 10
0.0
 20
1.0
 30
0.0
  9
$USERI1
 70
     0
  9
$USERI2
 70
     0
  9
$USERI3
 70
     0
  9
$USERI4
 70
     0
  9
$USERI5
 70
     0
  9
$USERR1
 40
0.0
  9
$USERR2
 40
0.0
  9
$USERR3
 40
0.0
  9
$USERR4
 40
0.0
  9
$USERR5
 40
0.0
  9
$WORLDVIEW
 70
     1
  9
$SHADEDGE
 70
     3
  9
$SHADEDIF
 70
    70
  9
$TILEMODE
 70
     1
  9
$MAXACTVP
 70
    64
  9
$PLIMCHECK
 70
     0
  9
$PEXTMIN
 10
1.0000000000000000E+020
 20
1.0000000000000000E+020
 30
1.0000000000000000E+020
  9
$PEXTMAX
 10
-1.0000000000000000E+020
 20
-1.0000000000000000E+020
 30
-1.0000000000000000E+020
  9
$PLIMMIN
 10
0.0
 20
0.0
  9
$PLIMMAX
 10
420.0
 20
297.0
  9
$UNITMODE
 70
     0
  9
$VISRETAIN
 70
     1
  9
$PLINEGEN
 70
     0
  9
$PSLTSCALE
 70
     1
  0
ENDSEC
  0
SECTION
  2
TABLES
  0
TABLE
  2
VPORT
 70
     3
  0
VPORT
  2
*ACTIVE
 70
     0
 10
0.0
 20
0.0
 11
1.0
 21
1.0
 12
176.78695772633299
 22
171.9750373399292
 13
0.0
 23
0.0
 14
10.0
 24
10.0
 15
10.0
 25
10.0
 16
0.0
 26
0.0
 36
1.0
 17
0.0
 27
0.0
 37
0.0
 40
309.8992550783293
 41
1.670231729055258
 42
50.0
 43
0.0
 44
0.0
 50
0.0
 51
0.0
 71
     0
 72
   100
 73
     1
 74
     3
 75
     0
 76
     0
 77
     0
 78
     0
  0
ENDTAB
  0
TABLE
  2
LTYPE
 70
     1
  0
LTYPE
  2
CONTINUOUS
 70
     0
  3
Solid line
 72
    65
 73
     0
 40
0.0
  0
ENDTAB
  0
TABLE
  2
LAYER
 70
     2
  0
LAYER
  2
0
 70
     0
 62
     7
  6
CONTINUOUS
  0
LAYER
  2
1外形線
 70
     0
 62
     3
  6
CONTINUOUS
  0
ENDTAB
  0
TABLE
  2
STYLE
 70
     2
  0
STYLE
  2
STANDARD
 70
     0
 40
0.0
 41
1.0
 50
0.0
 71
     0
 42
2.5
  3
txt
  4

  0
STYLE
  2
KANJI
 70
     0
 40
0.0
 41
1.0
 50
0.0
 71
     0
 42
10.0
  3
simplex
  4
bigfont
  0
ENDTAB
  0
TABLE
  2
VIEW
 70
     0
  0
ENDTAB
  0
TABLE
  2
UCS
 70
     0
  0
ENDTAB
  0
TABLE
  2
APPID
 70
     1
  0
APPID
  2
ACAD
 70
     0
  0
ENDTAB
  0
TABLE
  2
DIMSTYLE
 70
     2
  0
DIMSTYLE
  2
ISO-25
 70
     0
  3

  4

  5

  6

  7

 40
1.0
 41
2.5
 42
0.625
 43
3.75
 44
1.25
 45
0.0
 46
0.0
 47
0.0
 48
0.0
140
2.5
141
2.5
142
0.0
143
0.03937007874016
144
1.0
145
0.0
146
1.0
147
0.625
 71
     0
 72
     0
 73
     0
 74
     0
 75
     0
 76
     0
 77
     1
 78
     8
170
     0
171
     3
172
     1
173
     0
174
     0
175
     0
176
     0
177
     0
178
     0
  0
DIMSTYLE
  2
STANDARD
 70
     0
  3

  4

  5

  6
1
  7
1
 40
1.0
 41
1.0
 42
1.0
 43
6.0
 44
1.0
 45
0.0
 46
0.0
 47
0.0
 48
0.0
140
2.5
141
0.0
142
0.0
143
25.399999999999999
144
1.0
145
0.0
146
1.0
147
0.5
 71
     0
 72
     0
 73
     0
 74
     0
 75
     0
 76
     0
 77
     1
 78
     8
170
     0
171
     2
172
     1
173
     1
174
     0
175
     0
176
     0
177
     0
178
     0
  0
ENDTAB
  0
ENDSEC
  0
SECTION
  2
BLOCKS
  0
BLOCK
  8
0
  2
$MODEL_SPACE
 70
     0
 10
0.0
 20
0.0
 30
0.0
  3
$MODEL_SPACE
  1

  0
ENDBLK
  5
21
  8
0
  0
BLOCK
 67
     1
  8
0
  2
$PAPER_SPACE
 70
     0
 10
0.0
 20
0.0
 30
0.0
  3
$PAPER_SPACE
  1

  0
ENDBLK
  5
1D
 67
     1
  8
0
  0
BLOCK
  8
0
  2
1
 70
     0
 10
0.0
 20
0.0
 30
0.0
  3
1
  1

  0
SOLID
  5
2C
  8
0
  6
BYBLOCK
 62
     0
 10
-1.811110924292052
 20
0.4852857095671653
 30
0.0
 11
-1.811110924292052
 21
-0.4852857095673642
 31
0.0
 12
0.0
 22
0.0
 32
0.0
 13
0.0
 23
0.0
 33
0.0
  0
ENDBLK
  5
2E
  8
0
  0
ENDSEC
  0
SECTION
  2
ENTITIES
  0
LINE
  5
BF
  8
1外形線
 10
176.09395416662531
 20
38.459963718367362
 30
0.0
 11
145.09146658904231
 21
38.459963718367021
 31
0.0
  0
LINE
  5
C0
  8
1外形線
 10
176.09395416662261
 20
86.459963718367817
 30
0.0
 11
145.09146658904331
 21
86.459963718367575
 31
0.0
  0
LINE
  5
C1
  8
1外形線
 10
176.09395416662531
 20
257.49361319353511
 30
0.0
 11
131.0043450638203
 21
257.4936131935346
 31
0.0
  0
LINE
  5
C2
  8
1外形線
 10
176.09395416662261
 20
305.49361319353551
 30
0.0
 11
131.0043450638228
 21
305.49361319353523
 31
0.0
  0
LINE
  5
C3
  8
1外形線
 10
52.091466589042852
 20
147.52070663571629
 30
0.0
 11
187.09146658904351
 21
147.52070663571629
 31
0.0
  0
LINE
  5
C4
  8
1外形線
 10
139.09146658904319
 20
192.02070663571641
 30
0.0
 11
175.59519795541661
 21
192.02070663571641
 31
0.0
  0
LINE
  5
C5
  8
1外形線
 10
187.09146658904299
 20
84.459963718369636
 30
0.0
 11
123.09146658904351
 21
84.459963718369636
 31
0.0
  0
LINE
  5
C6
  8
1外形線
 10
187.09146658904311
 20
40.459963718367241
 30
0.0
 11
123.09146658904341
 21
40.459963718371448
 31
0.0
  0
LINE
  5
C7
  8
1外形線
 10
172.09146658904331
 20
49.959963718369131
 30
0.0
 11
186.09146658904331
 21
49.959963718369352
 31
0.0
  0
LINE
  5
C8
  8
1外形線
 10
172.09146658904331
 20
74.959963718369124
 30
0.0
 11
186.09146658904331
 21
74.959963718369224
 31
0.0
  0
ARC
  5
C9
  8
1外形線
 10
98.091466589042852
 20
62.459963718367987
 30
0.0
 40
29.0
 50
90.0
 51
270.0
  0
ARC
  5
CA
  8
1外形線
 10
92.091466589042867
 20
62.459963718367931
 30
0.0
 40
40.0
 50
90.0
 51
270.0
  0
LINE
  5
CB
  8
1外形線
 10
172.09146658904331
 20
84.459963718369579
 30
0.0
 11
172.09146658904331
 21
40.459963718368158
 31
0.0
  0
LINE
  5
CC
  8
1外形線
 10
122.0914665890426
 20
62.459963718369131
 30
0.0
 11
122.09146658904361
 21
41.459963718368549
 31
0.0
  0
ARC
  5
CD
  8
1外形線
 10
107.0914665890428
 20
62.459963718367987
 30
0.0
 40
29.0
 50
270.0
 51
303.97635281948749
  0
ARC
  5
CE
  8
1外形線
 10
130.0043450638203
 20
28.45996371836679
 30
0.0
 40
12.0
 50
90.0
 51
123.9763528194878
  0
ARC
  5
CF
  8
1外形線
 10
113.0914665890428
 20
62.459963718367931
 30
0.0
 40
40.0
 50
270.0
 51
323.13010235415339
  0
LINE
  5
D0
  8
1外形線
 10
92.091466589042867
 20
22.459963718367931
 30
0.0
 11
113.0914665890428
 21
22.459963718367931
 31
0.0
  0
LINE
  5
D1
  8
1外形線
 10
98.091466589042852
 20
33.459963718367987
 30
0.0
 11
107.0914665890428
 21
33.459963718367987
 31
0.0
  0
ARC
  5
D2
  8
1外形線
 10
123.09146658904351
 20
41.459963718368613
 30
0.0
 40
1.0
 50
180.00000000000159
 51
270.0
  0
LINE
  5
D3
  8
1外形線
 10
149.09146658904331
 20
41.959963718368613
 30
0.0
 11
147.09146658904339
 21
41.959963718368549
 31
0.0
  0
LINE
  5
D4
  8
1外形線
 10
137.09146658904339
 20
41.959963718368499
 30
0.0
 11
135.09146658904351
 21
41.959963718368549
 31
0.0
  0
LINE
  5
D5
  8
1外形線
 10
135.09146658904351
 20
40.459963718368719
 30
0.0
 11
135.09146658904351
 21
41.959963718368549
 31
0.0
  0
LINE
  5
D6
  8
1外形線
 10
147.09146658904339
 20
40.459963718368662
 30
0.0
 11
147.09146658904339
 21
41.959963718368613
 31
0.0
  0
LINE
  5
D7
  8
1外形線
 10
137.09146658904351
 20
40.459963718368719
 30
0.0
 11
137.09146658904351
 21
41.959963718368549
 31
0.0
  0
LINE
  5
D8
  8
1外形線
 10
170.59146658904339
 20
41.759963718368283
 30
0.0
 11
150.59146658904339
 21
41.759963718369647
 31
0.0
  0
LINE
  5
D9
  8
1外形線
 10
149.09146658904331
 20
41.959963718368613
 30
0.0
 11
149.09146658904339
 21
40.459963718369799
 31
0.0
  0
LINE
  5
DA
  8
1外形線
 10
150.59146658904339
 20
41.759963718369647
 30
0.0
 11
150.59146658904339
 21
40.459963718368208
 31
0.0
  0
LINE
  5
DB
  8
1外形線
 10
170.59146658904351
 20
40.459963718367867
 30
0.0
 11
170.59146658904339
 21
41.759963718368283
 31
0.0
  0
CIRCLE
  5
DC
  8
1外形線
 10
59.091466589042852
 20
62.459963718368158
 30
0.0
 40
2.1000000000000001
  0
ARC
  5
DD
  8
1外形線
 10
107.0914665890428
 20
62.459963718367867
 30
0.0
 40
29.0
 50
56.023647180507623
 51
90.0
  0
ARC
  5
DE
  8
1外形線
 10
113.0914665890428
 20
62.459963718367931
 30
0.0
 40
40.0
 50
36.869897645843459
 51
90.0
  0
ARC
  5
DF
  8
1外形線
 10
130.0043450638228
 20
96.459963718367476
 30
0.0
 40
12.0
 50
236.0236471805076
 51
270.0
  0
LINE
  5
E0
  8
1外形線
 10
122.0914665890426
 20
62.459963718369131
 30
0.0
 11
122.09146658904361
 21
83.459963718369693
 31
0.0
  0
ARC
  5
E1
  8
1外形線
 10
123.09146658904351
 20
83.459963718369636
 30
0.0
 40
1.0
 50
90.0
 51
179.99999999999829
  0
LINE
  5
E2
  8
1外形線
 10
145.99146658904311
 20
64.559963718369204
 30
0.0
 11
141.1914665890433
 21
64.559963718369147
 31
0.0
  0
LINE
  5
E3
  8
1外形線
 10
145.99146658904311
 20
60.359963718369222
 30
0.0
 11
141.1914665890433
 21
60.359963718369222
 31
0.0
  0
ARC
  5
E4
  8
1外形線
 10
141.1914665890433
 20
62.45996371836906
 30
0.0
 40
2.0999999999999992
 50
90.0
 51
270.0
  0
ARC
  5
E5
  8
1外形線
 10
145.99146658904311
 20
62.459963718369011
 30
0.0
 40
2.0999999999999992
 50
270.0
 51
90.0
  0
CIRCLE
  5
E6
  8
1外形線
 10
161.59146658904331
 20
62.459963718369131
 30
0.0
 40
2.1000000000000001
  0
LINE
  5
E7
  8
1外形線
 10
149.09146658904331
 20
82.959963718369636
 30
0.0
 11
147.09146658904339
 21
82.959963718369679
 31
0.0
  0
LINE
  5
E8
  8
1外形線
 10
137.09146658904331
 20
82.959963718369679
 30
0.0
 11
135.09146658904351
 21
82.959963718369679
 31
0.0
  0
LINE
  5
E9
  8
1外形線
 10
135.09146658904339
 20
82.959963718369764
 30
0.0
 11
135.09146658904351
 21
84.459963718369693
 31
0.0
  0
LINE
  5
EA
  8
1外形線
 10
147.09146658904339
 20
82.959963718369636
 30
0.0
 11
147.09146658904339
 21
84.459963718369636
 31
0.0
  0
LINE
  5
EB
  8
1外形線
 10
137.09146658904339
 20
82.959963718369679
 30
0.0
 11
137.09146658904351
 21
84.459963718369636
 31
0.0
  0
LINE
  5
EC
  8
1外形線
 10
170.59146658904339
 20
83.159963718369625
 30
0.0
 11
150.59146658904339
 21
83.159963718369681
 31
0.0
  0
LINE
  5
ED
  8
1外形線
 10
150.59146658904339
 20
83.159963718369724
 30
0.0
 11
150.59146658904331
 21
84.459963718370105
 31
0.0
  0
LINE
  5
EE
  8
1外形線
 10
149.09146658904339
 20
82.959963718369636
 30
0.0
 11
149.09146658904339
 21
84.459963718369693
 31
0.0
  0
LINE
  5
EF
  8
1外形線
 10
170.59146658904339
 20
83.159963718369625
 30
0.0
 11
170.59146658904331
 21
84.459963718370105
 31
0.0
  0
LINE
  5
F0
  8
1外形線
 10
113.0914665890428
 20
102.4599637183679
 30
0.0
 11
92.091466589042867
 21
102.4599637183679
 31
0.0
  0
LINE
  5
F1
  8
1外形線
 10
98.091466589042852
 20
91.459963718367874
 30
0.0
 11
107.0914665890428
 21
91.459963718367874
 31
0.0
  0
LINE
  5
F2
  8
1外形線
 10
103.0914665890428
 20
102.4599637183679
 30
0.0
 11
102.5914665890428
 21
102.4599637183679
 31
0.0
  0
LINE
  5
F3
  8
1外形線
 10
102.0914665890428
 20
102.4599637183679
 30
0.0
 11
102.5914665890428
 21
102.4599637183679
 31
0.0
  0
ARC
  5
F4
  8
1外形線
 10
97.091466589042867
 20
281.49361319353562
 30
0.0
 40
31.0
 50
90.0
 51
270.0
  0
ARC
  5
F5
  8
1外形線
 10
92.091466589042867
 20
281.49361319353562
 30
0.0
 40
40.0
 50
90.0
 51
270.0
  0
ARC
  5
F6
  8
1外形線
 10
81.091466589043065
 20
178.65028419005591
 30
0.0
 40
15.0
 50
95.034472843412019
 51
180.0
  0
LINE
  5
F7
  8
1外形線
 10
54.091466589042852
 20
149.82070663571639
 30
0.0
 11
143.09146658904211
 21
149.82070663571679
 31
0.0
  0
LINE
  5
F8
  8
1外形線
 10
66.091466589042852
 20
150.32070663571639
 30
0.0
 11
66.091466589043065
 21
178.65028419005591
 31
0.0
  0
LINE
  5
F9
  8
1外形線
 10
52.091466589042852
 20
147.52070663571629
 30
0.0
 11
52.091466589042852
 21
147.82070663571639
 31
0.0
  0
ARC
  5
FA
  8
1外形線
 10
54.091466589042852
 20
147.82070663571639
 30
0.0
 40
2.0
 50
90.0
 51
180.0
  0
ARC
  5
FB
  8
1外形線
 10
65.591466589042852
 20
150.32070663571639
 30
0.0
 40
0.5
 50
270.0
 51
0.0
  0
LINE
  5
FC
  8
1外形線
 10
145.09146658904211
 20
147.52070663571629
 30
0.0
 11
145.09146658904211
 21
147.82070663571639
 31
0.0
  0
ARC
  5
FD
  8
1外形線
 10
143.09146658904211
 20
147.82070663571639
 30
0.0
 40
2.0
 50
0.0
 51
90.0
  0
ARC
  5
FE
  8
1外形線
 10
102.5914665890428
 20
-65.404525227828685
 30
0.0
 40
260.0
 50
81.929897114241385
 51
95.034472843412019
  0
ARC
  5
FF
  8
1外形線
 10
108.0914665890428
 20
281.49361319353562
 30
0.0
 40
31.0
 50
270.0
 51
303.97635281948851
  0
ARC
  5
100
  8
1外形線
 10
113.0914665890428
 20
281.49361319353562
 30
0.0
 40
40.0
 50
270.0
 51
323.13010235415339
  0
LINE
  5
101
  8
1外形線
 10
97.091466589042867
 20
250.49361319353559
 30
0.0
 11
102.5914665890428
 21
250.49361319353559
 31
0.0
  0
LINE
  5
102
  8
1外形線
 10
92.091466589042867
 20
241.49361319353559
 30
0.0
 11
113.0914665890428
 21
241.49361319353559
 31
0.0
  0
LINE
  5
103
  8
1外形線
 10
108.0914665890428
 20
250.49361319353559
 30
0.0
 11
102.5914665890428
 21
250.49361319353559
 31
0.0
  0
ARC
  5
104
  8
1外形線
 10
131.00434506382049
 20
247.4936131935346
 30
0.0
 40
10.0
 50
90.0
 51
123.9763528194885
  0
ARC
  5
105
  8
1外形線
 10
108.0914665890428
 20
281.49361319353562
 30
0.0
 40
31.0
 50
56.023647180507623
 51
90.0
  0
ARC
  5
106
  8
1外形線
 10
113.0914665890428
 20
281.49361319353562
 30
0.0
 40
40.0
 50
36.869897645843459
 51
90.0
  0
LINE
  5
107
  8
1外形線
 10
92.091466589042867
 20
321.49361319353562
 30
0.0
 11
113.0914665890428
 21
321.49361319353562
 31
0.0
  0
LINE
  5
108
  8
1外形線
 10
97.091466589042867
 20
312.49361319353562
 30
0.0
 11
102.5914665890428
 21
312.49361319353562
 31
0.0
  0
LINE
  5
109
  8
1外形線
 10
108.0914665890428
 20
312.49361319353562
 30
0.0
 11
102.5914665890428
 21
312.49361319353562
 31
0.0
  0
ARC
  5
10A
  8
1外形線
 10
131.00434506382251
 20
315.49361319353523
 30
0.0
 40
10.0
 50
236.0236471805076
 51
270.0
  0
LINE
  5
10B
  8
1外形線
 10
187.09146658904311
 20
84.554976156255165
 30
0.0
 11
187.09146658904331
 21
40.364951280479708
 31
0.0
  0
ARC
  5
10C
  8
1外形線
 10
186.09146658904331
 20
40.364951280479708
 30
0.0
 40
1.0
 50
275.71059313750061
 51
0.0
  0
ARC
  5
10D
  8
1外形線
 10
176.09395416662531
 20
58.459963718367362
 30
0.0
 40
20.0
 50
270.0
 51
275.71059313750061
  0
LINE
  5
10E
  8
1外形線
 10
178.0840285470459
 20
38.55921991416767
 30
0.0
 11
186.19097030806469
 21
39.369914090269731
 31
0.0
  0
ARC
  5
10F
  8
1外形線
 10
186.09146658904331
 20
50.95996371836889
 30
0.0
 40
1.0
 50
270.0
 51
0.0
  0
ARC
  5
110
  8
1外形線
 10
186.09146658904331
 20
73.959963718368783
 30
0.0
 40
1.0
 50
0.0
 51
90.0
  0
ARC
  5
111
  8
1外形線
 10
186.09146658904331
 20
84.554976156255165
 30
0.0
 40
1.0
 50
0.0
 51
84.289406862499419
  0
ARC
  5
112
  8
1外形線
 10
176.09395416662261
 20
66.459963718367817
 30
0.0
 40
20.0
 50
84.289406862499419
 51
90.0
  0
LINE
  5
113
  8
1外形線
 10
178.0840285470432
 20
86.360707522567566
 30
0.0
 11
186.19097030806469
 21
85.550013346465221
 31
0.0
  0
LINE
  5
114
  8
1外形線
 10
187.09146658904331
 20
281.49361319353562
 30
0.0
 11
187.09146658904331
 21
303.58862563142287
 31
0.0
  0
LINE
  5
115
  8
1外形線
 10
301.46810521722392
 20
147.52070663571629
 30
0.0
 11
221.49073322389549
 21
147.52070663571621
 31
0.0
  0
ARC
  5
116
  8
1外形線
 10
261.46810521722392
 20
168.02070663571601
 30
0.0
 40
24.0
 50
0.0
 51
180.0
  0
ARC
  5
117
  8
1外形線
 10
261.46810521722392
 20
168.02070663571601
 30
0.0
 40
22.0
 50
0.0
 51
180.0
  0
ARC
  5
118
  8
1外形線
 10
261.46810521722392
 20
-65.47492439518129
 30
0.0
 40
260.0
 50
86.255569987215949
 51
93.744430012784036
  0
LINE
  5
119
  8
1外形線
 10
280.97941922056037
 20
156.80938177031189
 30
0.0
 11
268.83049026972822
 21
156.80938177031189
 31
0.0
  0
LINE
  5
11A
  8
1外形線
 10
230.46810521722389
 20
150.32070663571619
 30
0.0
 11
230.46810521722389
 21
179.00206838737071
 31
0.0
  0
LINE
  5
11B
  8
1外形線
 10
187.09146658904351
 20
147.52070663571669
 30
0.0
 11
187.09146658904331
 21
182.6157190736042
 31
0.0
  0
LINE
  5
11C
  8
1外形線
 10
187.09146658904331
 20
190.11571907360431
 30
0.0
 11
187.09146658904331
 21
147.52070663571669
 31
0.0
  0
LINE
  5
11D
  8
1外形線
 10
223.46810521722401
 20
149.82070663571631
 30
0.0
 11
236.96810521722389
 21
149.82070663571619
 31
0.0
  0
ARC
  5
11E
  8
1外形線
 10
223.46810521722401
 20
147.82070663571631
 30
0.0
 40
2.0
 50
90.0
 51
180.0
  0
LINE
  5
11F
  8
1外形線
 10
221.46810521722389
 20
147.52070663571629
 30
0.0
 11
221.46810521722389
 21
147.82070663571631
 31
0.0
  0
LINE
  5
120
  8
1外形線
 10
237.46810521722381
 20
147.5207066357161
 30
0.0
 11
237.46810521722389
 21
168.02070663571601
 31
0.0
  0
LINE
  5
121
  8
1外形線
 10
239.46810521722389
 20
168.02070663571601
 30
0.0
 11
239.46810521722389
 21
147.52070663571601
 31
0.0
  0
LINE
  5
122
  8
1外形線
 10
250.47941922055881
 20
153.5207066357159
 30
0.0
 11
248.97941922055881
 21
153.5207066357159
 31
0.0
  0
LINE
  5
123
  8
1外形線
 10
273.9794192205606
 20
150.02070663571601
 30
0.0
 11
248.97941922055881
 21
150.02070663571601
 31
0.0
  0
ARC
  5
124
  8
1外形線
 10
229.96810521722389
 20
150.32070663571619
 30
0.0
 40
0.5
 50
270.0
 51
0.0
  0
ARC
  5
125
  8
1外形線
 10
236.96810521722389
 20
150.32070663571619
 30
0.0
 40
0.5
 50
270.0
 51
0.0
  0
LINE
  5
126
  8
1外形線
 10
248.97941922055881
 20
153.52070663571601
 30
0.0
 11
248.97941922055881
 21
150.02070663571601
 31
0.0
  0
LINE
  5
127
  8
1外形線
 10
250.47941922055881
 20
152.52070663571601
 30
0.0
 11
272.4794192205606
 21
152.52070663571601
 31
0.0
  0
LINE
  5
128
  8
1外形線
 10
250.47941922055881
 20
153.5207066357159
 30
0.0
 11
250.47941922055881
 21
152.52070663571601
 31
0.0
  0
LINE
  5
129
  8
1外形線
 10
273.9794192205606
 20
153.52070663571601
 30
0.0
 11
272.4794192205606
 21
153.5207066357159
 31
0.0
  0
LINE
  5
12A
  8
1外形線
 10
272.4794192205606
 20
153.5207066357159
 30
0.0
 11
272.4794192205606
 21
152.52070663571601
 31
0.0
  0
LINE
  5
12B
  8
1外形線
 10
273.9794192205606
 20
153.52070663571601
 30
0.0
 11
273.9794192205606
 21
150.02070663571601
 31
0.0
  0
LINE
  5
12C
  8
1外形線
 10
254.1283481713912
 20
156.80938177031189
 30
0.0
 11
241.97941922055949
 21
156.80938177031189
 31
0.0
  0
ARC
  5
12D
  8
1外形線
 10
241.97941922055949
 20
155.80938177031189
 30
0.0
 40
1.0
 50
90.0
 51
119.9999999999995
  0
LINE
  5
12E
  8
1外形線
 10
239.47941922055921
 20
155.5207066357161
 30
0.0
 11
241.47941922055921
 21
156.67540717409531
 31
0.0
  0
ARC
  5
12F
  8
1外形線
 10
261.47941922055969
 20
171.02070663571689
 30
0.0
 40
16.0
 50
270.0
 51
297.35110280942558
  0
ARC
  5
130
  8
1外形線
 10
261.47941922055969
 20
171.02070663571689
 30
0.0
 40
16.0
 50
242.6488971905743
 51
270.0
  0
ARC
  5
131
  8
1外形線
 10
186.09146658904331
 20
190.11571907360431
 30
0.0
 40
1.0
 50
0.0
 51
84.289406862499419
  0
ARC
  5
132
  8
1外形線
 10
175.59519795541661
 20
162.02070663571641
 30
0.0
 40
30.0
 50
84.289406862499419
 51
90.0
  0
LINE
  5
133
  8
1外形線
 10
178.5803095260467
 20
191.87182234201609
 30
0.0
 11
186.19097030806421
 21
191.1107562638143
 31
0.0
  0
ARC
  5
134
  8
1外形線
 10
245.46810521722389
 20
179.00206838737071
 30
0.0
 40
15.0
 50
93.744430012784036
 51
180.0
  0
LINE
  5
135
  8
1外形線
 10
292.46810521722369
 20
150.32070663571619
 30
0.0
 11
292.46810521722369
 21
179.00206838737071
 31
0.0
  0
LINE
  5
136
  8
1外形線
 10
285.46810521722392
 20
147.52070663571629
 30
0.0
 11
285.46810521722392
 21
168.02070663571601
 31
0.0
  0
LINE
  5
137
  8
1外形線
 10
283.46810521722392
 20
168.02070663571601
 30
0.0
 11
283.46810521722392
 21
147.52070663571621
 31
0.0
  0
LINE
  5
138
  8
1外形線
 10
299.46810521722392
 20
149.82070663571631
 30
0.0
 11
285.96810521722398
 21
149.82070663571619
 31
0.0
  0
ARC
  5
139
  8
1外形線
 10
285.96810521722398
 20
150.32070663571611
 30
0.0
 40
0.5
 50
180.0
 51
270.0
  0
ARC
  5
13A
  8
1外形線
 10
292.96810521722369
 20
150.32070663571619
 30
0.0
 40
0.5
 50
180.0
 51
270.0
  0
ARC
  5
13B
  8
1外形線
 10
299.46810521722392
 20
147.82070663571631
 30
0.0
 40
2.0
 50
0.0
 51
90.0
  0
LINE
  5
13C
  8
1外形線
 10
301.46810521722392
 20
147.52070663571629
 30
0.0
 11
301.46810521722392
 21
147.82070663571631
 31
0.0
  0
ARC
  5
13D
  8
1外形線
 10
280.97941922056037
 20
155.80938177031189
 30
0.0
 40
1.0
 50
60.000000000000419
 51
90.0
  0
LINE
  5
13E
  8
1外形線
 10
283.4794192205602
 20
155.52070663571601
 30
0.0
 11
281.4794192205602
 21
156.6754071740952
 31
0.0
  0
ARC
  5
13F
  8
1外形線
 10
277.46810521722369
 20
179.00206838737071
 30
0.0
 40
15.0
 50
0.0
 51
86.255569987215949
  0
LINE
  5
140
  8
1外形線
 10
187.09146658904331
 20
281.49361319353659
 30
0.0
 11
187.09146658904331
 21
259.39860075564752
 31
0.0
  0
ARC
  5
141
  8
1外形線
 10
186.09146658904331
 20
259.39860075564752
 30
0.0
 40
1.0
 50
275.71059313750061
 51
0.0
  0
ARC
  5
142
  8
1外形線
 10
176.09395416662531
 20
277.49361319353511
 30
0.0
 40
20.0
 50
270.0
 51
275.71059313750061
  0
LINE
  5
143
  8
1外形線
 10
178.0840285470459
 20
257.59286938933542
 30
0.0
 11
186.19097030806469
 21
258.40356356543742
 31
0.0
  0
ARC
  5
144
  8
1外形線
 10
186.09146658904331
 20
303.58862563142287
 30
0.0
 40
1.0
 50
0.0
 51
84.289406862499419
  0
ARC
  5
145
  8
1外形線
 10
176.09395416662261
 20
285.49361319353551
 30
0.0
 40
20.0
 50
84.289406862499419
 51
90.0
  0
LINE
  5
146
  8
1外形線
 10
178.0840285470432
 20
305.39435699773531
 30
0.0
 11
186.19097030806469
 21
304.58366282163291
 31
0.0
  0
ENDSEC
  0
EOF
