  0
SECTION
  2
HEADER
  9
$ACADVER
  1
AC1009
  9
$INSBASE
 10
0.0
 20
0.0
 30
0.0
  9
$EXTMIN
 10
46.994935114629243
 20
11.90972970927805
 30
-0.0015258207003583
  9
$EXTMAX
 10
381.88110444913741
 20
350.96086196038033
 30
0.0000000349246037
  9
$LIMMIN
 10
0.0
 20
0.0
  9
$LIMMAX
 10
420.0
 20
297.0
  9
$ORTHOMODE
 70
     0
  9
$REGENMODE
 70
     1
  9
$FILLMODE
 70
     1
  9
$QTEXTMODE
 70
     0
  9
$MIRRTEXT
 70
     1
  9
$DRAGMODE
 70
     2
  9
$LTSCALE
 40
1.0
  9
$OSMODE
 70
    37
  9
$ATTMODE
 70
     1
  9
$TEXTSIZE
 40
2.5
  9
$TRACEWID
 40
1.0
  9
$TEXTSTYLE
  7
STANDARD
  9
$CLAYER
  8
0
  9
$CELTYPE
  6
BYLAYER
  9
$CECOLOR
 62
   256
  9
$DIMSCALE
 40
1.0
  9
$DIMASZ
 40
2.5
  9
$DIMEXO
 40
0.625
  9
$DIMDLI
 40
3.75
  9
$DIMRND
 40
0.0
  9
$DIMDLE
 40
0.0
  9
$DIMEXE
 40
1.25
  9
$DIMTP
 40
0.0
  9
$DIMTM
 40
0.0
  9
$DIMTXT
 40
2.5
  9
$DIMCEN
 40
2.5
  9
$DIMTSZ
 40
0.0
  9
$DIMTOL
 70
     0
  9
$DIMLIM
 70
     0
  9
$DIMTIH
 70
     0
  9
$DIMTOH
 70
     0
  9
$DIMSE1
 70
     0
  9
$DIMSE2
 70
     0
  9
$DIMTAD
 70
     1
  9
$DIMZIN
 70
     8
  9
$DIMBLK
  1

  9
$DIMASO
 70
     1
  9
$DIMSHO
 70
     1
  9
$DIMPOST
  1

  9
$DIMAPOST
  1

  9
$DIMALT
 70
     0
  9
$DIMALTD
 70
     3
  9
$DIMALTF
 40
0.03937007874016
  9
$DIMLFAC
 40
1.0
  9
$DIMTOFL
 70
     1
  9
$DIMTVP
 40
0.0
  9
$DIMTIX
 70
     0
  9
$DIMSOXD
 70
     0
  9
$DIMSAH
 70
     0
  9
$DIMBLK1
  1

  9
$DIMBLK2
  1

  9
$DIMSTYLE
  2
ISO-25
  9
$DIMCLRD
 70
     0
  9
$DIMCLRE
 70
     0
  9
$DIMCLRT
 70
     0
  9
$DIMTFAC
 40
1.0
  9
$DIMGAP
 40
0.625
  9
$LUNITS
 70
     2
  9
$LUPREC
 70
     4
  9
$SKETCHINC
 40
1.0
  9
$FILLETRAD
 40
10.0
  9
$AUNITS
 70
     0
  9
$AUPREC
 70
     0
  9
$MENU
  1
.
  9
$ELEVATION
 40
0.0
  9
$PELEVATION
 40
0.0
  9
$THICKNESS
 40
0.0
  9
$LIMCHECK
 70
     0
  9
$BLIPMODE
 70
     0
  9
$CHAMFERA
 40
10.0
  9
$CHAMFERB
 40
10.0
  9
$SKPOLY
 70
     0
  9
$TDCREATE
 40
2452048.5578488312
  9
$TDUPDATE
 40
2452048.5660967939
  9
$TDINDWG
 40
0.0082484259
  9
$TDUSRTIMER
 40
0.0082484259
  9
$USRTIMER
 70
     1
  9
$ANGBASE
 50
0.0
  9
$ANGDIR
 70
     0
  9
$PDMODE
 70
     0
  9
$PDSIZE
 40
0.0
  9
$PLINEWID
 40
0.0
  9
$COORDS
 70
     1
  9
$SPLFRAME
 70
     0
  9
$SPLINETYPE
 70
     6
  9
$SPLINESEGS
 70
     8
  9
$ATTDIA
 70
     0
  9
$ATTREQ
 70
     1
  9
$HANDLING
 70
-16383
  9
$HANDSEED
  5
168
  9
$SURFTAB1
 70
     6
  9
$SURFTAB2
 70
     6
  9
$SURFTYPE
 70
     6
  9
$SURFU
 70
     6
  9
$SURFV
 70
     6
  9
$UCSNAME
  2

  9
$UCSORG
 10
0.0
 20
0.0
 30
0.0
  9
$UCSXDIR
 10
1.0
 20
0.0
 30
0.0
  9
$UCSYDIR
 10
0.0
 20
1.0
 30
0.0
  9
$PUCSNAME
  2

  9
$PUCSORG
 10
0.0
 20
0.0
 30
0.0
  9
$PUCSXDIR
 10
1.0
 20
0.0
 30
0.0
  9
$PUCSYDIR
 10
0.0
 20
1.0
 30
0.0
  9
$USERI1
 70
     0
  9
$USERI2
 70
     0
  9
$USERI3
 70
     0
  9
$USERI4
 70
     0
  9
$USERI5
 70
     0
  9
$USERR1
 40
0.0
  9
$USERR2
 40
0.0
  9
$USERR3
 40
0.0
  9
$USERR4
 40
0.0
  9
$USERR5
 40
0.0
  9
$WORLDVIEW
 70
     1
  9
$SHADEDGE
 70
     3
  9
$SHADEDIF
 70
    70
  9
$TILEMODE
 70
     1
  9
$MAXACTVP
 70
    64
  9
$PLIMCHECK
 70
     0
  9
$PEXTMIN
 10
1.0000000000000000E+020
 20
1.0000000000000000E+020
 30
1.0000000000000000E+020
  9
$PEXTMAX
 10
-1.0000000000000000E+020
 20
-1.0000000000000000E+020
 30
-1.0000000000000000E+020
  9
$PLIMMIN
 10
0.0
 20
0.0
  9
$PLIMMAX
 10
420.0
 20
297.0
  9
$UNITMODE
 70
     0
  9
$VISRETAIN
 70
     1
  9
$PLINEGEN
 70
     0
  9
$PSLTSCALE
 70
     1
  0
ENDSEC
  0
SECTION
  2
TABLES
  0
TABLE
  2
VPORT
 70
     3
  0
VPORT
  2
*ACTIVE
 70
     0
 10
0.0
 20
0.0
 11
1.0
 21
1.0
 12
214.4380197818833
 22
181.43529583482919
 13
0.0
 23
0.0
 14
10.0
 24
10.0
 15
10.0
 25
10.0
 16
0.0
 26
0.0
 36
1.0
 17
0.0
 27
0.0
 37
0.0
 40
342.6708952288721
 41
1.670231729055258
 42
50.0
 43
0.0
 44
0.0
 50
0.0
 51
0.0
 71
     0
 72
   100
 73
     1
 74
     3
 75
     0
 76
     0
 77
     0
 78
     0
  0
ENDTAB
  0
TABLE
  2
LTYPE
 70
     1
  0
LTYPE
  2
CONTINUOUS
 70
     0
  3
Solid line
 72
    65
 73
     0
 40
0.0
  0
ENDTAB
  0
TABLE
  2
LAYER
 70
     2
  0
LAYER
  2
0
 70
     0
 62
     7
  6
CONTINUOUS
  0
LAYER
  2
1外形線
 70
     0
 62
     3
  6
CONTINUOUS
  0
ENDTAB
  0
TABLE
  2
STYLE
 70
     2
  0
STYLE
  2
STANDARD
 70
     0
 40
0.0
 41
1.0
 50
0.0
 71
     0
 42
2.5
  3
txt
  4

  0
STYLE
  2
KANJI
 70
     0
 40
0.0
 41
1.0
 50
0.0
 71
     0
 42
10.0
  3
simplex
  4
bigfont
  0
ENDTAB
  0
TABLE
  2
VIEW
 70
     0
  0
ENDTAB
  0
TABLE
  2
UCS
 70
     0
  0
ENDTAB
  0
TABLE
  2
APPID
 70
     1
  0
APPID
  2
ACAD
 70
     0
  0
ENDTAB
  0
TABLE
  2
DIMSTYLE
 70
     2
  0
DIMSTYLE
  2
ISO-25
 70
     0
  3

  4

  5

  6

  7

 40
1.0
 41
2.5
 42
0.625
 43
3.75
 44
1.25
 45
0.0
 46
0.0
 47
0.0
 48
0.0
140
2.5
141
2.5
142
0.0
143
0.03937007874016
144
1.0
145
0.0
146
1.0
147
0.625
 71
     0
 72
     0
 73
     0
 74
     0
 75
     0
 76
     0
 77
     1
 78
     8
170
     0
171
     3
172
     1
173
     0
174
     0
175
     0
176
     0
177
     0
178
     0
  0
DIMSTYLE
  2
STANDARD
 70
     0
  3

  4

  5

  6
1
  7
1
 40
1.0
 41
1.0
 42
1.0
 43
6.0
 44
1.0
 45
0.0
 46
0.0
 47
0.0
 48
0.0
140
2.5
141
0.0
142
0.0
143
25.399999999999999
144
1.0
145
0.0
146
1.0
147
0.5
 71
     0
 72
     0
 73
     0
 74
     0
 75
     0
 76
     0
 77
     1
 78
     8
170
     0
171
     2
172
     1
173
     1
174
     0
175
     0
176
     0
177
     0
178
     0
  0
ENDTAB
  0
ENDSEC
  0
SECTION
  2
BLOCKS
  0
BLOCK
  8
0
  2
$MODEL_SPACE
 70
     0
 10
0.0
 20
0.0
 30
0.0
  3
$MODEL_SPACE
  1

  0
ENDBLK
  5
21
  8
0
  0
BLOCK
 67
     1
  8
0
  2
$PAPER_SPACE
 70
     0
 10
0.0
 20
0.0
 30
0.0
  3
$PAPER_SPACE
  1

  0
ENDBLK
  5
1D
 67
     1
  8
0
  0
BLOCK
  8
0
  2
1
 70
     0
 10
0.0
 20
0.0
 30
0.0
  3
1
  1

  0
SOLID
  5
2C
  8
0
  6
BYBLOCK
 62
     0
 10
-1.811110924292052
 20
0.4852857095671653
 30
0.0
 11
-1.811110924292052
 21
-0.4852857095673642
 31
0.0
 12
0.0
 22
0.0
 32
0.0
 13
0.0
 23
0.0
 33
0.0
  0
ENDBLK
  5
2E
  8
0
  0
ENDSEC
  0
SECTION
  2
ENTITIES
  0
ARC
  5
CC
  8
1外形線
 10
290.52138289731801
 20
153.3671465549528
 30
0.0
 40
2.0
 50
270.0
 51
359.05400806266152
  0
ARC
  5
CD
  8
1外形線
 10
367.38046873033608
 20
153.3671465549528
 30
0.0
 40
2.0
 50
180.94599193733839
 51
270.0
  0
LINE
  5
CE
  8
1外形線
 10
363.4509258138271
 20
149.0671465549529
 30
0.0
 11
362.9462916790485
 21
179.6284839666244
 31
0.0
  0
LINE
  5
CF
  8
1外形線
 10
365.45119844714981
 20
149.06714655495301
 30
0.0
 11
364.94601908288507
 21
179.66150381436961
 31
0.0
  0
ARC
  5
D0
  8
1外形線
 10
379.45092581382698
 20
149.36714655495311
 30
0.0
 40
2.0
 50
0.0
 51
90.0
  0
ARC
  5
D1
  8
1外形線
 10
374.41632034005852
 20
153.36714655495291
 30
0.0
 40
2.0
 50
181.00000000000011
 51
270.0
  0
ARC
  5
D2
  8
1外形線
 10
278.4509258138271
 20
149.36714655495311
 30
0.0
 40
2.0
 50
90.0
 51
180.0
  0
LINE
  5
D3
  8
1外形線
 10
292.45065318050399
 20
149.06714655495301
 30
0.0
 11
292.95583254476901
 21
179.66150381436961
 31
0.0
  0
LINE
  5
D4
  8
1外形線
 10
294.4509258138271
 20
149.0671465549529
 30
0.0
 11
294.9555599486057
 21
179.6284839666244
 31
0.0
  0
ARC
  5
D5
  8
1外形線
 10
283.48553128759562
 20
153.36714655495291
 30
0.0
 40
2.0
 50
270.0
 51
358.99999999999977
  0
ARC
  5
D6
  8
1外形線
 10
163.7394996973735
 20
149.367146554953
 30
0.0
 40
2.0
 50
0.0
 51
90.0
  0
LINE
  5
D7
  8
1外形線
 10
234.93064779142691
 20
213.16215899284131
 30
0.0
 11
234.93064779142901
 21
149.06714655495301
 31
0.0
  0
ARC
  5
D8
  8
1外形線
 10
49.430647791428783
 20
149.367146554953
 30
0.0
 40
2.0
 50
90.0
 51
180.0
  0
ARC
  5
D9
  8
1外形線
 10
59.465253265197589
 20
153.367146554953
 30
0.0
 40
2.0
 50
270.0
 51
358.99999999999977
  0
LINE
  5
DA
  8
1外形線
 10
218.43064779143091
 20
36.061192632252578
 30
0.0
 11
173.43064779142881
 21
36.061192632251618
 31
0.0
  0
LINE
  5
DB
  8
1外形線
 10
218.43064779143091
 20
100.4611926322527
 30
0.0
 11
173.43064779142881
 21
100.4611926322537
 31
0.0
  0
LINE
  5
DC
  8
1外形線
 10
234.93064779142821
 20
33.76119263225268
 30
0.0
 11
145.93064779142861
 21
33.761192632253938
 31
0.0
  0
LINE
  5
DD
  8
1外形線
 10
219.94308567934019
 20
31.76091999892969
 30
0.0
 11
164.66630861369629
 21
31.760919998930941
 31
0.0
  0
LINE
  5
DE
  8
1外形線
 10
219.94308567934019
 20
104.76146526557559
 30
0.0
 11
164.66630861369629
 21
104.7614652655744
 31
0.0
  0
LINE
  5
DF
  8
1外形線
 10
234.93064779142821
 20
102.7611926322526
 30
0.0
 11
145.93064779142861
 21
102.76119263225139
 31
0.0
  0
LINE
  5
E0
  8
1外形線
 10
47.430647791428783
 20
149.0671465549529
 30
0.0
 11
234.93064779142901
 21
149.0671465549535
 31
0.0
  0
ARC
  5
E1
  8
1外形線
 10
170.53064779142761
 20
68.261192632255245
 30
0.0
 40
2.0999999999999992
 50
90.0
 51
270.0
  0
ARC
  5
E2
  8
1外形線
 10
175.33064779142759
 20
68.261192632255245
 30
0.0
 40
2.0999999999999992
 50
270.0
 51
90.0
  0
LINE
  5
E3
  8
1外形線
 10
144.93064779142861
 20
101.76119263225139
 30
0.0
 11
144.9306477914287
 21
34.761192632253938
 31
0.0
  0
CIRCLE
  5
E4
  8
1外形線
 10
54.430647791428783
 20
68.261192632252644
 30
0.0
 40
2.25
  0
LINE
  5
E5
  8
1外形線
 10
59.390805798181873
 20
35.855464571266729
 30
0.0
 11
59.390805798181873
 21
100.66692069323859
 31
0.0
  0
LINE
  5
E6
  8
1外形線
 10
62.390805798181873
 20
32.423080752271403
 30
0.0
 11
62.390805798181873
 21
104.0993045122339
 31
0.0
  0
ARC
  5
E7
  8
1外形線
 10
99.930647791428783
 20
68.261192632252687
 30
0.0
 40
52.5
 50
90.0
 51
270.0
  0
ARC
  5
E8
  8
1外形線
 10
104.930647791429
 20
68.261192632252687
 30
0.0
 40
41.539841993247173
 50
90.0
 51
270.0
  0
LINE
  5
E9
  8
1外形線
 10
70.198983808571029
 20
25.72135063900549
 30
0.0
 11
156.66231177428691
 21
25.72135063900549
 31
0.0
  0
LINE
  5
EA
  8
1外形線
 10
75.036214854925106
 20
22.72135063900549
 30
0.0
 11
151.82508072793291
 21
22.72135063900549
 31
0.0
  0
ARC
  5
EB
  8
1外形線
 10
99.930647791428783
 20
68.261192632252687
 30
0.0
 40
51.899999999999999
 50
235.04978622087671
 51
241.3367022515805
  0
ARC
  5
EC
  8
1外形線
 10
99.930647791428783
 20
68.261192632252687
 30
0.0
 40
51.899999999999999
 50
218.63726944984481
 51
223.67147455303959
  0
ARC
  5
ED
  8
1外形線
 10
126.93064779142919
 20
68.261192632252687
 30
0.0
 40
52.5
 50
270.0
 51
315.95339269022708
  0
ARC
  5
EE
  8
1外形線
 10
126.93064779142919
 20
68.261192632252687
 30
0.0
 40
51.899999999999999
 50
298.66329774841938
 51
304.9502137791232
  0
LINE
  5
EF
  8
1外形線
 10
99.930647791428783
 20
15.76119263225268
 30
0.0
 11
126.93064779142919
 21
15.76119263225268
 31
0.0
  0
ARC
  5
F0
  8
1外形線
 10
121.930647791429
 20
68.261192632252687
 30
0.0
 40
41.539841993247173
 50
270.0
 51
297.67391851167707
  0
LINE
  5
F1
  8
1外形線
 10
104.930647791429
 20
26.72135063900549
 30
0.0
 11
121.930647791429
 21
26.72135063900549
 31
0.0
  0
LINE
  5
F2
  8
1外形線
 10
154.93064779142861
 20
35.861192632252418
 30
0.0
 11
154.93064779142901
 21
33.761192632253817
 31
0.0
  0
LINE
  5
F3
  8
1外形線
 10
152.93064779142861
 20
35.861192632252418
 30
0.0
 11
152.93064779142901
 21
33.761192632253817
 31
0.0
  0
ARC
  5
F4
  8
1外形線
 10
145.93064779142861
 20
34.761192632253938
 30
0.0
 40
1.0
 50
180.0
 51
270.0
  0
ARC
  5
F5
  8
1外形線
 10
150.51214797168481
 20
13.76119263225393
 30
0.0
 40
20.0
 50
90.0
 51
117.6739185116771
  0
LINE
  5
F6
  8
1外形線
 10
154.93064779142841
 20
35.861192632252418
 30
0.0
 11
152.9306477914289
 21
35.861192632252369
 31
0.0
  0
LINE
  5
F7
  8
1外形線
 10
169.93064779142861
 20
35.861192632252418
 30
0.0
 11
169.9306477914287
 21
33.76119263225371
 31
0.0
  0
LINE
  5
F8
  8
1外形線
 10
173.43064779142881
 20
36.061192632251618
 30
0.0
 11
173.43064779142841
 21
33.761192632253589
 31
0.0
  0
LINE
  5
F9
  8
1外形線
 10
171.9306477914289
 20
35.861192632252312
 30
0.0
 11
171.9306477914283
 21
33.76119263225371
 31
0.0
  0
LINE
  5
FA
  8
1外形線
 10
171.9306477914289
 20
35.861192632252369
 30
0.0
 11
169.93064779142841
 21
35.861192632252418
 31
0.0
  0
LINE
  5
FB
  8
1外形線
 10
175.33064779142759
 20
66.161192632255108
 30
0.0
 11
170.53064779142761
 21
66.161192632255052
 31
0.0
  0
LINE
  5
FC
  8
1外形線
 10
75.036214854925106
 20
113.8010346254998
 30
0.0
 11
151.82508072793291
 21
113.8010346254998
 31
0.0
  0
LINE
  5
FD
  8
1外形線
 10
70.198983808571029
 20
110.8010346254998
 30
0.0
 11
156.66231177428691
 21
110.8010346254998
 31
0.0
  0
LINE
  5
FE
  8
1外形線
 10
49.430647791428783
 20
151.367146554953
 30
0.0
 11
163.7394996973735
 21
151.367146554953
 31
0.0
  0
ARC
  5
FF
  8
1外形線
 10
99.930647791428783
 20
68.261192632252687
 30
0.0
 40
51.899999999999999
 50
136.3285254469603
 51
141.36273055015511
  0
ARC
  5
100
  8
1外形線
 10
99.930647791428783
 20
68.261192632252687
 30
0.0
 40
51.899999999999999
 50
118.6632977484194
 51
124.9502137791233
  0
LINE
  5
101
  8
1外形線
 10
47.430647791428783
 20
149.0671465549529
 30
0.0
 11
47.430647791428783
 21
149.367146554953
 31
0.0
  0
ARC
  5
102
  8
1外形線
 10
121.930647791429
 20
68.261192632252687
 30
0.0
 40
41.539841993247173
 50
62.326081488322806
 51
90.0
  0
ARC
  5
103
  8
1外形線
 10
126.93064779142919
 20
68.261192632252687
 30
0.0
 40
52.5
 50
44.046607309772817
 51
90.0
  0
LINE
  5
104
  8
1外形線
 10
175.33064779142759
 20
70.36119263225504
 30
0.0
 11
170.53064779142761
 21
70.36119263225504
 31
0.0
  0
ARC
  5
105
  8
1外形線
 10
145.93064779142861
 20
101.76119263225139
 30
0.0
 40
1.0
 50
90.0
 51
180.0
  0
ARC
  5
106
  8
1外形線
 10
150.51214797168481
 20
122.76119263225139
 30
0.0
 40
20.0
 50
242.3260814883227
 51
270.0
  0
LINE
  5
107
  8
1外形線
 10
152.93064779142861
 20
100.66119263225291
 30
0.0
 11
152.9306477914287
 21
102.76119263225161
 31
0.0
  0
LINE
  5
108
  8
1外形線
 10
154.93064779142861
 20
100.66119263225291
 30
0.0
 11
154.9306477914287
 21
102.76119263225161
 31
0.0
  0
LINE
  5
109
  8
1外形線
 10
154.93064779142841
 20
100.66119263225291
 30
0.0
 11
152.9306477914289
 21
100.66119263225301
 31
0.0
  0
LINE
  5
10A
  8
1外形線
 10
171.9306477914289
 20
100.66119263225301
 30
0.0
 11
169.93064779142841
 21
100.66119263225291
 31
0.0
  0
LINE
  5
10B
  8
1外形線
 10
169.93064779142861
 20
100.66119263225291
 30
0.0
 11
169.93064779142861
 21
102.76119263225181
 31
0.0
  0
LINE
  5
10C
  8
1外形線
 10
173.43064779142881
 20
100.4611926322537
 30
0.0
 11
173.4306477914285
 21
102.76119263225181
 31
0.0
  0
LINE
  5
10D
  8
1外形線
 10
171.9306477914289
 20
100.66119263225301
 30
0.0
 11
171.93064779142841
 21
102.76119263225181
 31
0.0
  0
LINE
  5
10E
  8
1外形線
 10
104.930647791429
 20
109.8010346254998
 30
0.0
 11
121.930647791429
 21
109.8010346254998
 31
0.0
  0
LINE
  5
10F
  8
1外形線
 10
99.930647791428783
 20
120.7611926322526
 30
0.0
 11
126.93064779142919
 21
120.7611926322526
 31
0.0
  0
ARC
  5
110
  8
1外形線
 10
126.93064779142919
 20
68.261192632252687
 30
0.0
 40
51.899999999999999
 50
55.049786220876669
 51
61.336702251580512
  0
LINE
  5
111
  8
1外形線
 10
165.7394996973735
 20
149.0671465549529
 30
0.0
 11
165.7394996973735
 21
149.367146554953
 31
0.0
  0
LINE
  5
112
  8
1外形線
 10
165.7394996973735
 20
149.0671465549531
 30
0.0
 11
165.7394996973735
 21
149.367146554953
 31
0.0
  0
CIRCLE
  5
113
  8
1外形線
 10
202.9306477914275
 20
68.261192632251209
 30
0.0
 40
2.1000000000000001
  0
LINE
  5
114
  8
1外形線
 10
219.9306477914283
 20
33.761192632252907
 30
0.0
 11
219.9306477914308
 21
102.7611926322524
 31
0.0
  0
LINE
  5
115
  8
1外形線
 10
234.93064779142821
 20
102.8564777034632
 30
0.0
 11
234.9306477914291
 21
33.665907561042097
 31
0.0
  0
LINE
  5
116
  8
1外形線
 10
219.9306477914289
 20
47.261192632253078
 30
0.0
 11
233.93064779142861
 21
47.261192632252971
 31
0.0
  0
LINE
  5
117
  8
1外形線
 10
229.8934575814437
 20
32.257200977930999
 30
0.0
 11
234.03015151044909
 21
32.670870370832063
 31
0.0
  0
LINE
  5
118
  8
1外形線
 10
218.43064779143111
 20
36.061192632252521
 30
0.0
 11
218.430647791431
 21
33.761192632252907
 31
0.0
  0
ARC
  5
119
  8
1外形線
 10
219.94308567934209
 20
131.76091999892961
 30
0.0
 40
100.0
 50
270.0
 51
275.71059313750379
  0
LINE
  5
11A
  8
1外形線
 10
205.33064779142759
 20
46.161192632254199
 30
0.0
 11
200.53064779142761
 21
46.161192632254199
 31
0.0
  0
LINE
  5
11B
  8
1外形線
 10
205.33064779142759
 20
50.361192632254131
 30
0.0
 11
200.53064779142761
 21
50.361192632254237
 31
0.0
  0
ARC
  5
11C
  8
1外形線
 10
205.33064779142759
 20
48.261192632254108
 30
0.0
 40
2.0999999999999992
 50
270.0
 51
90.0
  0
ARC
  5
11D
  8
1外形線
 10
200.53064779142761
 20
48.261192632254108
 30
0.0
 40
2.0999999999999992
 50
90.0
 51
270.0
  0
ARC
  5
11E
  8
1外形線
 10
233.9306477914279
 20
33.665907561042097
 30
0.0
 40
1.0
 50
275.71059313749731
 51
359.99999999999829
  0
ARC
  5
11F
  8
1外形線
 10
233.93064779142861
 20
48.261192632253433
 30
0.0
 40
1.0
 50
270.0
 51
0.0
  0
LINE
  5
120
  8
1外形線
 10
278.4509258138271
 20
151.367146554953
 30
0.0
 11
290.52138289731801
 21
151.3671465549528
 31
0.0
  0
LINE
  5
121
  8
1外形線
 10
276.47355382049858
 20
149.06714655495301
 30
0.0
 11
381.4282978071555
 21
149.06714655495301
 31
0.0
  0
LINE
  5
122
  8
1外形線
 10
219.9306477914289
 20
89.261192632252289
 30
0.0
 11
233.93064779142861
 21
89.261192632252403
 31
0.0
  0
LINE
  5
123
  8
1外形線
 10
229.8934575814437
 20
104.2651842865743
 30
0.0
 11
234.03015151044909
 21
103.8515148936733
 31
0.0
  0
ARC
  5
124
  8
1外形線
 10
200.53064779142761
 20
88.261192632251266
 30
0.0
 40
2.0999999999999992
 50
90.0
 51
270.0
  0
ARC
  5
125
  8
1外形線
 10
205.33064779142759
 20
88.261192632251266
 30
0.0
 40
2.0999999999999992
 50
270.0
 51
90.0
  0
LINE
  5
126
  8
1外形線
 10
205.33064779142759
 20
86.161192632251186
 30
0.0
 11
200.53064779142761
 21
86.161192632251058
 31
0.0
  0
LINE
  5
127
  8
1外形線
 10
205.33064779142759
 20
90.361192632251118
 30
0.0
 11
200.53064779142761
 21
90.361192632251118
 31
0.0
  0
ARC
  5
128
  8
1外形線
 10
219.94308567934209
 20
4.7614652655756791
 30
0.0
 40
100.0
 50
84.289406862496136
 51
90.0
  0
LINE
  5
129
  8
1外形線
 10
218.43064779143111
 20
100.4611926322528
 30
0.0
 11
218.4306477914308
 21
102.7611926322524
 31
0.0
  0
ARC
  5
12A
  8
1外形線
 10
233.93064779142861
 20
88.261192632251934
 30
0.0
 40
1.0
 50
0.0
 51
90.0
  0
ARC
  5
12B
  8
1外形線
 10
233.9306477914279
 20
102.8564777034632
 30
0.0
 40
1.0
 50
0.0000000000016284
 51
84.289406862502673
  0
LINE
  5
12C
  8
1外形線
 10
276.4509258138271
 20
149.0671465549531
 30
0.0
 11
276.4509258138271
 21
149.36714655495311
 31
0.0
  0
LINE
  5
12D
  8
1外形線
 10
379.45092581382698
 20
151.367146554953
 30
0.0
 11
367.38046873033608
 21
151.3671465549528
 31
0.0
  0
LINE
  5
12E
  8
1外形線
 10
381.45092581382698
 20
149.0671465549531
 30
0.0
 11
381.45092581382698
 21
149.36714655495311
 31
0.0
  0
LINE
  5
12F
  8
1外形線
 10
219.94308567933959
 20
331.11869544353931
 30
0.0
 11
150.91286979665611
 21
331.118695443538
 31
0.0
  0
LINE
  5
130
  8
1外形線
 10
155.7833336566714
 20
215.06714655495301
 30
0.0
 11
222.4368667353871
 21
215.06714655495301
 31
0.0
  0
LINE
  5
131
  8
1外形線
 10
219.94308567933959
 20
258.11815017689332
 30
0.0
 11
150.91286979665611
 21
258.11815017689452
 31
0.0
  0
ARC
  5
132
  8
1外形線
 10
99.930647791428115
 20
294.61842281021632
 30
0.0
 40
52.5
 50
90.0
 51
270.0
  0
ARC
  5
133
  8
1外形線
 10
104.9306477914288
 20
294.61842281021632
 30
0.0
 40
43.5
 50
90.0
 51
270.0
  0
ARC
  5
134
  8
1外形線
 10
92.049706627946307
 20
186.57119751249331
 30
0.0
 40
30.0
 50
95.333952103913944
 51
178.9999999999998
  0
LINE
  5
135
  8
1外形線
 10
61.464948655510398
 20
153.33224174207839
 30
0.0
 11
62.054275773254631
 21
187.09476970561181
 31
0.0
  0
ARC
  5
136
  8
1外形線
 10
113.430647791429
 20
-42.432853445046931
 30
0.0
 40
260.0
 50
83.243713887609601
 51
95.333952103913944
  0
ARC
  5
137
  8
1外形線
 10
155.7833336566714
 20
315.06714655495301
 30
0.0
 40
100.0
 50
263.24371388760949
 51
270.0
  0
ARC
  5
138
  8
1外形線
 10
121.9306477914277
 20
294.61842281021632
 30
0.0
 40
43.5
 50
270.0
 51
297.15588250425668
  0
ARC
  5
139
  8
1外形線
 10
126.9306477914285
 20
294.61842281021632
 30
0.0
 40
52.5
 50
270.0
 51
315.95339269022708
  0
LINE
  5
13A
  8
1外形線
 10
104.9306477914288
 20
251.11842281021629
 30
0.0
 11
121.9306477914277
 21
251.11842281021629
 31
0.0
  0
LINE
  5
13B
  8
1外形線
 10
99.930647791428115
 20
242.11842281021629
 30
0.0
 11
126.9306477914285
 21
242.11842281021629
 31
0.0
  0
ARC
  5
13C
  8
1外形線
 10
150.91286979665611
 20
238.1181501768948
 30
0.0
 40
20.0
 50
90.0
 51
117.1558825042567
  0
ARC
  5
13D
  8
1外形線
 10
126.9306477914285
 20
294.61842281021632
 30
0.0
 40
52.5
 50
44.046607309772817
 51
90.0
  0
ARC
  5
13E
  8
1外形線
 10
121.9306477914277
 20
294.61842281021632
 30
0.0
 40
43.5
 50
62.844117495743284
 51
90.0
  0
LINE
  5
13F
  8
1外形線
 10
104.9306477914288
 20
338.11842281021632
 30
0.0
 11
121.9306477914277
 21
338.11842281021632
 31
0.0
  0
LINE
  5
140
  8
1外形線
 10
99.930647791428115
 20
347.11842281021632
 30
0.0
 11
126.9306477914285
 21
347.11842281021632
 31
0.0
  0
ARC
  5
141
  8
1外形線
 10
150.91286979665611
 20
351.11869544353772
 30
0.0
 40
20.0
 50
242.84411749574321
 51
270.0
  0
LINE
  5
142
  8
1外形線
 10
234.9306477914275
 20
260.02313773900568
 30
0.0
 11
234.93064779142861
 21
329.2137078814269
 31
0.0
  0
ARC
  5
143
  8
1外形線
 10
316.0810790041462
 20
187.20679261611409
 30
0.0
 40
30.0
 50
93.207709778489331
 51
178.9999999999998
  0
LINE
  5
144
  8
1外形線
 10
227.41205268643731
 20
214.8190060654525
 30
0.0
 11
234.03015151044829
 21
214.1571961830513
 31
0.0
  0
ARC
  5
145
  8
1外形線
 10
222.4368667353871
 20
165.06714655495301
 30
0.0
 40
50.0
 50
84.289406862502673
 51
90.0
  0
ARC
  5
146
  8
1外形線
 10
233.93064779142739
 20
213.16215899284131
 30
0.0
 40
1.0
 50
0.0000000000016284
 51
84.289406862502673
  0
ARC
  5
147
  8
1外形線
 10
341.82077262350788
 20
187.20679261611409
 30
0.0
 40
30.0
 50
1.000000000000147
 51
86.792290221510669
  0
ARC
  5
148
  8
1外形線
 10
328.95092581382698
 20
179.0671465549531
 30
0.0
 40
36.0
 50
0.9459919373400703
 51
179.05400806265979
  0
ARC
  5
149
  8
1外形線
 10
328.95092581382698
 20
179.0671465549531
 30
0.0
 40
34.0
 50
0.9459919373400703
 51
179.05400806265979
  0
LINE
  5
14A
  8
1外形線
 10
348.45092581382681
 20
153.56714655495281
 30
0.0
 11
309.45092581382733
 21
153.5671465549527
 31
0.0
  0
LINE
  5
14B
  8
1外形線
 10
349.95092581382681
 20
151.56714655495239
 30
0.0
 11
307.95092581382733
 21
151.5671465549527
 31
0.0
  0
LINE
  5
14C
  8
1外形線
 10
286.08564814945453
 20
187.7303648092327
 30
0.0
 11
285.48522667790837
 21
153.33224174207839
 31
0.0
  0
LINE
  5
14D
  8
1外形線
 10
309.45092581382733
 20
155.06714655495259
 30
0.0
 11
298.250925813827
 21
155.06714655495259
 31
0.0
  0
LINE
  5
14E
  8
1外形線
 10
294.58110292663008
 20
156.95085158690711
 30
0.0
 11
296.68590982306421
 21
158.3922265087659
 31
0.0
  0
ARC
  5
14F
  8
1外形線
 10
297.250925813827
 20
157.56714655495401
 30
0.0
 40
1.0
 50
0.0
 51
124.4034017438393
  0
LINE
  5
150
  8
1外形線
 10
298.250925813827
 20
155.06714655495259
 30
0.0
 11
298.250925813827
 21
157.56714655495401
 31
0.0
  0
LINE
  5
151
  8
1外形線
 10
307.95092581382733
 20
155.0671465549527
 30
0.0
 11
307.95092581382733
 21
151.5671465549527
 31
0.0
  0
LINE
  5
152
  8
1外形線
 10
309.45092581382733
 20
155.06714655495259
 30
0.0
 11
309.45092581382733
 21
153.56714655495259
 31
0.0
  0
LINE
  5
153
  8
1外形線
 10
371.81620347819961
 20
187.7303648092327
 30
0.0
 11
372.41662494974571
 21
153.33224174207839
 31
0.0
  0
LINE
  5
154
  8
1外形線
 10
348.45092581382659
 20
155.06714655495259
 30
0.0
 11
359.65092581382709
 21
155.06714655495259
 31
0.0
  0
LINE
  5
155
  8
1外形線
 10
348.45092581382681
 20
155.06714655495259
 30
0.0
 11
348.45092581382681
 21
153.56714655495281
 31
0.0
  0
LINE
  5
156
  8
1外形線
 10
349.95092581382681
 20
155.0671465549527
 30
0.0
 11
349.95092581382681
 21
151.5671465549527
 31
0.0
  0
LINE
  5
157
  8
1外形線
 10
363.320748701024
 20
156.95085158690719
 30
0.0
 11
361.21594180458982
 21
158.3922265087659
 31
0.0
  0
ARC
  5
158
  8
1外形線
 10
360.65092581382709
 20
157.56714655495401
 30
0.0
 40
1.0
 50
55.596598256160618
 51
180.0
  0
LINE
  5
159
  8
1外形線
 10
359.65092581382709
 20
155.06714655495259
 30
0.0
 11
359.65092581382709
 21
157.56714655495401
 31
0.0
  0
ARC
  5
15A
  8
1外形線
 10
328.95092581382698
 20
-42.432853445046931
 30
0.0
 40
260.0
 50
86.792290221510669
 51
93.207709778489331
  0
LINE
  5
15B
  8
1外形線
 10
229.89345758144299
 20
258.61443115589458
 30
0.0
 11
234.03015151044849
 21
259.02810054879558
 31
0.0
  0
ARC
  5
15C
  8
1外形線
 10
219.94308567934141
 20
358.11815017689332
 30
0.0
 40
100.0
 50
270.0
 51
275.71059313750379
  0
ARC
  5
15D
  8
1外形線
 10
233.9306477914273
 20
260.02313773900568
 30
0.0
 40
1.0
 50
275.71059313749731
 51
359.99999999999829
  0
LINE
  5
15E
  8
1外形線
 10
229.89345758144299
 20
330.62241446453788
 30
0.0
 11
234.03015151044849
 21
330.20874507163688
 31
0.0
  0
ARC
  5
15F
  8
1外形線
 10
219.94308567934141
 20
231.11869544353931
 30
0.0
 40
100.0
 50
84.289406862496136
 51
90.0
  0
ARC
  5
160
  8
1外形線
 10
233.9306477914273
 20
329.2137078814269
 30
0.0
 40
1.0
 50
0.0000000000016284
 51
84.289406862502673
  0
ENDSEC
  0
EOF
