  0
SECTION
  2
HEADER
  9
$ACADVER
  1
AC1009
  9
$INSBASE
 10
0.0
 20
0.0
 30
0.0
  9
$EXTMIN
 10
24.99622914499696
 20
-25.750029856048059
 30
-0.0015258207003583
  9
$EXTMAX
 10
615.43703137683963
 20
408.08463664145091
 30
0.0000000349246037
  9
$LIMMIN
 10
0.0
 20
0.0
  9
$LIMMAX
 10
420.0
 20
297.0
  9
$ORTHOMODE
 70
     0
  9
$REGENMODE
 70
     1
  9
$FILLMODE
 70
     1
  9
$QTEXTMODE
 70
     0
  9
$MIRRTEXT
 70
     1
  9
$DRAGMODE
 70
     2
  9
$LTSCALE
 40
1.0
  9
$OSMODE
 70
    37
  9
$ATTMODE
 70
     1
  9
$TEXTSIZE
 40
2.5
  9
$TRACEWID
 40
1.0
  9
$TEXTSTYLE
  7
STANDARD
  9
$CLAYER
  8
0
  9
$CELTYPE
  6
BYLAYER
  9
$CECOLOR
 62
   256
  9
$DIMSCALE
 40
1.0
  9
$DIMASZ
 40
2.5
  9
$DIMEXO
 40
0.625
  9
$DIMDLI
 40
3.75
  9
$DIMRND
 40
0.0
  9
$DIMDLE
 40
0.0
  9
$DIMEXE
 40
1.25
  9
$DIMTP
 40
0.0
  9
$DIMTM
 40
0.0
  9
$DIMTXT
 40
2.5
  9
$DIMCEN
 40
2.5
  9
$DIMTSZ
 40
0.0
  9
$DIMTOL
 70
     0
  9
$DIMLIM
 70
     0
  9
$DIMTIH
 70
     0
  9
$DIMTOH
 70
     0
  9
$DIMSE1
 70
     0
  9
$DIMSE2
 70
     0
  9
$DIMTAD
 70
     1
  9
$DIMZIN
 70
     8
  9
$DIMBLK
  1

  9
$DIMASO
 70
     1
  9
$DIMSHO
 70
     1
  9
$DIMPOST
  1

  9
$DIMAPOST
  1

  9
$DIMALT
 70
     0
  9
$DIMALTD
 70
     3
  9
$DIMALTF
 40
0.03937007874016
  9
$DIMLFAC
 40
1.0
  9
$DIMTOFL
 70
     1
  9
$DIMTVP
 40
0.0
  9
$DIMTIX
 70
     0
  9
$DIMSOXD
 70
     0
  9
$DIMSAH
 70
     0
  9
$DIMBLK1
  1

  9
$DIMBLK2
  1

  9
$DIMSTYLE
  2
ISO-25
  9
$DIMCLRD
 70
     0
  9
$DIMCLRE
 70
     0
  9
$DIMCLRT
 70
     0
  9
$DIMTFAC
 40
1.0
  9
$DIMGAP
 40
0.625
  9
$LUNITS
 70
     2
  9
$LUPREC
 70
     4
  9
$SKETCHINC
 40
1.0
  9
$FILLETRAD
 40
10.0
  9
$AUNITS
 70
     0
  9
$AUPREC
 70
     0
  9
$MENU
  1
.
  9
$ELEVATION
 40
0.0
  9
$PELEVATION
 40
0.0
  9
$THICKNESS
 40
0.0
  9
$LIMCHECK
 70
     0
  9
$BLIPMODE
 70
     0
  9
$CHAMFERA
 40
10.0
  9
$CHAMFERB
 40
10.0
  9
$SKPOLY
 70
     0
  9
$TDCREATE
 40
2452048.587873715
  9
$TDUPDATE
 40
2452048.6024910291
  9
$TDINDWG
 40
0.0146192824
  9
$TDUSRTIMER
 40
0.0146192824
  9
$USRTIMER
 70
     1
  9
$ANGBASE
 50
0.0
  9
$ANGDIR
 70
     0
  9
$PDMODE
 70
     0
  9
$PDSIZE
 40
0.0
  9
$PLINEWID
 40
0.0
  9
$COORDS
 70
     1
  9
$SPLFRAME
 70
     0
  9
$SPLINETYPE
 70
     6
  9
$SPLINESEGS
 70
     8
  9
$ATTDIA
 70
     0
  9
$ATTREQ
 70
     1
  9
$HANDLING
 70
-16383
  9
$HANDSEED
  5
5053
  9
$SURFTAB1
 70
     6
  9
$SURFTAB2
 70
     6
  9
$SURFTYPE
 70
     6
  9
$SURFU
 70
     6
  9
$SURFV
 70
     6
  9
$UCSNAME
  2

  9
$UCSORG
 10
0.0
 20
0.0
 30
0.0
  9
$UCSXDIR
 10
1.0
 20
0.0
 30
0.0
  9
$UCSYDIR
 10
0.0
 20
1.0
 30
0.0
  9
$PUCSNAME
  2

  9
$PUCSORG
 10
0.0
 20
0.0
 30
0.0
  9
$PUCSXDIR
 10
1.0
 20
0.0
 30
0.0
  9
$PUCSYDIR
 10
0.0
 20
1.0
 30
0.0
  9
$USERI1
 70
     0
  9
$USERI2
 70
     0
  9
$USERI3
 70
     0
  9
$USERI4
 70
     0
  9
$USERI5
 70
     0
  9
$USERR1
 40
0.0
  9
$USERR2
 40
0.0
  9
$USERR3
 40
0.0
  9
$USERR4
 40
0.0
  9
$USERR5
 40
0.0
  9
$WORLDVIEW
 70
     1
  9
$SHADEDGE
 70
     3
  9
$SHADEDIF
 70
    70
  9
$TILEMODE
 70
     1
  9
$MAXACTVP
 70
    64
  9
$PLIMCHECK
 70
     0
  9
$PEXTMIN
 10
1.0000000000000000E+020
 20
1.0000000000000000E+020
 30
1.0000000000000000E+020
  9
$PEXTMAX
 10
-1.0000000000000000E+020
 20
-1.0000000000000000E+020
 30
-1.0000000000000000E+020
  9
$PLIMMIN
 10
0.0
 20
0.0
  9
$PLIMMAX
 10
420.0
 20
297.0
  9
$UNITMODE
 70
     0
  9
$VISRETAIN
 70
     1
  9
$PLINEGEN
 70
     0
  9
$PSLTSCALE
 70
     1
  0
ENDSEC
  0
SECTION
  2
TABLES
  0
TABLE
  2
VPORT
 70
    28
  0
VPORT
  2
*ACTIVE
 70
     0
 10
0.0
 20
0.0
 11
1.0
 21
1.0
 12
243.19809294536361
 22
20.724196922940902
 13
0.0
 23
0.0
 14
10.0
 24
10.0
 15
10.0
 25
10.0
 16
0.0
 26
0.0
 36
1.0
 17
0.0
 27
0.0
 37
0.0
 40
1136.324782680095
 41
0.8452830188679245
 42
50.0
 43
0.0
 44
0.0
 50
0.0
 51
0.0
 71
     0
 72
   100
 73
     1
 74
     3
 75
     0
 76
     0
 77
     0
 78
     0
  0
ENDTAB
  0
TABLE
  2
LTYPE
 70
     1
  0
LTYPE
  2
CONTINUOUS
 70
     0
  3
Solid line
 72
    65
 73
     0
 40
0.0
  0
ENDTAB
  0
TABLE
  2
LAYER
 70
     2
  0
LAYER
  2
0
 70
     0
 62
     7
  6
CONTINUOUS
  0
LAYER
  2
1外形線
 70
     0
 62
     3
  6
CONTINUOUS
  0
ENDTAB
  0
TABLE
  2
STYLE
 70
     2
  0
STYLE
  2
STANDARD
 70
     0
 40
0.0
 41
1.0
 50
0.0
 71
     0
 42
2.5
  3
txt
  4

  0
STYLE
  2
KANJI
 70
     0
 40
0.0
 41
1.0
 50
0.0
 71
     0
 42
10.0
  3
simplex
  4
bigfont
  0
ENDTAB
  0
TABLE
  2
VIEW
 70
     0
  0
ENDTAB
  0
TABLE
  2
UCS
 70
     0
  0
ENDTAB
  0
TABLE
  2
APPID
 70
     1
  0
APPID
  2
ACAD
 70
     0
  0
ENDTAB
  0
TABLE
  2
DIMSTYLE
 70
     2
  0
DIMSTYLE
  2
ISO-25
 70
     0
  3

  4

  5

  6

  7

 40
1.0
 41
2.5
 42
0.625
 43
3.75
 44
1.25
 45
0.0
 46
0.0
 47
0.0
 48
0.0
140
2.5
141
2.5
142
0.0
143
0.03937007874016
144
1.0
145
0.0
146
1.0
147
0.625
 71
     0
 72
     0
 73
     0
 74
     0
 75
     0
 76
     0
 77
     1
 78
     8
170
     0
171
     3
172
     1
173
     0
174
     0
175
     0
176
     0
177
     0
178
     0
  0
DIMSTYLE
  2
STANDARD
 70
     0
  3

  4

  5

  6
1
  7
1
 40
1.0
 41
1.0
 42
1.0
 43
6.0
 44
1.0
 45
0.0
 46
0.0
 47
0.0
 48
0.0
140
2.5
141
0.0
142
0.0
143
25.399999999999999
144
1.0
145
0.0
146
1.0
147
0.5
 71
     0
 72
     0
 73
     0
 74
     0
 75
     0
 76
     0
 77
     1
 78
     8
170
     0
171
     2
172
     1
173
     1
174
     0
175
     0
176
     0
177
     0
178
     0
  0
ENDTAB
  0
ENDSEC
  0
SECTION
  2
BLOCKS
  0
BLOCK
  8
0
  2
$MODEL_SPACE
 70
     0
 10
0.0
 20
0.0
 30
0.0
  3
$MODEL_SPACE
  1

  0
ENDBLK
  5
21
  8
0
  0
BLOCK
 67
     1
  8
0
  2
$PAPER_SPACE
 70
     0
 10
0.0
 20
0.0
 30
0.0
  3
$PAPER_SPACE
  1

  0
ENDBLK
  5
1D
 67
     1
  8
0
  0
BLOCK
  8
0
  2
1
 70
     0
 10
0.0
 20
0.0
 30
0.0
  3
1
  1

  0
SOLID
  5
2C
  8
0
  6
BYBLOCK
 62
     0
 10
-1.811110924292052
 20
0.4852857095671653
 30
0.0
 11
-1.811110924292052
 21
-0.4852857095673642
 31
0.0
 12
0.0
 22
0.0
 32
0.0
 13
0.0
 23
0.0
 33
0.0
  0
ENDBLK
  5
2E
  8
0
  0
ENDSEC
  0
SECTION
  2
ENTITIES
  0
ARC
  5
4FE1
  8
1外形線
 10
107.553166720647
 20
81.351996074582132
 30
0.0
 40
40.0
 50
217.5895029648577
 51
322.41049703514221
  0
ARC
  5
4FE2
  8
1外形線
 10
107.553166720647
 20
81.351996074582132
 30
0.0
 40
40.0
 50
37.589502964857282
 51
142.4104970351427
  0
CIRCLE
  5
4FE3
  8
1外形線
 10
107.553166720647
 20
81.351996074582132
 30
0.0
 40
25.0
  0
LINE
  5
4FE4
  8
1外形線
 10
33.553166720641229
 20
27.864168044478781
 30
0.0
 11
181.5531667206524
 21
27.864168044478781
 31
0.0
  0
LINE
  5
4FE5
  8
1外形線
 10
33.553166720641229
 20
22.864168044478809
 30
0.0
 11
181.5531667206524
 21
22.864168044478749
 31
0.0
  0
CIRCLE
  5
4FE6
  8
1外形線
 10
47.853166720641518
 20
81.351996074582132
 30
0.0
 40
4.800000000002683
  0
LINE
  5
4FE7
  8
1外形線
 10
41.553166720641229
 20
102.55199607458189
 30
0.0
 11
41.553166720641109
 21
60.151996074582371
 31
0.0
  0
ARC
  5
4FE8
  8
1外形線
 10
34.55316672064361
 20
58.856983636694451
 30
0.0
 40
1.0
 50
180.0
 51
264.28940686249888
  0
LINE
  5
4FE9
  8
1外形線
 10
40.553166720641109
 20
59.151996074582371
 30
0.0
 11
33.753166720641161
 21
59.151996074581973
 31
0.0
  0
LINE
  5
4FEA
  8
1外形線
 10
33.553166720641229
 20
27.864168044478781
 30
0.0
 11
33.553166720641229
 21
22.864168044478809
 31
0.0
  0
LINE
  5
4FEB
  8
1外形線
 10
33.553166720641229
 20
58.95199607458192
 30
0.0
 11
33.553166720641229
 21
58.85698363669411
 31
0.0
  0
ARC
  5
4FEC
  8
1外形線
 10
33.753166720641161
 20
58.95199607458192
 30
0.0
 40
0.2
 50
90.000000000003652
 51
180.0000000000166
  0
LINE
  5
4FED
  8
1外形線
 10
82.558167220747009
 20
81.851996074581677
 30
0.0
 11
63.90265646342732
 21
81.851996074582246
 31
0.0
  0
LINE
  5
4FEE
  8
1外形線
 10
82.558167220747066
 20
80.851996074582118
 30
0.0
 11
63.90265646342732
 21
80.851996074582118
 31
0.0
  0
LINE
  5
4FEF
  8
1外形線
 10
63.653166720641593
 20
29.864168044478792
 30
0.0
 11
50.6531667206416
 21
29.864168044478792
 31
0.0
  0
LINE
  5
4FF0
  8
1外形線
 10
43.553166720643212
 20
22.864168044478749
 30
0.0
 11
43.553166720643212
 21
27.864168044478781
 31
0.0
  0
LINE
  5
4FF1
  8
1外形線
 10
49.653166720641593
 20
28.864168044478792
 30
0.0
 11
49.653166720641593
 21
27.864168044478781
 31
0.0
  0
ARC
  5
4FF2
  8
1外形線
 10
50.6531667206416
 20
28.864168044478792
 30
0.0
 40
1.0
 50
90.0
 51
180.0
  0
LINE
  5
4FF3
  8
1外形線
 10
64.653166720641593
 20
28.864168044478792
 30
0.0
 11
64.653166720641593
 21
27.864168044478781
 31
0.0
  0
ARC
  5
4FF4
  8
1外形線
 10
63.653166720641593
 20
28.864168044478792
 30
0.0
 40
1.0
 50
0.0
 51
90.0
  0
LINE
  5
4FF5
  8
1外形線
 10
75.857110183595296
 20
27.864168044478781
 30
0.0
 11
75.857110183595296
 21
22.864168044478781
 31
0.0
  0
LINE
  5
4FF6
  8
1外形線
 10
49.653166720641593
 20
60.751996074582557
 30
0.0
 11
64.653166720641593
 21
60.751996074582792
 31
0.0
  0
LINE
  5
4FF7
  8
1外形線
 10
49.653166720641593
 20
59.551996074582583
 30
0.0
 11
64.65316672064165
 21
59.551996074582803
 31
0.0
  0
LINE
  5
4FF8
  8
1外形線
 10
45.049435354270713
 20
56.951996074582041
 30
0.0
 11
75.857110183595296
 21
56.9519960745817
 31
0.0
  0
ARC
  5
4FF9
  8
1外形線
 10
56.653166720644201
 20
81.351996074582132
 30
0.0
 40
2.4999999999999991
 50
90.0
 51
270.0
  0
LINE
  5
4FFA
  8
1外形線
 10
42.064323783640361
 20
57.100880368282382
 30
0.0
 11
34.453663001622537
 21
57.86194644648441
 31
0.0
  0
ARC
  5
4FFB
  8
1外形線
 10
40.553166720641109
 20
60.151996074582371
 30
0.0
 40
1.0
 50
270.00000000000318
 51
359.99999999999972
  0
ARC
  5
4FFC
  8
1外形線
 10
45.049435354271047
 20
86.951996074582055
 30
0.0
 40
30.0
 50
264.28940686249888
 51
269.9999999999992
  0
LINE
  5
4FFD
  8
1外形線
 10
49.653166720641593
 20
60.751996074582557
 30
0.0
 11
49.653166720641593
 21
59.551996074582583
 31
0.0
  0
CIRCLE
  5
4FFE
  8
1外形線
 10
47.853166720641518
 20
81.351996074582132
 30
0.0
 40
3.6000000000000001
  0
CIRCLE
  5
4FFF
  8
1外形線
 10
47.853166720641518
 20
81.351996074582132
 30
0.0
 40
2.1000000000000001
  0
LINE
  5
5000
  8
1外形線
 10
54.203676977861051
 20
80.851996074582118
 30
0.0
 11
52.62705402555622
 21
80.851996074582118
 31
0.0
  0
LINE
  5
5001
  8
1外形線
 10
54.203676977861107
 20
81.85199607458253
 30
0.0
 11
52.627054025556163
 21
81.851996074582587
 31
0.0
  0
LINE
  5
5002
  8
1外形線
 10
64.653166720641593
 20
59.551996074582767
 30
0.0
 11
64.653166720641593
 21
60.751996074582792
 31
0.0
  0
ARC
  5
5003
  8
1外形線
 10
61.453166720644163
 20
81.351996074582132
 30
0.0
 40
2.4999999999999991
 50
270.0
 51
90.0
  0
LINE
  5
5004
  8
1外形線
 10
56.653166720644201
 20
83.851996074581791
 30
0.0
 11
61.453166720644163
 21
83.851996074581791
 31
0.0
  0
LINE
  5
5005
  8
1外形線
 10
56.653166720644201
 20
78.851996074581905
 30
0.0
 11
61.453166720644163
 21
78.851996074581905
 31
0.0
  0
ARC
  5
5006
  8
1外形線
 10
34.55316672064361
 20
103.8470085124699
 30
0.0
 40
1.0
 50
95.710593137500993
 51
180.0
  0
LINE
  5
5007
  8
1外形線
 10
40.553166720641222
 20
103.55199607458189
 30
0.0
 11
33.753166720643549
 21
103.55199607458169
 31
0.0
  0
LINE
  5
5008
  8
1外形線
 10
33.55316672064361
 20
103.8470085124699
 30
0.0
 11
33.55316672064361
 21
103.7519960745817
 31
0.0
  0
ARC
  5
5009
  8
1外形線
 10
33.753166720643549
 20
103.7519960745817
 30
0.0
 40
0.2
 50
180.0
 51
270.00000000000119
  0
LINE
  5
500A
  8
1外形線
 10
49.653166720641593
 20
103.1519960745816
 30
0.0
 11
64.65316672064165
 21
103.1519960745814
 31
0.0
  0
LINE
  5
500B
  8
1外形線
 10
49.653166720641593
 20
101.9519960745816
 30
0.0
 11
64.653166720641593
 21
101.9519960745814
 31
0.0
  0
LINE
  5
500C
  8
1外形線
 10
45.049435354273889
 20
105.75199607458249
 30
0.0
 11
75.857110183595182
 21
105.75199607458229
 31
0.0
  0
LINE
  5
500D
  8
1外形線
 10
42.06432378364309
 20
105.6031117808822
 30
0.0
 11
34.453663001622537
 21
104.8420457026799
 31
0.0
  0
ARC
  5
500E
  8
1外形線
 10
40.553166720641222
 20
102.55199607458189
 30
0.0
 40
1.0
 50
359.9999999999996
 51
90.000000000001606
  0
ARC
  5
500F
  8
1外形線
 10
45.049435354273669
 20
75.751996074582564
 30
0.0
 40
30.0
 50
89.999999999999588
 51
95.710593137500581
  0
LINE
  5
5010
  8
1外形線
 10
49.653166720641593
 20
101.9519960745816
 30
0.0
 11
49.653166720641593
 21
103.1519960745816
 31
0.0
  0
LINE
  5
5011
  8
1外形線
 10
64.653166720641593
 20
103.1519960745814
 30
0.0
 11
64.653166720641593
 21
101.9519960745814
 31
0.0
  0
CIRCLE
  5
5012
  8
1外形線
 10
167.2531667206525
 20
81.351996074582132
 30
0.0
 40
4.800000000002683
  0
LINE
  5
5013
  8
1外形線
 10
173.55316672065291
 20
102.55199607458189
 30
0.0
 11
173.55316672065291
 21
60.151996074582371
 31
0.0
  0
LINE
  5
5014
  8
1外形線
 10
280.06515246027408
 20
22.864168044478731
 30
0.0
 11
200.06515246027399
 21
22.864168044478749
 31
0.0
  0
LINE
  5
5015
  8
1外形線
 10
280.06515246027408
 20
27.86416804447876
 30
0.0
 11
200.06515246027399
 21
27.864168044478781
 31
0.0
  0
LINE
  5
5016
  8
1外形線
 10
170.05689808702331
 20
56.951996074582041
 30
0.0
 11
139.2492232576987
 21
56.9519960745817
 31
0.0
  0
CIRCLE
  5
5017
  8
1外形線
 10
167.2531667206525
 20
81.351996074582132
 30
0.0
 40
3.6000000000000001
  0
CIRCLE
  5
5018
  8
1外形線
 10
167.2531667206525
 20
81.351996074582132
 30
0.0
 40
2.1000000000000001
  0
LINE
  5
5019
  8
1外形線
 10
139.2492232576987
 20
27.864168044478781
 30
0.0
 11
139.2492232576987
 21
22.864168044478781
 31
0.0
  0
LINE
  5
501A
  8
1外形線
 10
151.4531667206524
 20
29.864168044478792
 30
0.0
 11
164.4531667206524
 21
29.864168044478792
 31
0.0
  0
LINE
  5
501B
  8
1外形線
 10
150.4531667206524
 20
28.864168044478792
 30
0.0
 11
150.4531667206524
 21
27.864168044478781
 31
0.0
  0
ARC
  5
501C
  8
1外形線
 10
151.4531667206524
 20
28.864168044478792
 30
0.0
 40
1.0
 50
90.0
 51
180.0
  0
LINE
  5
501D
  8
1外形線
 10
165.4531667206524
 20
28.864168044478792
 30
0.0
 11
165.4531667206524
 21
27.864168044478781
 31
0.0
  0
ARC
  5
501E
  8
1外形線
 10
164.4531667206524
 20
28.864168044478792
 30
0.0
 40
1.0
 50
0.0
 51
90.0
  0
LINE
  5
501F
  8
1外形線
 10
132.54816622054699
 20
81.851996074581677
 30
0.0
 11
151.20367697786671
 21
81.851996074582246
 31
0.0
  0
LINE
  5
5020
  8
1外形線
 10
132.5481662205469
 20
80.851996074582118
 30
0.0
 11
151.20367697786671
 21
80.851996074582118
 31
0.0
  0
LINE
  5
5021
  8
1外形線
 10
165.4531667206524
 20
59.551996074582583
 30
0.0
 11
150.4531667206524
 21
59.551996074582803
 31
0.0
  0
LINE
  5
5022
  8
1外形線
 10
165.4531667206524
 20
60.751996074582557
 30
0.0
 11
150.4531667206524
 21
60.751996074582792
 31
0.0
  0
LINE
  5
5023
  8
1外形線
 10
150.4531667206524
 20
59.551996074582767
 30
0.0
 11
150.4531667206524
 21
60.751996074582792
 31
0.0
  0
LINE
  5
5024
  8
1外形線
 10
165.4531667206524
 20
60.751996074582557
 30
0.0
 11
165.4531667206524
 21
59.551996074582583
 31
0.0
  0
LINE
  5
5025
  8
1外形線
 10
158.45316672064979
 20
83.851996074581791
 30
0.0
 11
153.65316672064989
 21
83.851996074581791
 31
0.0
  0
LINE
  5
5026
  8
1外形線
 10
158.45316672064979
 20
78.851996074581905
 30
0.0
 11
153.65316672064989
 21
78.851996074581905
 31
0.0
  0
ARC
  5
5027
  8
1外形線
 10
153.65316672064989
 20
81.351996074582132
 30
0.0
 40
2.4999999999999991
 50
90.0
 51
270.0
  0
LINE
  5
5028
  8
1外形線
 10
160.90265646343289
 20
81.85199607458253
 30
0.0
 11
162.47927941573789
 21
81.851996074582587
 31
0.0
  0
LINE
  5
5029
  8
1外形線
 10
160.902656463433
 20
80.851996074582118
 30
0.0
 11
162.47927941573781
 21
80.851996074582118
 31
0.0
  0
ARC
  5
502A
  8
1外形線
 10
158.45316672064979
 20
81.351996074582132
 30
0.0
 40
2.4999999999999991
 50
270.0
 51
90.0
  0
LINE
  5
502B
  8
1外形線
 10
171.55316672065089
 20
22.864168044478749
 30
0.0
 11
171.55316672065089
 21
27.864168044478781
 31
0.0
  0
LINE
  5
502C
  8
1外形線
 10
181.5531667206528
 20
27.864168044478781
 30
0.0
 11
181.5531667206528
 21
22.864168044478749
 31
0.0
  0
LINE
  5
502D
  8
1外形線
 10
200.06515246027399
 20
27.864168044478781
 30
0.0
 11
200.06515246027411
 21
22.864168044478749
 31
0.0
  0
LINE
  5
502E
  8
1外形線
 10
173.04200965765369
 20
57.100880368282382
 30
0.0
 11
180.65267043967151
 21
57.86194644648441
 31
0.0
  0
LINE
  5
502F
  8
1外形線
 10
174.55316672065291
 20
59.151996074582371
 30
0.0
 11
181.35316672065289
 21
59.151996074581973
 31
0.0
  0
ARC
  5
5030
  8
1外形線
 10
174.55316672065291
 20
60.151996074582371
 30
0.0
 40
1.0
 50
180.0000000000002
 51
269.9999999999967
  0
ARC
  5
5031
  8
1外形線
 10
170.056898087023
 20
86.951996074582055
 30
0.0
 40
30.0
 50
270.0000000000004
 51
275.71059313750101
  0
ARC
  5
5032
  8
1外形線
 10
180.55316672065041
 20
58.856983636694451
 30
0.0
 40
1.0
 50
275.71059313750061
 51
0.0
  0
LINE
  5
5033
  8
1外形線
 10
181.5531667206528
 20
58.95199607458192
 30
0.0
 11
181.5531667206528
 21
58.85698363669411
 31
0.0
  0
ARC
  5
5034
  8
1外形線
 10
181.35316672065289
 20
58.95199607458192
 30
0.0
 40
0.2
 50
359.99999999998329
 51
89.999999999996334
  0
LINE
  5
5035
  8
1外形線
 10
218.26515246027409
 20
29.864168044478799
 30
0.0
 11
218.26515246027421
 21
27.86416804447876
 31
0.0
  0
LINE
  5
5036
  8
1外形線
 10
219.46515246027411
 20
29.864168044478699
 30
0.0
 11
219.46515246027411
 21
27.86416804447876
 31
0.0
  0
LINE
  5
5037
  8
1外形線
 10
217.86515246027429
 20
27.864168044478731
 30
0.0
 11
217.86515246027429
 21
22.864168044478731
 31
0.0
  0
LINE
  5
5038
  8
1外形線
 10
215.66515246027359
 20
27.86416804447876
 30
0.0
 11
215.66515246027359
 21
22.864168044478731
 31
0.0
  0
LINE
  5
5039
  8
1外形線
 10
218.26515246027409
 20
29.864168044478799
 30
0.0
 11
219.4651524602742
 21
29.864168044478749
 31
0.0
  0
LINE
  5
503A
  8
1外形線
 10
260.66515246027399
 20
29.864168044478699
 30
0.0
 11
260.66515246027399
 21
27.86416804447876
 31
0.0
  0
LINE
  5
503B
  8
1外形線
 10
261.86515246027392
 20
29.864168044478799
 30
0.0
 11
261.86515246027392
 21
27.86416804447876
 31
0.0
  0
LINE
  5
503C
  8
1外形線
 10
262.26515246027373
 20
27.864168044478731
 30
0.0
 11
262.26515246027373
 21
22.864168044478731
 31
0.0
  0
LINE
  5
503D
  8
1外形線
 10
264.46515246027428
 20
27.86416804447876
 30
0.0
 11
264.46515246027428
 21
22.864168044478731
 31
0.0
  0
LINE
  5
503E
  8
1外形線
 10
261.86515246027392
 20
29.864168044478799
 30
0.0
 11
260.66515246027387
 21
29.864168044478749
 31
0.0
  0
LINE
  5
503F
  8
1外形線
 10
280.06515246027408
 20
27.864168044478731
 30
0.0
 11
280.06515246027408
 21
22.864168044478731
 31
0.0
  0
LINE
  5
5040
  8
1外形線
 10
170.0568980870201
 20
105.75199607458249
 30
0.0
 11
139.24922325769879
 21
105.75199607458229
 31
0.0
  0
LINE
  5
5041
  8
1外形線
 10
165.4531667206524
 20
101.9519960745816
 30
0.0
 11
150.4531667206524
 21
101.9519960745814
 31
0.0
  0
LINE
  5
5042
  8
1外形線
 10
165.4531667206524
 20
103.1519960745816
 30
0.0
 11
150.4531667206524
 21
103.1519960745814
 31
0.0
  0
LINE
  5
5043
  8
1外形線
 10
150.4531667206524
 20
103.1519960745814
 30
0.0
 11
150.4531667206524
 21
101.9519960745814
 31
0.0
  0
LINE
  5
5044
  8
1外形線
 10
165.4531667206524
 20
101.9519960745816
 30
0.0
 11
165.4531667206524
 21
103.1519960745816
 31
0.0
  0
LINE
  5
5045
  8
1外形線
 10
173.04200965765091
 20
105.6031117808822
 30
0.0
 11
180.65267043967151
 21
104.8420457026799
 31
0.0
  0
LINE
  5
5046
  8
1外形線
 10
174.5531667206528
 20
103.55199607458189
 30
0.0
 11
181.35316672065051
 21
103.55199607458169
 31
0.0
  0
ARC
  5
5047
  8
1外形線
 10
174.5531667206528
 20
102.55199607458189
 30
0.0
 40
1.0
 50
89.999999999998366
 51
180.0000000000002
  0
ARC
  5
5048
  8
1外形線
 10
170.0568980870203
 20
75.751996074582564
 30
0.0
 40
30.0
 50
84.289406862499419
 51
90.000000000000398
  0
LINE
  5
5049
  8
1外形線
 10
181.55316672065041
 20
103.8470085124699
 30
0.0
 11
181.55316672065041
 21
103.7519960745817
 31
0.0
  0
ARC
  5
504A
  8
1外形線
 10
180.55316672065041
 20
103.8470085124699
 30
0.0
 40
1.0
 50
0.0
 51
84.289406862499007
  0
ARC
  5
504B
  8
1外形線
 10
181.35316672065051
 20
103.7519960745817
 30
0.0
 40
0.2
 50
269.99999999999869
 51
0.0
  0
ENDSEC
  0
EOF
